  0
SECTION
  2
HEADER
  9
$ACADVER
  1
AC1015
  9
$ACADMAINTVER
 70
    20
  9
$DWGCODEPAGE
  3
ANSI_1250
  9
$INSBASE
 10
0.0
 20
0.0
 30
0.0
  9
$EXTMIN
 10
0.1269747356611788
 20
-0.0080282512989243
 30
-0.0000000349181948
  9
$EXTMAX
 10
334.5007944044954
 20
297.022772577922
 30
0.0000000814935746
  9
$LIMMIN
 10
0.1481678221225593
 20
0.0045843716322906
  9
$LIMMAX
 10
334.4999419142125
 20
297.0045843716323
  9
$ORTHOMODE
 70
     0
  9
$REGENMODE
 70
     1
  9
$FILLMODE
 70
     1
  9
$QTEXTMODE
 70
     0
  9
$MIRRTEXT
 70
     0
  9
$LTSCALE
 40
1.0
  9
$ATTMODE
 70
     2
  9
$TEXTSIZE
 40
5.0
  9
$TRACEWID
 40
1.0
  9
$TEXTSTYLE
  7
Solbet_5
  9
$CLAYER
  8
SOLBET_Bloczki
  9
$CELTYPE
  6
ByLayer
  9
$CECOLOR
 62
   256
  9
$CELTSCALE
 40
1.0
  9
$DISPSILH
 70
     0
  9
$DIMSCALE
 40
1.0
  9
$DIMASZ
 40
2.5
  9
$DIMEXO
 40
0.0
  9
$DIMDLI
 40
3.75
  9
$DIMRND
 40
0.0
  9
$DIMDLE
 40
0.0
  9
$DIMEXE
 40
1.25
  9
$DIMTP
 40
0.0
  9
$DIMTM
 40
0.0
  9
$DIMTXT
 40
2.5
  9
$DIMCEN
 40
2.5
  9
$DIMTSZ
 40
0.0
  9
$DIMTOL
 70
     0
  9
$DIMLIM
 70
     0
  9
$DIMTIH
 70
     0
  9
$DIMTOH
 70
     0
  9
$DIMSE1
 70
     0
  9
$DIMSE2
 70
     0
  9
$DIMTAD
 70
     1
  9
$DIMZIN
 70
     8
  9
$DIMBLK
  1

  9
$DIMASO
 70
     1
  9
$DIMSHO
 70
     1
  9
$DIMPOST
  1

  9
$DIMAPOST
  1

  9
$DIMALT
 70
     0
  9
$DIMALTD
 70
     3
  9
$DIMALTF
 40
0.03937007874016
  9
$DIMLFAC
 40
1.0
  9
$DIMTOFL
 70
     1
  9
$DIMTVP
 40
0.0
  9
$DIMTIX
 70
     0
  9
$DIMSOXD
 70
     0
  9
$DIMSAH
 70
     0
  9
$DIMBLK1
  1

  9
$DIMBLK2
  1

  9
$DIMSTYLE
  2
Solbet
  9
$DIMCLRD
 70
     0
  9
$DIMCLRE
 70
     0
  9
$DIMCLRT
 70
     0
  9
$DIMTFAC
 40
1.0
  9
$DIMGAP
 40
0.625
  9
$DIMJUST
 70
     0
  9
$DIMSD1
 70
     0
  9
$DIMSD2
 70
     0
  9
$DIMTOLJ
 70
     0
  9
$DIMTZIN
 70
     8
  9
$DIMALTZ
 70
     0
  9
$DIMALTTZ
 70
     0
  9
$DIMUPT
 70
     0
  9
$DIMDEC
 70
     2
  9
$DIMTDEC
 70
     2
  9
$DIMALTU
 70
     2
  9
$DIMALTTD
 70
     3
  9
$DIMTXSTY
  7
Solbet_2_5
  9
$DIMAUNIT
 70
     0
  9
$DIMADEC
 70
     0
  9
$DIMALTRND
 40
0.0
  9
$DIMAZIN
 70
     0
  9
$DIMDSEP
 70
    44
  9
$DIMATFIT
 70
     3
  9
$DIMFRAC
 70
     0
  9
$DIMLDRBLK
  1

  9
$DIMLUNIT
 70
     2
  9
$DIMLWD
 70
    -2
  9
$DIMLWE
 70
    -2
  9
$DIMTMOVE
 70
     0
  9
$LUNITS
 70
     2
  9
$LUPREC
 70
     4
  9
$SKETCHINC
 40
1.0
  9
$FILLETRAD
 40
0.0
  9
$AUNITS
 70
     0
  9
$AUPREC
 70
     0
  9
$MENU
  1
.
  9
$ELEVATION
 40
0.0
  9
$PELEVATION
 40
0.0
  9
$THICKNESS
 40
0.0
  9
$LIMCHECK
 70
     0
  9
$CHAMFERA
 40
0.0
  9
$CHAMFERB
 40
0.0
  9
$CHAMFERC
 40
0.0
  9
$CHAMFERD
 40
0.0
  9
$SKPOLY
 70
     0
  9
$TDCREATE
 40
2454690.075573148
  9
$TDUCREATE
 40
2454690.033906482
  9
$TDUPDATE
 40
2454848.861120243
  9
$TDUUPDATE
 40
2454848.819453577
  9
$TDINDWG
 40
0.5462934606
  9
$TDUSRTIMER
 40
0.5462889352
  9
$USRTIMER
 70
     1
  9
$ANGBASE
 50
0.0
  9
$ANGDIR
 70
     0
  9
$PDMODE
 70
     0
  9
$PDSIZE
 40
0.0
  9
$PLINEWID
 40
0.0
  9
$SPLFRAME
 70
     0
  9
$SPLINETYPE
 70
     6
  9
$SPLINESEGS
 70
     8
  9
$HANDSEED
  5
2AB6
  9
$SURFTAB1
 70
     6
  9
$SURFTAB2
 70
     6
  9
$SURFTYPE
 70
     6
  9
$SURFU
 70
     6
  9
$SURFV
 70
     6
  9
$UCSBASE
  2

  9
$UCSNAME
  2

  9
$UCSORG
 10
0.0
 20
0.0
 30
0.0
  9
$UCSXDIR
 10
1.0
 20
0.0
 30
0.0
  9
$UCSYDIR
 10
0.0
 20
1.0
 30
0.0
  9
$UCSORTHOREF
  2

  9
$UCSORTHOVIEW
 70
     0
  9
$UCSORGTOP
 10
0.0
 20
0.0
 30
0.0
  9
$UCSORGBOTTOM
 10
0.0
 20
0.0
 30
0.0
  9
$UCSORGLEFT
 10
0.0
 20
0.0
 30
0.0
  9
$UCSORGRIGHT
 10
0.0
 20
0.0
 30
0.0
  9
$UCSORGFRONT
 10
0.0
 20
0.0
 30
0.0
  9
$UCSORGBACK
 10
0.0
 20
0.0
 30
0.0
  9
$PUCSBASE
  2

  9
$PUCSNAME
  2

  9
$PUCSORG
 10
0.0
 20
0.0
 30
0.0
  9
$PUCSXDIR
 10
1.0
 20
0.0
 30
0.0
  9
$PUCSYDIR
 10
0.0
 20
1.0
 30
0.0
  9
$PUCSORTHOREF
  2

  9
$PUCSORTHOVIEW
 70
     0
  9
$PUCSORGTOP
 10
0.0
 20
0.0
 30
0.0
  9
$PUCSORGBOTTOM
 10
0.0
 20
0.0
 30
0.0
  9
$PUCSORGLEFT
 10
0.0
 20
0.0
 30
0.0
  9
$PUCSORGRIGHT
 10
0.0
 20
0.0
 30
0.0
  9
$PUCSORGFRONT
 10
0.0
 20
0.0
 30
0.0
  9
$PUCSORGBACK
 10
0.0
 20
0.0
 30
0.0
  9
$USERI1
 70
     0
  9
$USERI2
 70
     0
  9
$USERI3
 70
     0
  9
$USERI4
 70
     0
  9
$USERI5
 70
     0
  9
$USERR1
 40
0.0
  9
$USERR2
 40
0.0
  9
$USERR3
 40
0.0
  9
$USERR4
 40
0.0
  9
$USERR5
 40
0.0
  9
$WORLDVIEW
 70
     1
  9
$SHADEDGE
 70
     3
  9
$SHADEDIF
 70
    70
  9
$TILEMODE
 70
     1
  9
$MAXACTVP
 70
    64
  9
$PINSBASE
 10
0.0
 20
0.0
 30
0.0
  9
$PLIMCHECK
 70
     0
  9
$PEXTMIN
 10
0.0
 20
0.0
 30
0.0
  9
$PEXTMAX
 10
0.0
 20
0.0
 30
0.0
  9
$PLIMMIN
 10
0.0
 20
0.0
  9
$PLIMMAX
 10
12.0
 20
9.0
  9
$UNITMODE
 70
     0
  9
$VISRETAIN
 70
     1
  9
$PLINEGEN
 70
     0
  9
$PSLTSCALE
 70
     1
  9
$TREEDEPTH
 70
  3020
  9
$CMLSTYLE
  2
SOLBET_IZOLACJA
  9
$CMLJUST
 70
     0
  9
$CMLSCALE
 40
20.0
  9
$PROXYGRAPHICS
 70
     1
  9
$MEASUREMENT
 70
     1
  9
$CELWEIGHT
370
    -1
  9
$ENDCAPS
280
     0
  9
$JOINSTYLE
280
     0
  9
$LWDISPLAY
290
     1
  9
$INSUNITS
 70
     4
  9
$HYPERLINKBASE
  1

  9
$STYLESHEET
  1

  9
$XEDIT
290
     1
  9
$CEPSNTYPE
380
     0
  9
$PSTYLEMODE
290
     1
  9
$FINGERPRINTGUID
  2
{6B12AB33-8E39-428E-8E85-461C8D99A3CB}
  9
$VERSIONGUID
  2
{209725CA-BF52-4CBE-A2C6-5A2B7753E3FE}
  9
$EXTNAMES
290
     1
  9
$PSVPSCALE
 40
0.0
  9
$OLESTARTUP
290
     0
  0
ENDSEC
  0
SECTION
  2
CLASSES
  0
CLASS
  1
ACDBDICTIONARYWDFLT
  2
AcDbDictionaryWithDefault
  3
ObjectDBX Classes
 90
        0
280
     0
281
     0
  0
CLASS
  1
ACDBPLACEHOLDER
  2
AcDbPlaceHolder
  3
ObjectDBX Classes
 90
        0
280
     0
281
     0
  0
CLASS
  1
LAYOUT
  2
AcDbLayout
  3
ObjectDBX Classes
 90
        0
280
     0
281
     0
  0
CLASS
  1
DICTIONARYVAR
  2
AcDbDictionaryVar
  3
ObjectDBX Classes
 90
        0
280
     0
281
     0
  0
CLASS
  1
TABLESTYLE
  2
AcDbTableStyle
  3
ObjectDBX Classes
 90
     4095
280
     0
281
     0
  0
CLASS
  1
MATERIAL
  2
AcDbMaterial
  3
ObjectDBX Classes
 90
     1024
280
     0
281
     0
  0
CLASS
  1
VISUALSTYLE
  2
AcDbVisualStyle
  3
ObjectDBX Classes
 90
     4095
280
     0
281
     0
  0
CLASS
  1
SCALE
  2
AcDbScale
  3
ObjectDBX Classes
 90
     1153
280
     0
281
     0
  0
CLASS
  1
MLEADERSTYLE
  2
AcDbMLeaderStyle
  3
ACDB_MLEADERSTYLE_CLASS
 90
     4095
280
     0
281
     0
  0
CLASS
  1
CELLSTYLEMAP
  2
AcDbCellStyleMap
  3
ObjectDBX Classes
 90
     1152
280
     0
281
     0
  0
CLASS
  1
DIMASSOC
  2
AcDbDimAssoc
  3
"AcDbDimAssoc|Product Desc:     AcDim ARX App For Dimension|Company:          Autodesk, Inc.|WEB Address:      www.autodesk.com"
 90
    32768
280
     0
281
     0
  0
CLASS
  1
SORTENTSTABLE
  2
AcDbSortentsTable
  3
ObjectDBX Classes
 90
        0
280
     0
281
     0
  0
CLASS
  1
MULTILEADER
  2
AcDbMLeader
  3
ACDB_MLEADER_CLASS
 90
    33793
280
     0
281
     1
  0
CLASS
  1
ACDB_MTEXTOBJECTCONTEXTDATA_CLASS
  2
AcDbMTextObjectContextData
  3
ObjectDBX Classes
 90
    33921
280
     0
281
     0
  0
ENDSEC
  0
SECTION
  2
TABLES
  0
TABLE
  2
VPORT
  5
8
102
{ACAD_XDICTIONARY
360
443
102
}
330
0
100
AcDbSymbolTable
 70
     1
  0
VPORT
  5
EA
330
8
100
AcDbSymbolTableRecord
100
AcDbViewportTableRecord
  2
*Active
 70
     0
 10
0.0
 20
0.0
 11
1.0
 21
1.0
 12
167.3138845700783
 22
148.5073721633115
 13
0.0
 23
0.0
 14
10.0
 24
10.0
 15
10.0
 25
10.0
 16
0.0
 26
0.0
 36
1.0
 17
0.0
 27
0.0
 37
0.0
 40
300.3311430606567
 41
1.74582560296846
 42
50.0
 43
0.0
 44
0.0
 50
0.0
 51
0.0
 71
     0
 72
  1000
 73
     1
 74
     3
 75
     0
 76
     0
 77
     0
 78
     0
281
     0
 65
     1
110
0.0
120
0.0
130
0.0
111
1.0
121
0.0
131
0.0
112
0.0
122
1.0
132
0.0
 79
     0
146
0.0
  0
ENDTAB
  0
TABLE
  2
LTYPE
  5
5
330
0
100
AcDbSymbolTable
 70
     3
  0
LTYPE
  5
14
330
5
100
AcDbSymbolTableRecord
100
AcDbLinetypeTableRecord
  2
ByBlock
 70
     0
  3

 72
    65
 73
     0
 40
0.0
  0
LTYPE
  5
15
330
5
100
AcDbSymbolTableRecord
100
AcDbLinetypeTableRecord
  2
ByLayer
 70
     0
  3

 72
    65
 73
     0
 40
0.0
  0
LTYPE
  5
16
330
5
100
AcDbSymbolTableRecord
100
AcDbLinetypeTableRecord
  2
Continuous
 70
     0
  3
Solid line
 72
    65
 73
     0
 40
0.0
  0
LTYPE
  5
2B9
330
5
100
AcDbSymbolTableRecord
100
AcDbLinetypeTableRecord
  2
VERDECKT
 70
     0
  3
__ __ __ __ __ __ __ __ __ __ __ __ __ __ __ __
 72
    65
 73
     2
 40
0.375
 49
0.25
 74
     0
 49
-0.125
 74
     0
  0
LTYPE
  5
982
330
5
100
AcDbSymbolTableRecord
100
AcDbLinetypeTableRecord
  2
BATTING
 70
     0
  3
Batting SSSSSSSSSSSSSSSSSSSSSSSSSSSSSSSSSSSSSSSSSSSSSSS
 72
    65
 73
     4
 40
10.16254
 49
0.00254
 74
     0
 49
-2.54
 74
     4
 75
   134
340
7E7
 46
2.54
 50
0.0
 44
-2.54
 45
0.0
 49
-5.08
 74
     4
 75
   134
340
7E7
 46
2.54
 50
180.0
 44
2.54
 45
0.0
 49
-2.54
 74
     0
  0
ENDTAB
  0
TABLE
  2
LAYER
  5
2
102
{ACAD_XDICTIONARY
360
3E5
102
}
330
0
100
AcDbSymbolTable
 70
    13
  0
LAYER
  5
10
102
{ACAD_XDICTIONARY
360
13C
102
}
330
2
100
AcDbSymbolTableRecord
100
AcDbLayerTableRecord
  2
0
 70
     0
 62
     7
  6
Continuous
370
    -3
390
F
  0
LAYER
  5
2BB
330
2
100
AcDbSymbolTableRecord
100
AcDbLayerTableRecord
  2
DEFPOINTS
 70
     0
 62
     7
  6
Continuous
290
     0
370
    -3
390
F
  0
LAYER
  5
3DD
102
{ACAD_XDICTIONARY
360
403
102
}
330
2
100
AcDbSymbolTableRecord
100
AcDbLayerTableRecord
  2
SOLBET_Bloczki
 70
     0
 62
   140
  6
Continuous
370
    -3
390
F
1001
AcAecLayerStandard
1000

1000

  0
LAYER
  5
3DF
102
{ACAD_XDICTIONARY
360
405
102
}
330
2
100
AcDbSymbolTableRecord
100
AcDbLayerTableRecord
  2
SOLBET_Wymiary_Opisy
 70
     0
 62
     1
  6
Continuous
370
    -3
390
F
1001
AcAecLayerStandard
1000

1000

  0
LAYER
  5
3E0
102
{ACAD_XDICTIONARY
360
407
102
}
330
2
100
AcDbSymbolTableRecord
100
AcDbLayerTableRecord
  2
SOLBET_Beton
 70
     0
 62
     9
  6
Continuous
370
    -3
390
F
1001
AcAecLayerStandard
1000

1000

  0
LAYER
  5
3E1
102
{ACAD_XDICTIONARY
360
409
102
}
330
2
100
AcDbSymbolTableRecord
100
AcDbLayerTableRecord
  2
SOLBET_Izolacja
 70
     0
 62
    40
  6
Continuous
370
    -3
390
F
1001
AcAecLayerStandard
1000

1000

  0
LAYER
  5
3E2
102
{ACAD_XDICTIONARY
360
40B
102
}
330
2
100
AcDbSymbolTableRecord
100
AcDbLayerTableRecord
  2
SOLBET_Zbrojenie_Konstrukcja
 70
     0
 62
     7
  6
Continuous
370
    -3
390
F
1001
AcAecLayerStandard
1000

1000

  0
LAYER
  5
3E4
102
{ACAD_XDICTIONARY
360
40F
102
}
330
2
100
AcDbSymbolTableRecord
100
AcDbLayerTableRecord
  2
SOLBET_Tynki_Posadzki
 70
     0
 62
     3
  6
Continuous
370
    -3
390
F
1001
AcAecLayerStandard
1000

1000

  0
LAYER
  5
3E8
102
{ACAD_XDICTIONARY
360
411
102
}
330
2
100
AcDbSymbolTableRecord
100
AcDbLayerTableRecord
  2
SOLBET_Ramka_05
 70
     0
 62
     2
  6
Continuous
370
    -3
390
F
1001
AcAecLayerStandard
1000

1000

  0
LAYER
  5
472
330
2
100
AcDbSymbolTableRecord
100
AcDbLayerTableRecord
  2
SOLBET_Zaprawy
 70
     0
 62
     4
  6
Continuous
370
    -3
390
F
1001
AcAecLayerStandard
1000

1000

  0
LAYER
  5
4E2
330
2
100
AcDbSymbolTableRecord
100
AcDbLayerTableRecord
  2
SOLBET_Emulsje_Folie
 70
     0
 62
     6
  6
Continuous
370
    -3
390
F
1001
AcAecLayerStandard
1000

1000

  0
LAYER
  5
238B
330
2
100
AcDbSymbolTableRecord
100
AcDbLayerTableRecord
  2
SOLBET_Stolarka_Okna
 70
     0
 62
     2
  6
Continuous
370
    -3
390
F
1001
AcAecLayerStandard
1000

1000

  0
LAYER
  5
292D
102
{ACAD_XDICTIONARY
360
292E
102
}
330
2
100
AcDbSymbolTableRecord
100
AcDbLayerTableRecord
  2
SOLBET_Wymiary_Opisy @ 1
 70
     0
 62
     1
  6
Continuous
370
    -3
390
F
1001
AcAecLayerStandard
1000

1000

1001
AcadAnnotativeDecomposition
1000
AnnotativeData
1002
{
1070
     1
1070
     1
1002
}
  0
ENDTAB
  0
TABLE
  2
STYLE
  5
3
330
0
100
AcDbSymbolTable
 70
     5
  0
STYLE
  5
11
330
3
100
AcDbSymbolTableRecord
100
AcDbTextStyleTableRecord
  2
Standard
 70
     0
 40
0.0
 41
1.0
 50
0.0
 71
     0
 42
2.5
  3
txt.shx
  4

  0
STYLE
  5
7D7
330
3
100
AcDbSymbolTableRecord
100
AcDbTextStyleTableRecord
  2
Solbet_5
 70
     0
 40
5.0
 41
1.0
 50
0.0
 71
     0
 42
5.0
  3
isocpeur.ttf
  4

1001
ACAD
1000
ISOCPEUR
1071
       34
  0
STYLE
  5
7D9
330
3
100
AcDbSymbolTableRecord
100
AcDbTextStyleTableRecord
  2
Solbet_2_5
 70
     0
 40
2.5
 41
1.0
 50
0.0
 71
     0
 42
2.5
  3
isocpeur.ttf
  4

1001
ACAD
1000
ISOCPEUR
1071
       34
  0
STYLE
  5
7E7
330
3
100
AcDbSymbolTableRecord
100
AcDbTextStyleTableRecord
  2

 70
     1
 40
0.0
 41
1.0
 50
0.0
 71
     0
 42
2.5
  3
ltypeshp.shx
  4

  0
STYLE
  5
230A
330
3
100
AcDbSymbolTableRecord
100
AcDbTextStyleTableRecord
  2
Solbet_1
 70
     0
 40
1.0
 41
1.0
 50
0.0
 71
     0
 42
2.5
  3
isocpeur.ttf
  4

1001
ACAD
1000
ISOCPEUR
1071
       34
  0
ENDTAB
  0
TABLE
  2
VIEW
  5
6
330
0
100
AcDbSymbolTable
 70
     0
  0
ENDTAB
  0
TABLE
  2
UCS
  5
7
330
0
100
AcDbSymbolTable
 70
     0
  0
ENDTAB
  0
TABLE
  2
APPID
  5
9
330
0
100
AcDbSymbolTable
 70
    13
  0
APPID
  5
12
330
9
100
AcDbSymbolTableRecord
100
AcDbRegAppTableRecord
  2
ACAD
 70
     0
  0
APPID
  5
9E
330
9
100
AcDbSymbolTableRecord
100
AcDbRegAppTableRecord
  2
ACAD_PSEXT
 70
     0
  0
APPID
  5
133
330
9
100
AcDbSymbolTableRecord
100
AcDbRegAppTableRecord
  2
AcadAnnoPO
 70
     0
  0
APPID
  5
134
330
9
100
AcDbSymbolTableRecord
100
AcDbRegAppTableRecord
  2
AcadAnnotative
 70
     0
  0
APPID
  5
135
330
9
100
AcDbSymbolTableRecord
100
AcDbRegAppTableRecord
  2
ACAD_DSTYLE_DIMJAG
 70
     0
  0
APPID
  5
136
330
9
100
AcDbSymbolTableRecord
100
AcDbRegAppTableRecord
  2
ACAD_DSTYLE_DIMTALN
 70
     0
  0
APPID
  5
165
330
9
100
AcDbSymbolTableRecord
100
AcDbRegAppTableRecord
  2
ACAD_MLEADERVER
 70
     0
  0
APPID
  5
2C4
330
9
100
AcDbSymbolTableRecord
100
AcDbRegAppTableRecord
  2
ASO_SCHRAFF
 70
     0
  0
APPID
  5
3DE
330
9
100
AcDbSymbolTableRecord
100
AcDbRegAppTableRecord
  2
AcAecLayerStandard
 70
     0
  0
APPID
  5
7DE
330
9
100
AcDbSymbolTableRecord
100
AcDbRegAppTableRecord
  2
ACAD_EXEMPT_FROM_CAD_STANDARDS
 70
     0
  0
APPID
  5
948
330
9
100
AcDbSymbolTableRecord
100
AcDbRegAppTableRecord
  2
ACAD_DSTYLE_DIMBREAK
 70
     0
  0
APPID
  5
1D0A
330
9
100
AcDbSymbolTableRecord
100
AcDbRegAppTableRecord
  2
AcadAnnotativeDecomposition
 70
     0
  0
APPID
  5
230B
330
9
100
AcDbSymbolTableRecord
100
AcDbRegAppTableRecord
  2
AcDbAttr
 70
     0
  0
ENDTAB
  0
TABLE
  2
DIMSTYLE
  5
A
330
0
100
AcDbSymbolTable
 70
     2
100
AcDbDimStyleTable
 71
     1
340
949
  0
DIMSTYLE
105
949
330
A
100
AcDbSymbolTableRecord
100
AcDbDimStyleTableRecord
  2
Solbet
 70
     0
 41
2.5
 42
0.0
 43
3.75
 44
1.25
 73
     0
 74
     0
 77
     1
 78
     8
140
2.5
141
2.5
143
0.03937007874016
147
0.625
171
     3
172
     1
271
     2
272
     2
274
     3
278
    44
283
     0
284
     8
340
7D9
1001
ACAD_DSTYLE_DIMBREAK
1070
   391
1040
3.75
1001
ACAD_DSTYLE_DIMJAG
1070
   388
1040
1.5
1001
ACAD_DSTYLE_DIMTALN
1070
   392
1070
     0
  0
DIMSTYLE
105
954
330
A
100
AcDbSymbolTableRecord
100
AcDbDimStyleTableRecord
  2
Solbet$7
 70
     0
 41
2.5
 42
0.0
 43
3.75
 44
1.25
 73
     0
 74
     0
 77
     1
 78
     8
140
2.5
141
2.5
143
0.03937007874016
147
0.625
171
     3
172
     1
271
     2
272
     2
274
     3
278
    44
283
     0
284
     8
340
7D9
341
958
1001
ACAD_DSTYLE_DIMBREAK
1070
   391
1040
3.75
1001
ACAD_DSTYLE_DIMJAG
1070
   388
1040
1.5
1001
ACAD_DSTYLE_DIMTALN
1070
   392
1070
     0
  0
ENDTAB
  0
TABLE
  2
BLOCK_RECORD
  5
1
330
0
100
AcDbSymbolTable
 70
    17
  0
BLOCK_RECORD
  5
1F
102
{ACAD_XDICTIONARY
360
4A3
102
}
330
1
100
AcDbSymbolTableRecord
100
AcDbBlockTableRecord
  2
*Model_Space
340
22
  0
BLOCK_RECORD
  5
D2
330
1
100
AcDbSymbolTableRecord
100
AcDbBlockTableRecord
  2
*Paper_Space
340
D3
  0
BLOCK_RECORD
  5
D6
330
1
100
AcDbSymbolTableRecord
100
AcDbBlockTableRecord
  2
*Paper_Space0
340
D7
  0
BLOCK_RECORD
  5
1C2
330
1
100
AcDbSymbolTableRecord
100
AcDbBlockTableRecord
  2
ASOWDBLK
340
0
102
{BLKREFS
331
24AE
331
24AF
331
24B0
331
24B1
331
24B2
331
24B3
331
24B4
331
24B5
331
24B6
331
24B7
331
24B8
331
24B9
331
24BA
331
24BB
102
}
  0
BLOCK_RECORD
  5
958
330
1
100
AcDbSymbolTableRecord
100
AcDbBlockTableRecord
  2
_DotSmall
340
0
102
{BLKREFS
331
2466
331
246A
331
246E
331
2484
331
2488
331
254E
331
269E
102
}
  0
BLOCK_RECORD
  5
1EF2
330
1
100
AcDbSymbolTableRecord
100
AcDbBlockTableRecord
  2
_None
340
0
  0
BLOCK_RECORD
  5
2064
330
1
100
AcDbSymbolTableRecord
100
AcDbBlockTableRecord
  2
*X4
340
0
102
{BLKREFS
331
2448
102
}
  0
BLOCK_RECORD
  5
20F0
330
1
100
AcDbSymbolTableRecord
100
AcDbBlockTableRecord
  2
*U5
340
0
102
{BLKREFS
331
2239
331
223C
331
2518
331
2519
102
}
  0
BLOCK_RECORD
  5
2125
330
1
100
AcDbSymbolTableRecord
100
AcDbBlockTableRecord
  2
*U6
340
0
102
{BLKREFS
331
226D
331
2273
331
22B9
102
}
  0
BLOCK_RECORD
  5
212A
330
1
100
AcDbSymbolTableRecord
100
AcDbBlockTableRecord
  2
*U7
340
0
102
{BLKREFS
331
227B
102
}
  0
BLOCK_RECORD
  5
230C
102
{ACAD_XDICTIONARY
360
2318
102
}
330
1
100
AcDbSymbolTableRecord
100
AcDbBlockTableRecord
  2
SOLBET_Bloczek_Ideal_420x240x590_P+W_PRA
340
0
1001
ACAD
1000
DesignCenter Data
1002
{
1070
     1
1070
     4
1002
}
  0
BLOCK_RECORD
  5
23AD
102
{ACAD_XDICTIONARY
360
23B7
102
}
330
1
100
AcDbSymbolTableRecord
100
AcDbBlockTableRecord
  2
SOLBET_Nadproze_140_12_1400x240x120_PRA
340
0
1001
ACAD
1000
DesignCenter Data
1002
{
1070
     1
1070
     4
1002
}
  0
BLOCK_RECORD
  5
23BD
102
{ACAD_XDICTIONARY
360
23C7
102
}
330
1
100
AcDbSymbolTableRecord
100
AcDbBlockTableRecord
  2
SOLBET_Nadproze_230_18_2300x240x180_PRA
340
0
1001
ACAD
1000
DesignCenter Data
1002
{
1070
     1
1070
     4
1002
}
  0
BLOCK_RECORD
  5
23F4
102
{ACAD_XDICTIONARY
360
23FE
102
}
330
1
100
AcDbSymbolTableRecord
100
AcDbBlockTableRecord
  2
SOLBET_Plytka_60x240x590_brak_PRA
340
0
1001
ACAD
1000
DesignCenter Data
1002
{
1070
     1
1070
     4
1002
}
  0
BLOCK_RECORD
  5
2972
102
{ACAD_XDICTIONARY
360
297E
102
}
330
1
100
AcDbSymbolTableRecord
100
AcDbBlockTableRecord
  2
SOLBET_Bloczek_Ideal_420x240x590_P+W_KG400_PRA
340
0
102
{BLKREFS
331
29FD
331
29FE
331
29FF
331
2A00
331
2A01
331
2A02
102
}
1001
ACAD
1000
DesignCenter Data
1002
{
1070
     1
1070
     4
1002
}
  0
BLOCK_RECORD
  5
29C4
102
{ACAD_XDICTIONARY
360
29D5
102
}
330
1
100
AcDbSymbolTableRecord
100
AcDbBlockTableRecord
  2
SOLBET_Nadproze_120x240x1400_zz_PRA
340
0
102
{BLKREFS
331
29D9
331
29DA
102
}
1001
ACAD
1000
DesignCenter Data
1002
{
1070
     1
1070
     4
1002
}
  0
BLOCK_RECORD
  5
29DB
102
{ACAD_XDICTIONARY
360
29EC
102
}
330
1
100
AcDbSymbolTableRecord
100
AcDbBlockTableRecord
  2
SOLBET_Nadproze_180x240x2300_zz_PRA
340
0
102
{BLKREFS
331
29F0
102
}
1001
ACAD
1000
DesignCenter Data
1002
{
1070
     1
1070
     4
1002
}
  0
BLOCK_RECORD
  5
2A03
102
{ACAD_XDICTIONARY
360
2A0D
102
}
330
1
100
AcDbSymbolTableRecord
100
AcDbBlockTableRecord
  2
SOLBET_Plytka_60x240x590_KG600_PRA
340
0
102
{BLKREFS
331
2A11
102
}
1001
ACAD
1000
DesignCenter Data
1002
{
1070
     1
1070
     4
1002
}
  0
ENDTAB
  0
ENDSEC
  0
SECTION
  2
BLOCKS
  0
BLOCK
  5
20
330
1F
100
AcDbEntity
  8
0
100
AcDbBlockBegin
  2
*Model_Space
 70
     0
 10
0.0
 20
0.0
 30
0.0
  3
*Model_Space
  1

  0
ENDBLK
  5
21
330
1F
100
AcDbEntity
  8
0
100
AcDbBlockEnd
  0
BLOCK
  5
D4
330
D2
100
AcDbEntity
 67
     1
  8
0
100
AcDbBlockBegin
  2
*Paper_Space
 70
     0
 10
0.0
 20
0.0
 30
0.0
  3
*Paper_Space
  1

  0
ENDBLK
  5
D5
330
D2
100
AcDbEntity
 67
     1
  8
0
100
AcDbBlockEnd
  0
BLOCK
  5
D8
330
D6
100
AcDbEntity
 67
     1
  8
0
100
AcDbBlockBegin
  2
*Paper_Space0
 70
     0
 10
0.0
 20
0.0
 30
0.0
  3
*Paper_Space0
  1

  0
ENDBLK
  5
D9
330
D6
100
AcDbEntity
 67
     1
  8
0
100
AcDbBlockEnd
  0
BLOCK
  5
1C3
330
1C2
100
AcDbEntity
  8
0
100
AcDbBlockBegin
  2
ASOWDBLK
 70
     0
 10
0.0
 20
0.0
 30
0.0
  3
ASOWDBLK
  1
ASOWDBLK
  0
ARC
  5
1C4
330
1C2
100
AcDbEntity
  8
0
  6
Continuous
 62
     0
100
AcDbCircle
 10
0.0
 20
0.25
 30
0.0
 40
0.25
100
AcDbArc
 50
270.0000011238745
 51
36.86989141244799
  0
ARC
  5
1C5
330
1C2
100
AcDbEntity
  8
0
  6
Continuous
 62
     0
100
AcDbCircle
 10
0.25
 20
0.75
 30
0.0
 40
0.25
100
AcDbArc
 50
323.1300909874582
 51
216.8699112602908
  0
LINE
  5
1C6
330
1C2
100
AcDbEntity
  8
0
  6
Continuous
 62
     0
100
AcDbLine
 10
0.05
 20
0.6
 30
0.0
 11
0.2
 21
0.4
 31
0.0
  0
ARC
  5
1C7
330
1C2
100
AcDbEntity
  8
0
  6
Continuous
 62
     0
100
AcDbCircle
 10
0.5
 20
0.25
 30
0.0
 40
0.25
100
AcDbArc
 50
143.1301284353948
 51
270.0000011238745
  0
LINE
  5
1C8
330
1C2
100
AcDbEntity
  8
0
  6
Continuous
 62
     0
100
AcDbLine
 10
0.45
 20
0.6
 30
0.0
 11
0.3
 21
0.4
 31
0.0
  0
ENDBLK
  5
1C9
330
1C2
100
AcDbEntity
  8
0
100
AcDbBlockEnd
  0
BLOCK
  5
95A
330
958
100
AcDbEntity
  8
0
100
AcDbBlockBegin
  2
_DotSmall
 70
     0
 10
0.0
 20
0.0
 30
0.0
  3
_DotSmall
  1

  0
LWPOLYLINE
  5
959
330
958
100
AcDbEntity
  8
0
  6
ByBlock
 62
     0
100
AcDbPolyline
 90
        2
 70
     1
 43
0.5
 10
-0.0625
 20
0.0
 42
1.0
 10
0.0625
 20
0.0
 42
1.0
  0
ENDBLK
  5
95B
330
958
100
AcDbEntity
  8
0
100
AcDbBlockEnd
  0
BLOCK
  5
1EF3
330
1EF2
100
AcDbEntity
  8
0
100
AcDbBlockBegin
  2
_None
 70
     0
 10
0.0
 20
0.0
 30
0.0
  3
_None
  1

  0
ENDBLK
  5
1EF4
330
1EF2
100
AcDbEntity
  8
0
100
AcDbBlockEnd
  0
BLOCK
  5
2065
330
2064
100
AcDbEntity
  8
0
100
AcDbBlockBegin
  2
*X4
 70
     1
 10
0.0
 20
0.0
 30
0.0
  3
*X4
  1
ASOWDBLK
  0
LINE
  5
2066
330
2064
100
AcDbEntity
  8
0
 62
     0
100
AcDbLine
 10
11.99304811965889
 20
9.120426821088543
 30
0.0
 11
12.03304811965889
 21
9.16042682108854
 31
0.0
  0
LINE
  5
2067
330
2064
100
AcDbEntity
  8
0
 62
     0
100
AcDbLine
 10
11.94885394583473
 20
9.120426821088543
 30
0.0
 11
11.98885394583473
 21
9.16042682108854
 31
0.0
  0
LINE
  5
2068
330
2064
100
AcDbEntity
  8
0
 62
     0
100
AcDbLine
 10
11.90465977201057
 20
9.120426821088543
 30
0.0
 11
11.94465977201057
 21
9.16042682108854
 31
0.0
  0
LINE
  5
2069
330
2064
100
AcDbEntity
  8
0
 62
     0
100
AcDbLine
 10
11.86046559818641
 20
9.120426821088543
 30
0.0
 11
11.90046559818641
 21
9.16042682108854
 31
0.0
  0
LINE
  5
206A
330
2064
100
AcDbEntity
  8
0
 62
     0
100
AcDbLine
 10
11.81627142436225
 20
9.120426821088543
 30
0.0
 11
11.85627142436225
 21
9.16042682108854
 31
0.0
  0
LINE
  5
206B
330
2064
100
AcDbEntity
  8
0
 62
     0
100
AcDbLine
 10
11.77207725053809
 20
9.120426821088543
 30
0.0
 11
11.81207725053809
 21
9.16042682108854
 31
0.0
  0
LINE
  5
206C
330
2064
100
AcDbEntity
  8
0
 62
     0
100
AcDbLine
 10
11.72788307671393
 20
9.120426821088543
 30
0.0
 11
11.76788307671393
 21
9.16042682108854
 31
0.0
  0
LINE
  5
206D
330
2064
100
AcDbEntity
  8
0
 62
     0
100
AcDbLine
 10
11.68368890288977
 20
9.120426821088543
 30
0.0
 11
11.72368890288977
 21
9.16042682108854
 31
0.0
  0
LINE
  5
206E
330
2064
100
AcDbEntity
  8
0
 62
     0
100
AcDbLine
 10
11.63949472906562
 20
9.120426821088543
 30
0.0
 11
11.67949472906562
 21
9.16042682108854
 31
0.0
  0
LINE
  5
206F
330
2064
100
AcDbEntity
  8
0
 62
     0
100
AcDbLine
 10
11.59530055524146
 20
9.120426821088543
 30
0.0
 11
11.63530055524145
 21
9.16042682108854
 31
0.0
  0
LINE
  5
2070
330
2064
100
AcDbEntity
  8
0
 62
     0
100
AcDbLine
 10
11.5511063814173
 20
9.120426821088543
 30
0.0
 11
11.59110638141729
 21
9.16042682108854
 31
0.0
  0
LINE
  5
2071
330
2064
100
AcDbEntity
  8
0
 62
     0
100
AcDbLine
 10
11.50691220759314
 20
9.120426821088543
 30
0.0
 11
11.54691220759314
 21
9.16042682108854
 31
0.0
  0
LINE
  5
2072
330
2064
100
AcDbEntity
  8
0
 62
     0
100
AcDbLine
 10
11.46271803376898
 20
9.120426821088543
 30
0.0
 11
11.50271803376898
 21
9.16042682108854
 31
0.0
  0
LINE
  5
2073
330
2064
100
AcDbEntity
  8
0
 62
     0
100
AcDbLine
 10
11.41852385994482
 20
9.120426821088543
 30
0.0
 11
11.45852385994482
 21
9.16042682108854
 31
0.0
  0
LINE
  5
2074
330
2064
100
AcDbEntity
  8
0
 62
     0
100
AcDbLine
 10
11.39401831761913
 20
9.140115452587011
 30
0.0
 11
11.41432968612066
 21
9.16042682108854
 31
0.0
  0
LINE
  5
2075
330
2064
100
AcDbEntity
  8
0
 62
     0
100
AcDbLine
 10
12.03724229348305
 20
9.120426821088543
 30
0.0
 11
12.07724229348305
 21
9.16042682108854
 31
0.0
  0
LINE
  5
2076
330
2064
100
AcDbEntity
  8
0
 62
     0
100
AcDbLine
 10
12.08143646730721
 20
9.120426821088543
 30
0.0
 11
12.12143646730721
 21
9.16042682108854
 31
0.0
  0
LINE
  5
2077
330
2064
100
AcDbEntity
  8
0
 62
     0
100
AcDbLine
 10
12.12563064113137
 20
9.120426821088543
 30
0.0
 11
12.16563064113137
 21
9.16042682108854
 31
0.0
  0
LINE
  5
2078
330
2064
100
AcDbEntity
  8
0
 62
     0
100
AcDbLine
 10
12.16982481495553
 20
9.120426821088543
 30
0.0
 11
12.20982481495552
 21
9.16042682108854
 31
0.0
  0
LINE
  5
2079
330
2064
100
AcDbEntity
  8
0
 62
     0
100
AcDbLine
 10
12.21401898877969
 20
9.120426821088543
 30
0.0
 11
12.25401898877968
 21
9.16042682108854
 31
0.0
  0
LINE
  5
207A
330
2064
100
AcDbEntity
  8
0
 62
     0
100
AcDbLine
 10
12.25821316260385
 20
9.120426821088543
 30
0.0
 11
12.29821316260384
 21
9.16042682108854
 31
0.0
  0
LINE
  5
207B
330
2064
100
AcDbEntity
  8
0
 62
     0
100
AcDbLine
 10
12.302407336428
 20
9.120426821088543
 30
0.0
 11
12.342407336428
 21
9.16042682108854
 31
0.0
  0
LINE
  5
207C
330
2064
100
AcDbEntity
  8
0
 62
     0
100
AcDbLine
 10
12.34660151025216
 20
9.120426821088543
 30
0.0
 11
12.38660151025216
 21
9.16042682108854
 31
0.0
  0
LINE
  5
207D
330
2064
100
AcDbEntity
  8
0
 62
     0
100
AcDbLine
 10
12.39079568407632
 20
9.120426821088543
 30
0.0
 11
12.43079568407632
 21
9.16042682108854
 31
0.0
  0
LINE
  5
207E
330
2064
100
AcDbEntity
  8
0
 62
     0
100
AcDbLine
 10
12.43498985790048
 20
9.120426821088543
 30
0.0
 11
12.47498985790048
 21
9.16042682108854
 31
0.0
  0
LINE
  5
207F
330
2064
100
AcDbEntity
  8
0
 62
     0
100
AcDbLine
 10
12.47918403172464
 20
9.120426821088543
 30
0.0
 11
12.51918403172464
 21
9.16042682108854
 31
0.0
  0
LINE
  5
2080
330
2064
100
AcDbEntity
  8
0
 62
     0
100
AcDbLine
 10
12.5233782055488
 20
9.120426821088543
 30
0.0
 11
12.5633782055488
 21
9.16042682108854
 31
0.0
  0
LINE
  5
2081
330
2064
100
AcDbEntity
  8
0
 62
     0
100
AcDbLine
 10
12.56757237937296
 20
9.120426821088543
 30
0.0
 11
12.60757237937296
 21
9.16042682108854
 31
0.0
  0
LINE
  5
2082
330
2064
100
AcDbEntity
  8
0
 62
     0
100
AcDbLine
 10
12.61176655319712
 20
9.120426821088543
 30
0.0
 11
12.65176655319712
 21
9.16042682108854
 31
0.0
  0
LINE
  5
2083
330
2064
100
AcDbEntity
  8
0
 62
     0
100
AcDbLine
 10
12.65596072702128
 20
9.120426821088543
 30
0.0
 11
12.68399674713724
 21
9.1484628412045
 31
0.0
  0
LINE
  5
2084
330
2064
100
AcDbEntity
  8
0
 62
     0
100
AcDbLine
 10
12.04858244068372
 20
9.120426821088543
 30
0.0
 11
12.00858244068372
 21
9.16042682108854
 31
0.0
  0
LINE
  5
2085
330
2064
100
AcDbEntity
  8
0
 62
     0
100
AcDbLine
 10
12.00438826685956
 20
9.120426821088543
 30
0.0
 11
11.96438826685956
 21
9.16042682108854
 31
0.0
  0
LINE
  5
2086
330
2064
100
AcDbEntity
  8
0
 62
     0
100
AcDbLine
 10
11.9601940930354
 20
9.120426821088543
 30
0.0
 11
11.9201940930354
 21
9.16042682108854
 31
0.0
  0
LINE
  5
2087
330
2064
100
AcDbEntity
  8
0
 62
     0
100
AcDbLine
 10
11.91599991921124
 20
9.120426821088543
 30
0.0
 11
11.87599991921124
 21
9.16042682108854
 31
0.0
  0
LINE
  5
2088
330
2064
100
AcDbEntity
  8
0
 62
     0
100
AcDbLine
 10
11.87180574538708
 20
9.120426821088543
 30
0.0
 11
11.83180574538708
 21
9.16042682108854
 31
0.0
  0
LINE
  5
2089
330
2064
100
AcDbEntity
  8
0
 62
     0
100
AcDbLine
 10
11.82761157156292
 20
9.120426821088543
 30
0.0
 11
11.78761157156293
 21
9.16042682108854
 31
0.0
  0
LINE
  5
208A
330
2064
100
AcDbEntity
  8
0
 62
     0
100
AcDbLine
 10
11.78341739773876
 20
9.120426821088543
 30
0.0
 11
11.74341739773877
 21
9.16042682108854
 31
0.0
  0
LINE
  5
208B
330
2064
100
AcDbEntity
  8
0
 62
     0
100
AcDbLine
 10
11.7392232239146
 20
9.120426821088543
 30
0.0
 11
11.69922322391461
 21
9.16042682108854
 31
0.0
  0
LINE
  5
208C
330
2064
100
AcDbEntity
  8
0
 62
     0
100
AcDbLine
 10
11.69502905009045
 20
9.120426821088543
 30
0.0
 11
11.65502905009045
 21
9.16042682108854
 31
0.0
  0
LINE
  5
208D
330
2064
100
AcDbEntity
  8
0
 62
     0
100
AcDbLine
 10
11.65083487626629
 20
9.120426821088543
 30
0.0
 11
11.61083487626629
 21
9.16042682108854
 31
0.0
  0
LINE
  5
208E
330
2064
100
AcDbEntity
  8
0
 62
     0
100
AcDbLine
 10
11.60664070244213
 20
9.120426821088543
 30
0.0
 11
11.56664070244213
 21
9.16042682108854
 31
0.0
  0
LINE
  5
208F
330
2064
100
AcDbEntity
  8
0
 62
     0
100
AcDbLine
 10
11.56244652861797
 20
9.120426821088543
 30
0.0
 11
11.52244652861797
 21
9.16042682108854
 31
0.0
  0
LINE
  5
2090
330
2064
100
AcDbEntity
  8
0
 62
     0
100
AcDbLine
 10
11.51825235479381
 20
9.120426821088543
 30
0.0
 11
11.47825235479381
 21
9.16042682108854
 31
0.0
  0
LINE
  5
2091
330
2064
100
AcDbEntity
  8
0
 62
     0
100
AcDbLine
 10
11.47405818096965
 20
9.120426821088543
 30
0.0
 11
11.43405818096965
 21
9.16042682108854
 31
0.0
  0
LINE
  5
2092
330
2064
100
AcDbEntity
  8
0
 62
     0
100
AcDbLine
 10
11.42986400714549
 20
9.120426821088543
 30
0.0
 11
11.39401831761913
 21
9.156272510614906
 31
0.0
  0
LINE
  5
2093
330
2064
100
AcDbEntity
  8
0
 62
     0
100
AcDbLine
 10
12.09277661450788
 20
9.120426821088543
 30
0.0
 11
12.05277661450788
 21
9.16042682108854
 31
0.0
  0
LINE
  5
2094
330
2064
100
AcDbEntity
  8
0
 62
     0
100
AcDbLine
 10
12.13697078833203
 20
9.120426821088543
 30
0.0
 11
12.09697078833204
 21
9.16042682108854
 31
0.0
  0
LINE
  5
2095
330
2064
100
AcDbEntity
  8
0
 62
     0
100
AcDbLine
 10
12.1811649621562
 20
9.120426821088543
 30
0.0
 11
12.1411649621562
 21
9.16042682108854
 31
0.0
  0
LINE
  5
2096
330
2064
100
AcDbEntity
  8
0
 62
     0
100
AcDbLine
 10
12.22535913598036
 20
9.120426821088543
 30
0.0
 11
12.18535913598036
 21
9.16042682108854
 31
0.0
  0
LINE
  5
2097
330
2064
100
AcDbEntity
  8
0
 62
     0
100
AcDbLine
 10
12.26955330980451
 20
9.120426821088543
 30
0.0
 11
12.22955330980451
 21
9.16042682108854
 31
0.0
  0
LINE
  5
2098
330
2064
100
AcDbEntity
  8
0
 62
     0
100
AcDbLine
 10
12.31374748362867
 20
9.120426821088543
 30
0.0
 11
12.27374748362868
 21
9.16042682108854
 31
0.0
  0
LINE
  5
2099
330
2064
100
AcDbEntity
  8
0
 62
     0
100
AcDbLine
 10
12.35794165745283
 20
9.120426821088543
 30
0.0
 11
12.31794165745283
 21
9.16042682108854
 31
0.0
  0
LINE
  5
209A
330
2064
100
AcDbEntity
  8
0
 62
     0
100
AcDbLine
 10
12.40213583127699
 20
9.120426821088543
 30
0.0
 11
12.36213583127699
 21
9.16042682108854
 31
0.0
  0
LINE
  5
209B
330
2064
100
AcDbEntity
  8
0
 62
     0
100
AcDbLine
 10
12.44633000510115
 20
9.120426821088543
 30
0.0
 11
12.40633000510115
 21
9.16042682108854
 31
0.0
  0
LINE
  5
209C
330
2064
100
AcDbEntity
  8
0
 62
     0
100
AcDbLine
 10
12.49052417892531
 20
9.120426821088543
 30
0.0
 11
12.45052417892531
 21
9.16042682108854
 31
0.0
  0
LINE
  5
209D
330
2064
100
AcDbEntity
  8
0
 62
     0
100
AcDbLine
 10
12.53471835274947
 20
9.120426821088543
 30
0.0
 11
12.49471835274947
 21
9.16042682108854
 31
0.0
  0
LINE
  5
209E
330
2064
100
AcDbEntity
  8
0
 62
     0
100
AcDbLine
 10
12.57891252657363
 20
9.120426821088543
 30
0.0
 11
12.53891252657363
 21
9.16042682108854
 31
0.0
  0
LINE
  5
209F
330
2064
100
AcDbEntity
  8
0
 62
     0
100
AcDbLine
 10
12.62310670039779
 20
9.120426821088543
 30
0.0
 11
12.58310670039779
 21
9.16042682108854
 31
0.0
  0
LINE
  5
20A0
330
2064
100
AcDbEntity
  8
0
 62
     0
100
AcDbLine
 10
12.66730087422195
 20
9.120426821088543
 30
0.0
 11
12.62730087422195
 21
9.16042682108854
 31
0.0
  0
LINE
  5
20A1
330
2064
100
AcDbEntity
  8
0
 62
     0
100
AcDbLine
 10
12.68399674713724
 20
9.147925121997415
 30
0.0
 11
12.67149504804611
 21
9.16042682108854
 31
0.0
  0
ENDBLK
  5
20A2
330
2064
100
AcDbEntity
  8
0
100
AcDbBlockEnd
  0
BLOCK
  5
20F1
330
20F0
100
AcDbEntity
  8
0
100
AcDbBlockBegin
  2
*U5
 70
     1
 10
0.0
 20
0.0
 30
0.0
  3
*U5
  1
*ANON
  0
SOLID
  5
20F2
330
20F0
100
AcDbEntity
  8
0
 62
     0
100
AcDbTrace
 10
8.138963202893219
 20
4.153110275044026
 30
0.0
 11
8.139143255728106
 21
4.152782880701087
 31
0.0
 12
8.138963202893224
 22
4.152372156093623
 32
0.0
 13
8.138963202893224
 23
4.152372156093623
 33
0.0
  0
SOLID
  5
20F3
330
20F0
100
AcDbEntity
  8
0
 62
     0
100
AcDbTrace
 10
8.138963202893224
 20
4.152372156093623
 30
0.0
 11
8.138028867975624
 21
4.151884078297518
 31
0.0
 12
8.136896703462809
 22
4.151631537884072
 32
0.0
 13
8.136896703462809
 23
4.151631537884072
 33
0.0
  0
SOLID
  5
20F4
330
20F0
100
AcDbEntity
  8
0
 62
     0
100
AcDbTrace
 10
8.138963202893224
 20
4.152372156093623
 30
0.0
 11
8.136896703462809
 21
4.151631537884072
 31
0.0
 12
8.135333985407216
 22
4.151529040414927
 32
0.0
 13
8.135333985407216
 23
4.151529040414927
 33
0.0
  0
SOLID
  5
20F5
330
20F0
100
AcDbEntity
  8
0
 62
     0
100
AcDbTrace
 10
8.138963202893224
 20
4.152372156093623
 30
0.0
 11
8.135333985407216
 21
4.151529040414927
 31
0.0
 12
8.133771267351626
 22
4.151631537884071
 32
0.0
 13
8.133771267351626
 23
4.151631537884071
 33
0.0
  0
SOLID
  5
20F6
330
20F0
100
AcDbEntity
  8
0
 62
     0
100
AcDbTrace
 10
8.138963202893224
 20
4.152372156093623
 30
0.0
 11
8.133771267351626
 21
4.151631537884071
 31
0.0
 12
8.132639102838806
 22
4.15188407829752
 32
0.0
 13
8.132639102838806
 23
4.15188407829752
 33
0.0
  0
SOLID
  5
20F7
330
20F0
100
AcDbEntity
  8
0
 62
     0
100
AcDbTrace
 10
8.138963202893224
 20
4.152372156093623
 30
0.0
 11
8.132639102838806
 21
4.15188407829752
 31
0.0
 12
8.131704767921211
 22
4.152372156093618
 32
0.0
 13
8.131704767921211
 23
4.152372156093618
 33
0.0
  0
SOLID
  5
20F8
330
20F0
100
AcDbEntity
  8
0
 62
     0
100
AcDbTrace
 10
8.138963202893224
 20
4.152372156093623
 30
0.0
 11
8.131704767921211
 21
4.152372156093618
 31
0.0
 12
8.131522845929975
 22
4.152741215568822
 32
0.0
 13
8.131522845929975
 23
4.152741215568822
 33
0.0
  0
SOLID
  5
20F9
330
20F0
100
AcDbEntity
  8
0
 62
     0
100
AcDbTrace
 10
8.138963202893224
 20
4.152372156093623
 30
0.0
 11
8.131522845929975
 21
4.152741215568822
 31
0.0
 12
8.13170476792121
 22
4.153110275044022
 32
0.0
 13
8.13170476792121
 23
4.153110275044022
 33
0.0
  0
SOLID
  5
20FA
330
20F0
100
AcDbEntity
  8
0
 62
     0
100
AcDbTrace
 10
8.138963202893224
 20
4.152372156093623
 30
0.0
 11
8.13170476792121
 21
4.153110275044022
 31
0.0
 12
8.132639102838815
 22
4.153598352840128
 32
0.0
 13
8.132639102838815
 23
4.153598352840128
 33
0.0
  0
SOLID
  5
20FB
330
20F0
100
AcDbEntity
  8
0
 62
     0
100
AcDbTrace
 10
8.138963202893224
 20
4.152372156093623
 30
0.0
 11
8.132639102838815
 21
4.153598352840128
 31
0.0
 12
8.133771267351617
 22
4.153850893253571
 32
0.0
 13
8.133771267351617
 23
4.153850893253571
 33
0.0
  0
SOLID
  5
20FC
330
20F0
100
AcDbEntity
  8
0
 62
     0
100
AcDbTrace
 10
8.138963202893224
 20
4.152372156093623
 30
0.0
 11
8.133771267351617
 21
4.153850893253571
 31
0.0
 12
8.135333985407216
 22
4.153953390722717
 32
0.0
 13
8.135333985407216
 23
4.153953390722717
 33
0.0
  0
SOLID
  5
20FD
330
20F0
100
AcDbEntity
  8
0
 62
     0
100
AcDbTrace
 10
8.138963202893224
 20
4.152372156093623
 30
0.0
 11
8.135333985407216
 21
4.153953390722717
 31
0.0
 12
8.136896703462786
 22
4.153850893253575
 32
0.0
 13
8.136896703462786
 23
4.153850893253575
 33
0.0
  0
SOLID
  5
20FE
330
20F0
100
AcDbEntity
  8
0
 62
     0
100
AcDbTrace
 10
8.138963202893224
 20
4.152372156093623
 30
0.0
 11
8.136896703462786
 21
4.153850893253575
 31
0.0
 12
8.138028867975622
 22
4.153598352840125
 32
0.0
 13
8.138028867975622
 23
4.153598352840125
 33
0.0
  0
SOLID
  5
20FF
330
20F0
100
AcDbEntity
  8
0
 62
     0
100
AcDbTrace
 10
8.138963202893224
 20
4.152372156093623
 30
0.0
 11
8.138028867975622
 21
4.153598352840125
 31
0.0
 12
8.138963202829472
 22
4.153110275044026
 32
0.0
 13
8.138963202829472
 23
4.153110275044026
 33
0.0
  0
ENDBLK
  5
2100
330
20F0
100
AcDbEntity
  8
0
100
AcDbBlockEnd
  0
BLOCK
  5
2126
330
2125
100
AcDbEntity
  8
0
100
AcDbBlockBegin
  2
*U6
 70
     1
 10
0.0
 20
0.0
 30
0.0
  3
*U6
  1
*ANON
  0
SOLID
  5
2127
330
2125
100
AcDbEntity
  8
0
 62
     0
100
AcDbTrace
 10
7.91857274013904
 20
2.701391938321373
 30
0.0
 11
7.972731263906927
 21
2.701391938321373
 31
0.0
 12
7.972731263906926
 22
2.711391938321373
 32
0.0
 13
7.972731263906926
 23
2.711391938321373
 33
0.0
  0
SOLID
  5
2128
330
2125
100
AcDbEntity
  8
0
 62
     0
100
AcDbTrace
 10
7.91857274013904
 20
2.701391938321373
 30
0.0
 11
7.972731263906926
 21
2.711391938321373
 31
0.0
 12
7.91857274013904
 22
2.711391938321373
 32
0.0
 13
7.91857274013904
 23
2.711391938321373
 33
0.0
  0
ENDBLK
  5
2129
330
2125
100
AcDbEntity
  8
0
100
AcDbBlockEnd
  0
BLOCK
  5
212B
330
212A
100
AcDbEntity
  8
0
100
AcDbBlockBegin
  2
*U7
 70
     1
 10
0.0
 20
0.0
 30
0.0
  3
*U7
  1
*ANON
  0
ARC
  5
212C
330
212A
100
AcDbEntity
  8
0
  6
ByBlock
 62
     0
100
AcDbCircle
 10
8.315693713036786
 20
2.754725271654707
 30
0.0
 40
0.0273333333333335
100
AcDbArc
 50
209.196404409679
 51
270.0
  0
ARC
  5
212D
330
212A
100
AcDbEntity
  8
0
  6
ByBlock
 62
     0
100
AcDbCircle
 10
8.315693713036786
 20
2.754725271654707
 30
0.0
 40
0.0553333333333335
100
AcDbArc
 50
193.943434860838
 51
254.5483065693509
  0
ARC
  5
212E
330
212A
100
AcDbEntity
  8
0
  6
ByBlock
 62
     0
100
AcDbCircle
 10
8.315693713036786
 20
2.754725271654707
 30
0.0
 40
0.0833333333333335
100
AcDbArc
 50
189.206896221348
 51
219.791819499578
  0
ARC
  5
212F
330
212A
100
AcDbEntity
  8
0
  6
ByBlock
 62
     0
100
AcDbCircle
 10
8.315693713036786
 20
2.754725271654707
 30
0.0
 40
0.1113333333333335
100
AcDbArc
 50
186.8782793511646
 51
208.6228467300183
  0
ARC
  5
2130
330
212A
100
AcDbEntity
  8
0
  6
ByBlock
 62
     0
100
AcDbCircle
 10
8.315693713036786
 20
2.754725271654707
 30
0.0
 40
0.1393333333333335
100
AcDbArc
 50
185.4912524022716
 51
202.5056862398087
  0
ARC
  5
2131
330
212A
100
AcDbEntity
  8
0
  6
ByBlock
 62
     0
100
AcDbCircle
 10
8.315693713036786
 20
2.754725271654707
 30
0.0
 40
0.1673333333333335
100
AcDbArc
 50
184.5702456483737
 51
198.5858418267902
  0
ARC
  5
2132
330
212A
100
AcDbEntity
  8
0
  6
ByBlock
 62
     0
100
AcDbCircle
 10
8.315693713036786
 20
2.754725271654707
 30
0.0
 40
0.1953333333333335
100
AcDbArc
 50
183.9140181923182
 51
195.8450985955664
  0
ARC
  5
2133
330
212A
100
AcDbEntity
  8
0
  6
ByBlock
 62
     0
100
AcDbCircle
 10
8.315693713036786
 20
2.754725271654707
 30
0.0
 40
0.2233333333333335
100
AcDbArc
 50
183.4226788343221
 51
193.8160784752646
  0
ARC
  5
2134
330
212A
100
AcDbEntity
  8
0
  6
ByBlock
 62
     0
100
AcDbCircle
 10
8.315693713036786
 20
2.754725271654707
 30
0.0
 40
0.2513333333333335
100
AcDbArc
 50
183.0409914386517
 51
192.2514024131567
  0
ARC
  5
2135
330
212A
100
AcDbEntity
  8
0
  6
ByBlock
 62
     0
100
AcDbCircle
 10
8.315693713036786
 20
2.754725271654707
 30
0.0
 40
0.2793333333333336
100
AcDbArc
 50
182.7359216738391
 51
191.0071088739845
  0
ARC
  5
2136
330
212A
100
AcDbEntity
  8
0
  6
ByBlock
 62
     0
100
AcDbCircle
 10
8.315693713036786
 20
2.754725271654707
 30
0.0
 40
0.3073333333333336
100
AcDbArc
 50
182.4864975324721
 51
189.9934614918277
  0
ENDBLK
  5
2137
330
212A
100
AcDbEntity
  8
0
100
AcDbBlockEnd
  0
BLOCK
  5
231A
330
230C
100
AcDbEntity
  8
0
100
AcDbBlockBegin
  2
SOLBET_Bloczek_Ideal_420x240x590_P+W_PRA
 70
     2
 10
0.0
 20
0.0
 30
0.0
  3
SOLBET_Bloczek_Ideal_420x240x590_P+W_PRA
  1

  0
ATTDEF
  5
230D
330
230C
100
AcDbEntity
  8
SOLBET_Wymiary_Opisy
100
AcDbText
 10
-0.0000000703746536
 20
6.303237281370451
 30
0.0
 40
0.9913121336814832
  1
420x240x590
  7
Solbet_1
100
AcDbAttributeDefinition
  3

  2
WYMIARY
 70
     3
1001
AcDbAttr
1070
     0
1070
     1
  0
ATTDEF
  5
230E
330
230C
100
AcDbEntity
  8
SOLBET_Wymiary_Opisy
100
AcDbText
 10
-0.0000000703746536
 20
4.790717873654354
 30
0.0
 40
0.9913121336814832
  1
400
  7
Solbet_1
100
AcDbAttributeDefinition
  3

  2
KLASA_GĘSTOŚCI
 70
     9
1001
AcDbAttr
1070
     0
1070
     1
  0
ATTDEF
  5
230F
330
230C
100
AcDbEntity
  8
SOLBET_Wymiary_Opisy
100
AcDbText
 10
-0.0000000703746536
 20
3.269569038442127
 30
0.0
 40
0.9913121336814832
  1
Pióra+Wpusty
  7
Solbet_1
100
AcDbAttributeDefinition
  3

  2
PROFILOWANIE
 70
     3
1001
AcDbAttr
1070
     0
1070
     1
  0
ATTDEF
  5
2310
330
230C
100
AcDbEntity
  8
SOLBET_Wymiary_Opisy
100
AcDbText
 10
-0.0000000703746536
 20
0.2448646291013483
 30
0.0
 40
0.9913121336814832
  1
SOLBET
  7
Solbet_1
100
AcDbAttributeDefinition
  3

  2
FIRMA
 70
     3
1001
AcDbAttr
1070
     0
1070
     1
  0
ATTDEF
  5
2311
330
230C
100
AcDbEntity
  8
SOLBET_Wymiary_Opisy
100
AcDbText
 10
-0.0000000703746536
 20
9.333547279718283
 30
0.0
 40
0.9913121336814832
  1
Bloczek
  7
Solbet_1
100
AcDbAttributeDefinition
  3
Nazwa
  2
NAZWA
 70
     3
1001
AcDbAttr
1070
     0
1070
     1
  0
ATTDEF
  5
2312
330
230C
100
AcDbEntity
  8
SOLBET_Wymiary_Opisy
100
AcDbText
 10
-0.0000000703746536
 20
7.794499099484078
 30
0.0
 40
0.9913121336814832
  1
SOLBET IDEAL
  7
Solbet_1
100
AcDbAttributeDefinition
  3

  2
SYSTEM
 70
     3
1001
AcDbAttr
1070
     0
1070
     1
  0
ATTDEF
  5
2313
330
230C
100
AcDbEntity
  8
SOLBET_Wymiary_Opisy
100
AcDbText
 10
-0.0000000703746536
 20
1.74418138862846
 30
0.0
 40
0.9913121336814832
  1
Prawo
  7
Solbet_1
100
AcDbAttributeDefinition
  3

  2
WIDOK
 70
    11
1001
AcDbAttr
1070
     0
1070
     1
  0
LINE
  5
2314
330
230C
100
AcDbEntity
  8
SOLBET_Bloczki
100
AcDbLine
 10
21.00000014074931
 20
12.00000020414847
 30
0.0
 11
21.00000014074931
 21
0.000000204148364
 31
0.0
  0
LINE
  5
2315
330
230C
100
AcDbEntity
  8
SOLBET_Bloczki
100
AcDbLine
 10
21.00000014074931
 20
12.00000020414847
 30
0.0
 11
0.0000001407493072
 21
12.00000020414847
 31
0.0
  0
LINE
  5
2316
330
230C
100
AcDbEntity
  8
SOLBET_Bloczki
100
AcDbLine
 10
0.0000001407493072
 20
12.00000020414847
 30
0.0
 11
0.0000001407493072
 21
0.000000204148364
 31
0.0
  0
LINE
  5
2317
330
230C
100
AcDbEntity
  8
SOLBET_Bloczki
100
AcDbLine
 10
0.0000001407493072
 20
0.000000204148364
 30
0.0
 11
21.00000014074931
 21
0.000000204148364
 31
0.0
  0
ENDBLK
  5
231B
330
230C
100
AcDbEntity
  8
0
100
AcDbBlockEnd
  0
BLOCK
  5
23B9
330
23AD
100
AcDbEntity
  8
0
100
AcDbBlockBegin
  2
SOLBET_Nadproze_140_12_1400x240x120_PRA
 70
     2
 10
0.0
 20
0.0
 30
0.0
  3
SOLBET_Nadproze_140_12_1400x240x120_PRA
  1

  0
ATTDEF
  5
23AE
330
23AD
100
AcDbEntity
  8
SOLBET_Wymiary_Opisy
100
AcDbText
 10
-0.0000002754209163
 20
4.914367003308234
 30
0.0
 40
0.9913121336814832
  1
1400x240x120
  7
Solbet_1
100
AcDbAttributeDefinition
  3

  2
WYMIARY
 70
     3
1001
AcDbAttr
1070
     0
1070
     1
  0
ATTDEF
  5
23AF
330
23AD
100
AcDbEntity
  8
SOLBET_Wymiary_Opisy
100
AcDbText
 10
0.0000001377104581
 20
3.269569171638422
 30
0.0
 40
0.9913121336814832
  1
20
  7
Solbet_1
100
AcDbAttributeDefinition
  3

  2
DŁUGOŚĆ_PODPARCIA_1
 70
    11
1001
AcDbAttr
1070
     0
1070
     1
  0
ATTDEF
  5
23B0
330
23AD
100
AcDbEntity
  8
SOLBET_Wymiary_Opisy
100
AcDbText
 10
0.0000001377104581
 20
0.2448647622976432
 30
0.0
 40
0.9913121336814832
  1
SOLBET
  7
Solbet_1
100
AcDbAttributeDefinition
  3

  2
FIRMA
 70
     3
1001
AcDbAttr
1070
     0
1070
     1
  0
ATTDEF
  5
23B1
330
23AD
100
AcDbEntity
  8
SOLBET_Wymiary_Opisy
100
AcDbText
 10
-0.0000002754209163
 20
6.505718915794942
 30
0.0
 40
0.9913121336814832
  1
Nadproże 140/12
  7
Solbet_1
100
AcDbAttributeDefinition
  3
Nazwa
  2
NAZWA
 70
     3
1001
AcDbAttr
1070
     0
1070
     1
  0
ATTDEF
  5
23B2
330
23AD
100
AcDbEntity
  8
SOLBET_Wymiary_Opisy
100
AcDbText
 10
0.0000001377104581
 20
1.744181521824755
 30
0.0
 40
0.9913121336814832
  1
Prawo
  7
Solbet_1
100
AcDbAttributeDefinition
  3

  2
WIDOK
 70
    11
1001
AcDbAttr
1070
     0
1070
     1
  0
LINE
  5
23B3
330
23AD
100
AcDbEntity
  8
SOLBET_Bloczki
100
AcDbLine
 10
5.999999594097516
 20
11.99999987551155
 30
0.0
 11
5.999999594097516
 21
-0.0000001244884515
 31
0.0
  0
LINE
  5
23B4
330
23AD
100
AcDbEntity
  8
SOLBET_Bloczki
100
AcDbLine
 10
5.999999594097516
 20
-0.0000001244884515
 30
0.0
 11
-0.0000004059024832
 21
-0.0000001244884515
 31
0.0
  0
LINE
  5
23B5
330
23AD
100
AcDbEntity
  8
SOLBET_Bloczki
100
AcDbLine
 10
-0.0000004059024832
 20
-0.0000001244884515
 30
0.0
 11
-0.0000004059024832
 21
11.99999987551155
 31
0.0
  0
LINE
  5
23B6
330
23AD
100
AcDbEntity
  8
SOLBET_Bloczki
100
AcDbLine
 10
-0.0000004059024832
 20
11.99999987551155
 30
0.0
 11
5.999999594097516
 21
11.99999987551155
 31
0.0
  0
ENDBLK
  5
23BA
330
23AD
100
AcDbEntity
  8
0
100
AcDbBlockEnd
  0
BLOCK
  5
23C9
330
23BD
100
AcDbEntity
  8
0
100
AcDbBlockBegin
  2
SOLBET_Nadproze_230_18_2300x240x180_PRA
 70
     2
 10
0.0
 20
0.0
 30
0.0
  3
SOLBET_Nadproze_230_18_2300x240x180_PRA
  1

  0
ATTDEF
  5
23BE
330
23BD
100
AcDbEntity
  8
SOLBET_Wymiary_Opisy
100
AcDbText
 10
-0.0000002754209163
 20
4.914367003308234
 30
0.0
 40
0.9913121336814832
  1
2300x240x180
  7
Solbet_1
100
AcDbAttributeDefinition
  3

  2
WYMIARY
 70
     3
1001
AcDbAttr
1070
     0
1070
     1
  0
ATTDEF
  5
23BF
330
23BD
100
AcDbEntity
  8
SOLBET_Wymiary_Opisy
100
AcDbText
 10
0.0000001377104581
 20
3.269569171638422
 30
0.0
 40
0.9913121336814832
  1
25
  7
Solbet_1
100
AcDbAttributeDefinition
  3

  2
DŁUGOŚĆ_PODPARCIA_2
 70
    11
1001
AcDbAttr
1070
     0
1070
     1
  0
ATTDEF
  5
23C0
330
23BD
100
AcDbEntity
  8
SOLBET_Wymiary_Opisy
100
AcDbText
 10
0.0000001377104581
 20
0.2448647622976432
 30
0.0
 40
0.9913121336814832
  1
SOLBET
  7
Solbet_1
100
AcDbAttributeDefinition
  3

  2
FIRMA
 70
     3
1001
AcDbAttr
1070
     0
1070
     1
  0
ATTDEF
  5
23C1
330
23BD
100
AcDbEntity
  8
SOLBET_Wymiary_Opisy
100
AcDbText
 10
-0.0000002754209163
 20
6.505718915794942
 30
0.0
 40
0.9913121336814832
  1
Nadproże 230/18
  7
Solbet_1
100
AcDbAttributeDefinition
  3
Nazwa
  2
NAZWA
 70
     3
1001
AcDbAttr
1070
     0
1070
     1
  0
ATTDEF
  5
23C2
330
23BD
100
AcDbEntity
  8
SOLBET_Wymiary_Opisy
100
AcDbText
 10
0.0000001377104581
 20
1.744181521824755
 30
0.0
 40
0.9913121336814832
  1
Prawo
  7
Solbet_1
100
AcDbAttributeDefinition
  3

  2
WIDOK
 70
    11
1001
AcDbAttr
1070
     0
1070
     1
  0
LINE
  5
23C3
330
23BD
100
AcDbEntity
  8
SOLBET_Bloczki
100
AcDbLine
 10
9.000000404333832
 20
11.999999831987
 30
0.0
 11
9.000000404333832
 21
-0.0000001680130026
 31
0.0
  0
LINE
  5
23C4
330
23BD
100
AcDbEntity
  8
SOLBET_Bloczki
100
AcDbLine
 10
9.000000404333832
 20
-0.0000001680130026
 30
0.0
 11
0.0000004043338322
 21
-0.0000001680130026
 31
0.0
  0
LINE
  5
23C5
330
23BD
100
AcDbEntity
  8
SOLBET_Bloczki
100
AcDbLine
 10
0.0000004043338322
 20
-0.0000001680130026
 30
0.0
 11
0.0000004043338322
 21
11.999999831987
 31
0.0
  0
LINE
  5
23C6
330
23BD
100
AcDbEntity
  8
SOLBET_Bloczki
100
AcDbLine
 10
0.0000004043338322
 20
11.999999831987
 30
0.0
 11
9.000000404333832
 21
11.999999831987
 31
0.0
  0
ENDBLK
  5
23CA
330
23BD
100
AcDbEntity
  8
0
100
AcDbBlockEnd
  0
BLOCK
  5
2400
330
23F4
100
AcDbEntity
  8
0
100
AcDbBlockBegin
  2
SOLBET_Plytka_60x240x590_brak_PRA
 70
     2
 10
0.0
 20
0.0
 30
0.0
  3
SOLBET_Plytka_60x240x590_brak_PRA
  1

  0
ATTDEF
  5
23F5
330
23F4
100
AcDbEntity
  8
SOLBET_Wymiary_Opisy
100
AcDbText
 10
0.0000000428741699
 20
4.865619229844077
 30
0.0
 40
1.006810973315101
  1
60x240x590
  7
Solbet_1
100
AcDbAttributeDefinition
  3

  2
WYMIARY
 70
     3
1001
AcDbAttr
1070
     0
1070
     1
  0
ATTDEF
  5
23F6
330
23F4
100
AcDbEntity
  8
SOLBET_Wymiary_Opisy
100
AcDbText
 10
0.0000000428741699
 20
3.329452077944857
 30
0.0
 40
1.006810973315101
  1
600
  7
Solbet_1
100
AcDbAttributeDefinition
  3

  2
KLASA_GĘSTOŚCI
 70
     3
1001
AcDbAttr
1070
     0
1070
     1
  0
ATTDEF
  5
23F7
330
23F4
100
AcDbEntity
  8
SOLBET_Wymiary_Opisy
100
AcDbText
 10
0.0000000428741699
 20
0.2486930628063702
 30
0.0
 40
1.006810973315101
  1
SOLBET
  7
Solbet_1
100
AcDbAttributeDefinition
  3

  2
FIRMA
 70
     3
1001
AcDbAttr
1070
     0
1070
     1
  0
ATTDEF
  5
23F8
330
23F4
100
AcDbEntity
  8
SOLBET_Wymiary_Opisy
100
AcDbText
 10
0.0000000428741699
 20
6.498884010242274
 30
0.0
 40
1.006810973315101
  1
Płytka
  7
Solbet_1
100
AcDbAttributeDefinition
  3
Nazwa
  2
NAZWA
 70
     3
1001
AcDbAttr
1070
     0
1070
     1
  0
ATTDEF
  5
23F9
330
23F4
100
AcDbEntity
  8
SOLBET_Wymiary_Opisy
100
AcDbText
 10
0.0000000428741699
 20
1.771451147448315
 30
0.0
 40
1.006810973315101
  1
Prawo
  7
Solbet_1
100
AcDbAttributeDefinition
  3

  2
WIDOK
 70
    11
1001
AcDbAttr
1070
     0
1070
     1
  0
LINE
  5
23FA
330
23F4
100
AcDbEntity
  8
SOLBET_Bloczki
100
AcDbLine
 10
2.99999991809318
 20
12.00000009173755
 30
0.0
 11
2.999999918093408
 21
0.0000000917375473
 31
0.0
  0
LINE
  5
23FB
330
23F4
100
AcDbEntity
  8
SOLBET_Bloczki
100
AcDbLine
 10
2.999999918093408
 20
0.0000000917375473
 30
0.0
 11
-0.0000000819065917
 21
0.0000000917375473
 31
0.0
  0
LINE
  5
23FC
330
23F4
100
AcDbEntity
  8
SOLBET_Bloczki
100
AcDbLine
 10
-0.0000000819065917
 20
0.0000000917375473
 30
0.0
 11
-0.0000000819065917
 21
12.00000009173755
 31
0.0
  0
LINE
  5
23FD
330
23F4
100
AcDbEntity
  8
SOLBET_Bloczki
100
AcDbLine
 10
-0.0000000819065917
 20
12.00000009173755
 30
0.0
 11
2.99999991809318
 21
12.00000009173755
 31
0.0
  0
ENDBLK
  5
2401
330
23F4
100
AcDbEntity
  8
0
100
AcDbBlockEnd
  0
BLOCK
  5
2980
330
2972
100
AcDbEntity
  8
0
100
AcDbBlockBegin
  2
SOLBET_Bloczek_Ideal_420x240x590_P+W_KG400_PRA
 70
     2
 10
0.0
 20
0.0
 30
0.0
  3
SOLBET_Bloczek_Ideal_420x240x590_P+W_KG400_PRA
  1

  0
ATTDEF
  5
29F1
330
2972
100
AcDbEntity
  8
SOLBET_Wymiary_Opisy
100
AcDbText
 10
-0.0000000703746536
 20
6.303237281370451
 30
0.0
 40
0.9913121336814832
  1
420x240x590
  7
Solbet_1
100
AcDbAttributeDefinition
  3

  2
WYMIARY
 70
    11
1001
AcDbAttr
1070
     0
1070
     1
  0
ATTDEF
  5
29F2
330
2972
100
AcDbEntity
  8
SOLBET_Wymiary_Opisy
100
AcDbText
 10
-0.0000000703746536
 20
4.790717873654354
 30
0.0
 40
0.9913121336814832
  1
400
  7
Solbet_1
100
AcDbAttributeDefinition
  3

  2
KLASA_GĘSTOŚCI
 70
    11
1001
AcDbAttr
1070
     0
1070
     1
  0
ATTDEF
  5
29F3
330
2972
100
AcDbEntity
  8
SOLBET_Wymiary_Opisy
100
AcDbText
 10
-0.0000000703746536
 20
3.269569038442127
 30
0.0
 40
0.9913121336814832
  1
Pióra+Wpusty
  7
Solbet_1
100
AcDbAttributeDefinition
  3

  2
PROFILOWANIE
 70
    11
1001
AcDbAttr
1070
     0
1070
     1
  0
ATTDEF
  5
29F4
330
2972
100
AcDbEntity
  8
SOLBET_Wymiary_Opisy
100
AcDbText
 10
-0.0000000703746536
 20
0.2448646291013483
 30
0.0
 40
0.9913121336814832
  1
SOLBET
  7
Solbet_1
100
AcDbAttributeDefinition
  3

  2
FIRMA
 70
    11
1001
AcDbAttr
1070
     0
1070
     1
  0
ATTDEF
  5
29F5
330
2972
100
AcDbEntity
  8
SOLBET_Wymiary_Opisy
100
AcDbText
 10
-0.0000000703746536
 20
9.333547279718283
 30
0.0
 40
0.9913121336814832
  1
Bloczek
  7
Solbet_1
100
AcDbAttributeDefinition
  3
Nazwa
  2
NAZWA
 70
    11
1001
AcDbAttr
1070
     0
1070
     1
  0
ATTDEF
  5
29F6
330
2972
100
AcDbEntity
  8
SOLBET_Wymiary_Opisy
100
AcDbText
 10
-0.0000000703746536
 20
7.794499099484078
 30
0.0
 40
0.9913121336814832
  1
SOLBET Ideal
  7
Solbet_1
100
AcDbAttributeDefinition
  3

  2
SYSTEM
 70
    11
1001
AcDbAttr
1070
     0
1070
     1
  0
ATTDEF
  5
29F7
330
2972
100
AcDbEntity
  8
SOLBET_Wymiary_Opisy
100
AcDbText
 10
-0.0000000703746536
 20
1.74418138862846
 30
0.0
 40
0.9913121336814832
  1
Prawo
  7
Solbet_1
100
AcDbAttributeDefinition
  3

  2
WIDOK
 70
    11
1001
AcDbAttr
1070
     0
1070
     1
  0
LINE
  5
29F8
330
2972
100
AcDbEntity
  8
SOLBET_Bloczki
100
AcDbLine
 10
21.00000014074931
 20
12.00000020414847
 30
0.0
 11
21.00000014074931
 21
0.000000204148364
 31
0.0
  0
LINE
  5
29F9
330
2972
100
AcDbEntity
  8
SOLBET_Bloczki
100
AcDbLine
 10
21.00000014074931
 20
12.00000020414847
 30
0.0
 11
0.0000001407493072
 21
12.00000020414847
 31
0.0
  0
LINE
  5
29FA
330
2972
100
AcDbEntity
  8
SOLBET_Bloczki
100
AcDbLine
 10
0.0000001407493072
 20
12.00000020414847
 30
0.0
 11
0.0000001407493072
 21
0.000000204148364
 31
0.0
  0
LINE
  5
29FB
330
2972
100
AcDbEntity
  8
SOLBET_Bloczki
100
AcDbLine
 10
0.0000001407493072
 20
0.000000204148364
 30
0.0
 11
21.00000014074931
 21
0.000000204148364
 31
0.0
  0
ENDBLK
  5
2981
330
2972
100
AcDbEntity
  8
0
100
AcDbBlockEnd
  0
BLOCK
  5
29D7
330
29C4
100
AcDbEntity
  8
0
100
AcDbBlockBegin
  2
SOLBET_Nadproze_120x240x1400_zz_PRA
 70
     2
 10
0.0
 20
0.0
 30
0.0
  3
SOLBET_Nadproze_120x240x1400_zz_PRA
  1

  0
ATTDEF
  5
29C5
330
29C4
100
AcDbEntity
  8
SOLBET_Wymiary_Opisy
100
AcDbText
 10
-0.0000002754209163
 20
4.914367003308234
 30
0.0
 40
0.9913121336814832
  1
120x240x1400
  7
Solbet_1
100
AcDbAttributeDefinition
  3

  2
WYMIARY
 70
    11
1001
AcDbAttr
1070
     0
1070
     1
  0
ATTDEF
  5
29C6
330
29C4
100
AcDbEntity
  8
SOLBET_Wymiary_Opisy
100
AcDbText
 10
0.0000001377104581
 20
3.269569171638422
 30
0.0
 40
0.9913121336814832
  1
20
  7
Solbet_1
100
AcDbAttributeDefinition
  3

  2
DŁUGOŚĆ_PODPARCIA_1
 70
    11
1001
AcDbAttr
1070
     0
1070
     1
  0
ATTDEF
  5
29C7
330
29C4
100
AcDbEntity
  8
SOLBET_Wymiary_Opisy
100
AcDbText
 10
0.0000001377104581
 20
0.2448647622976432
 30
0.0
 40
0.9913121336814832
  1
SOLBET
  7
Solbet_1
100
AcDbAttributeDefinition
  3

  2
FIRMA
 70
    11
1001
AcDbAttr
1070
     0
1070
     1
  0
ATTDEF
  5
29C8
330
29C4
100
AcDbEntity
  8
SOLBET_Wymiary_Opisy
100
AcDbText
 10
-0.0000002754209163
 20
6.505718915794942
 30
0.0
 40
0.9913121336814832
  1
Nadproże 140/12
  7
Solbet_1
100
AcDbAttributeDefinition
  3
Nazwa
  2
NAZWA
 70
    11
1001
AcDbAttr
1070
     0
1070
     1
  0
ATTDEF
  5
29C9
330
29C4
100
AcDbEntity
  8
SOLBET_Wymiary_Opisy
100
AcDbText
 10
0.0000001377104581
 20
1.744181521824755
 30
0.0
 40
0.9913121336814832
  1
Prawo
  7
Solbet_1
100
AcDbAttributeDefinition
  3

  2
WIDOK
 70
    11
1001
AcDbAttr
1070
     0
1070
     1
  0
LINE
  5
29CA
330
29C4
100
AcDbEntity
  8
SOLBET_Bloczki
100
AcDbLine
 10
5.999999594097516
 20
11.99999987551155
 30
0.0
 11
5.999999594097516
 21
-0.0000001244884515
 31
0.0
  0
LINE
  5
29CB
330
29C4
100
AcDbEntity
  8
SOLBET_Bloczki
100
AcDbLine
 10
5.999999594097516
 20
-0.0000001244884515
 30
0.0
 11
-0.0000004059024832
 21
-0.0000001244884515
 31
0.0
  0
LINE
  5
29CC
330
29C4
100
AcDbEntity
  8
SOLBET_Bloczki
100
AcDbLine
 10
-0.0000004059024832
 20
-0.0000001244884515
 30
0.0
 11
-0.0000004059024832
 21
11.99999987551155
 31
0.0
  0
LINE
  5
29CD
330
29C4
100
AcDbEntity
  8
SOLBET_Bloczki
100
AcDbLine
 10
-0.0000004059024832
 20
11.99999987551155
 30
0.0
 11
5.999999594097516
 21
11.99999987551155
 31
0.0
  0
LWPOLYLINE
  5
29CE
330
29C4
100
AcDbEntity
  8
SOLBET_Zbrojenie_Konstrukcja
  6
Continuous
100
AcDbPolyline
 90
        4
 70
     0
 43
0.0
 10
5.249998918748815
 20
10.74999987551166
 10
5.249998918748815
 20
0.7499998755115485
 10
0.7499989187488155
 20
0.7499998755115485
 10
0.7499989187488155
 20
10.74999987551166
  0
LWPOLYLINE
  5
29CF
330
29C4
100
AcDbEntity
  8
SOLBET_Zbrojenie_Konstrukcja
  6
Continuous
100
AcDbPolyline
 90
        2
 70
     1
 43
0.3
 10
5.104412450089967
 20
10.42241386794614
 42
-1.0
 10
4.804412450089785
 20
10.42241386794614
 42
-1.0
  0
LWPOLYLINE
  5
29D0
330
29C4
100
AcDbEntity
  8
SOLBET_Zbrojenie_Konstrukcja
  6
Continuous
100
AcDbPolyline
 90
        2
 70
     1
 43
0.3
 10
0.8955853874078911
 20
10.42241386794614
 42
1.0
 10
1.195585387407845
 20
10.42241386794614
 42
1.0
  0
LWPOLYLINE
  5
29D1
330
29C4
100
AcDbEntity
  8
SOLBET_Zbrojenie_Konstrukcja
  6
Continuous
100
AcDbPolyline
 90
        2
 70
     1
 43
0.3
 10
5.104412450089967
 20
2.418619077883477
 42
-1.0
 10
4.804412450089785
 20
2.418619077883477
 42
-1.0
  0
LWPOLYLINE
  5
29D2
330
29C4
100
AcDbEntity
  8
SOLBET_Zbrojenie_Konstrukcja
  6
Continuous
100
AcDbPolyline
 90
        2
 70
     1
 43
0.3
 10
0.8955853874078911
 20
2.418619077883477
 42
1.0
 10
1.195585387407845
 20
2.418619077883477
 42
1.0
  0
LWPOLYLINE
  5
29D3
330
29C4
100
AcDbEntity
  8
SOLBET_Zbrojenie_Konstrukcja
  6
Continuous
100
AcDbPolyline
 90
        2
 70
     1
 43
0.3
 10
4.185083775025077
 20
1.061575122894964
 42
-1.0
 10
3.885083775025123
 20
1.061575122894964
 42
-1.0
  0
LWPOLYLINE
  5
29D4
330
29C4
100
AcDbEntity
  8
SOLBET_Zbrojenie_Konstrukcja
  6
Continuous
100
AcDbPolyline
 90
        2
 70
     1
 43
0.3
 10
1.814914062472325
 20
1.061575122894964
 42
1.0
 10
2.114914062472507
 20
1.061575122894964
 42
1.0
  0
ENDBLK
  5
29D8
330
29C4
100
AcDbEntity
  8
0
100
AcDbBlockEnd
  0
BLOCK
  5
29EE
330
29DB
100
AcDbEntity
  8
0
100
AcDbBlockBegin
  2
SOLBET_Nadproze_180x240x2300_zz_PRA
 70
     2
 10
0.0
 20
0.0
 30
0.0
  3
SOLBET_Nadproze_180x240x2300_zz_PRA
  1

  0
ATTDEF
  5
29DC
330
29DB
100
AcDbEntity
  8
SOLBET_Wymiary_Opisy
100
AcDbText
 10
-0.0000002754209163
 20
4.914367003308234
 30
0.0
 40
0.9913121336814832
  1
180x240x2300
  7
Solbet_1
100
AcDbAttributeDefinition
  3

  2
WYMIARY
 70
    11
1001
AcDbAttr
1070
     0
1070
     1
  0
ATTDEF
  5
29DD
330
29DB
100
AcDbEntity
  8
SOLBET_Wymiary_Opisy
100
AcDbText
 10
0.0000001377104581
 20
3.269569171638422
 30
0.0
 40
0.9913121336814832
  1
25
  7
Solbet_1
100
AcDbAttributeDefinition
  3

  2
DŁUGOŚĆ_PODPARCIA_2
 70
    11
1001
AcDbAttr
1070
     0
1070
     1
  0
ATTDEF
  5
29DE
330
29DB
100
AcDbEntity
  8
SOLBET_Wymiary_Opisy
100
AcDbText
 10
0.0000001377104581
 20
0.2448647622976432
 30
0.0
 40
0.9913121336814832
  1
SOLBET
  7
Solbet_1
100
AcDbAttributeDefinition
  3

  2
FIRMA
 70
    11
1001
AcDbAttr
1070
     0
1070
     1
  0
ATTDEF
  5
29DF
330
29DB
100
AcDbEntity
  8
SOLBET_Wymiary_Opisy
100
AcDbText
 10
-0.0000002754209163
 20
6.505718915794942
 30
0.0
 40
0.9913121336814832
  1
Nadproże 230/18
  7
Solbet_1
100
AcDbAttributeDefinition
  3
Nazwa
  2
NAZWA
 70
    11
1001
AcDbAttr
1070
     0
1070
     1
  0
ATTDEF
  5
29E0
330
29DB
100
AcDbEntity
  8
SOLBET_Wymiary_Opisy
100
AcDbText
 10
0.0000001377104581
 20
1.744181521824755
 30
0.0
 40
0.9913121336814832
  1
Prawo
  7
Solbet_1
100
AcDbAttributeDefinition
  3

  2
WIDOK
 70
    11
1001
AcDbAttr
1070
     0
1070
     1
  0
LINE
  5
29E1
330
29DB
100
AcDbEntity
  8
SOLBET_Bloczki
100
AcDbLine
 10
9.000000404333832
 20
11.999999831987
 30
0.0
 11
9.000000404333832
 21
-0.0000001680130026
 31
0.0
  0
LINE
  5
29E2
330
29DB
100
AcDbEntity
  8
SOLBET_Bloczki
100
AcDbLine
 10
9.000000404333832
 20
-0.0000001680130026
 30
0.0
 11
0.0000004043338322
 21
-0.0000001680130026
 31
0.0
  0
LINE
  5
29E3
330
29DB
100
AcDbEntity
  8
SOLBET_Bloczki
100
AcDbLine
 10
0.0000004043338322
 20
-0.0000001680130026
 30
0.0
 11
0.0000004043338322
 21
11.999999831987
 31
0.0
  0
LINE
  5
29E4
330
29DB
100
AcDbEntity
  8
SOLBET_Bloczki
100
AcDbLine
 10
0.0000004043338322
 20
11.999999831987
 30
0.0
 11
9.000000404333832
 21
11.999999831987
 31
0.0
  0
LWPOLYLINE
  5
29E5
330
29DB
100
AcDbEntity
  8
SOLBET_Zbrojenie_Konstrukcja
  6
Continuous
100
AcDbPolyline
 90
        4
 70
     0
 43
0.0
 10
8.24999972898513
 20
10.74999983198711
 10
8.24999972898513
 20
0.7499998319869974
 10
0.7499997289851308
 20
0.7499998319869974
 10
0.7499997289851308
 20
10.74999983198711
  0
LWPOLYLINE
  5
29E6
330
29DB
100
AcDbEntity
  8
SOLBET_Zbrojenie_Konstrukcja
  6
Continuous
100
AcDbPolyline
 90
        2
 70
     1
 43
0.3
 10
8.104413260326282
 20
10.42241382442159
 42
-1.0
 10
7.8044132603261
 20
10.42241382442159
 42
-1.0
  0
LWPOLYLINE
  5
29E7
330
29DB
100
AcDbEntity
  8
SOLBET_Zbrojenie_Konstrukcja
  6
Continuous
100
AcDbPolyline
 90
        2
 70
     1
 43
0.3
 10
0.8955861976439791
 20
10.42241382442159
 42
1.0
 10
1.195586197644161
 20
10.42241382442159
 42
1.0
  0
LWPOLYLINE
  5
29E8
330
29DB
100
AcDbEntity
  8
SOLBET_Zbrojenie_Konstrukcja
  6
Continuous
100
AcDbPolyline
 90
        2
 70
     1
 43
0.3
 10
8.104413260326282
 20
2.418619034358926
 42
-1.0
 10
7.8044132603261
 20
2.418619034358926
 42
-1.0
  0
LWPOLYLINE
  5
29E9
330
29DB
100
AcDbEntity
  8
SOLBET_Zbrojenie_Konstrukcja
  6
Continuous
100
AcDbPolyline
 90
        2
 70
     1
 43
0.3
 10
0.8955861976439791
 20
2.418619034358926
 42
1.0
 10
1.195586197644161
 20
2.418619034358926
 42
1.0
  0
LWPOLYLINE
  5
29EA
330
29DB
100
AcDbEntity
  8
SOLBET_Zbrojenie_Konstrukcja
  6
Continuous
100
AcDbPolyline
 90
        2
 70
     1
 43
0.3
 10
6.026518470155451
 20
1.061575079370413
 42
-1.0
 10
5.726518470155497
 20
1.061575079370413
 42
-1.0
  0
LWPOLYLINE
  5
29EB
330
29DB
100
AcDbEntity
  8
SOLBET_Zbrojenie_Konstrukcja
  6
Continuous
100
AcDbPolyline
 90
        2
 70
     1
 43
0.3
 10
2.973480987814809
 20
1.061575079370413
 42
1.0
 10
3.273480987814764
 20
1.061575079370413
 42
1.0
  0
ENDBLK
  5
29EF
330
29DB
100
AcDbEntity
  8
0
100
AcDbBlockEnd
  0
BLOCK
  5
2A0F
330
2A03
100
AcDbEntity
  8
0
100
AcDbBlockBegin
  2
SOLBET_Plytka_60x240x590_KG600_PRA
 70
     2
 10
0.0
 20
0.0
 30
0.0
  3
SOLBET_Plytka_60x240x590_KG600_PRA
  1

  0
ATTDEF
  5
2A04
330
2A03
100
AcDbEntity
  8
SOLBET_Wymiary_Opisy
100
AcDbText
 10
0.0000000428741699
 20
4.865619229844077
 30
0.0
 40
1.006810973315101
  1
60x240x590
  7
Solbet_1
100
AcDbAttributeDefinition
  3

  2
WYMIARY
 70
    11
1001
AcDbAttr
1070
     0
1070
     1
  0
ATTDEF
  5
2A05
330
2A03
100
AcDbEntity
  8
SOLBET_Wymiary_Opisy
100
AcDbText
 10
0.0000000428741699
 20
3.329452077944857
 30
0.0
 40
1.006810973315101
  1
600
  7
Solbet_1
100
AcDbAttributeDefinition
  3

  2
KLASA_GĘSTOŚCI
 70
    11
1001
AcDbAttr
1070
     0
1070
     1
  0
ATTDEF
  5
2A06
330
2A03
100
AcDbEntity
  8
SOLBET_Wymiary_Opisy
100
AcDbText
 10
0.0000000428741699
 20
0.2486930628063702
 30
0.0
 40
1.006810973315101
  1
SOLBET
  7
Solbet_1
100
AcDbAttributeDefinition
  3

  2
FIRMA
 70
    11
1001
AcDbAttr
1070
     0
1070
     1
  0
ATTDEF
  5
2A07
330
2A03
100
AcDbEntity
  8
SOLBET_Wymiary_Opisy
100
AcDbText
 10
0.0000000428741699
 20
6.498884010242274
 30
0.0
 40
1.006810973315101
  1
Płytka
  7
Solbet_1
100
AcDbAttributeDefinition
  3
Nazwa
  2
NAZWA
 70
    11
1001
AcDbAttr
1070
     0
1070
     1
  0
ATTDEF
  5
2A08
330
2A03
100
AcDbEntity
  8
SOLBET_Wymiary_Opisy
100
AcDbText
 10
0.0000000428741699
 20
1.771451147448315
 30
0.0
 40
1.006810973315101
  1
Prawo
  7
Solbet_1
100
AcDbAttributeDefinition
  3

  2
WIDOK
 70
    11
1001
AcDbAttr
1070
     0
1070
     1
  0
LINE
  5
2A09
330
2A03
100
AcDbEntity
  8
SOLBET_Bloczki
100
AcDbLine
 10
2.99999991809318
 20
12.00000009173755
 30
0.0
 11
2.999999918093408
 21
0.0000000917375473
 31
0.0
  0
LINE
  5
2A0A
330
2A03
100
AcDbEntity
  8
SOLBET_Bloczki
100
AcDbLine
 10
2.999999918093408
 20
0.0000000917375473
 30
0.0
 11
-0.0000000819065917
 21
0.0000000917375473
 31
0.0
  0
LINE
  5
2A0B
330
2A03
100
AcDbEntity
  8
SOLBET_Bloczki
100
AcDbLine
 10
-0.0000000819065917
 20
0.0000000917375473
 30
0.0
 11
-0.0000000819065917
 21
12.00000009173755
 31
0.0
  0
LINE
  5
2A0C
330
2A03
100
AcDbEntity
  8
SOLBET_Bloczki
100
AcDbLine
 10
-0.0000000819065917
 20
12.00000009173755
 30
0.0
 11
2.99999991809318
 21
12.00000009173755
 31
0.0
  0
ENDBLK
  5
2A10
330
2A03
100
AcDbEntity
  8
0
100
AcDbBlockEnd
  0
ENDSEC
  0
SECTION
  2
ENTITIES
  0
LINE
  5
222D
330
1F
100
AcDbEntity
  8
SOLBET_Wymiary_Opisy
 62
     1
100
AcDbLine
 10
66.71524341379927
 20
156.6208031334716
 30
0.0
 11
150.8513483129552
 21
156.6208031334716
 31
0.0
  0
INSERT
  5
2239
330
1F
100
AcDbEntity
  8
SOLBET_Zbrojenie_Konstrukcja
100
AcDbBlockReference
  2
*U5
 10
-321.8345170604421
 20
-103.6469947056483
 30
0.0
 41
50.0
 42
50.0
 43
50.0
1001
ASO_SCHRAFF
1005
0
1070
     0
1005
0
  0
INSERT
  5
223C
330
1F
100
AcDbEntity
  8
SOLBET_Zbrojenie_Konstrukcja
100
AcDbBlockReference
  2
*U5
 10
481.5393707345349
 20
-103.6469947056483
 30
0.0
 41
-50.0
 42
50.0
 43
50.0
1001
ASO_SCHRAFF
1005
0
1070
     0
1005
0
  0
LINE
  5
223F
330
1F
100
AcDbEntity
  8
SOLBET_Wymiary_Opisy
 62
     1
100
AcDbLine
 10
150.8513483129552
 20
250.6745579131761
 30
0.0
 11
150.8513483129552
 21
72.20271136349674
 31
0.0
  0
LINE
  5
224C
330
1F
100
AcDbEntity
  8
SOLBET_Wymiary_Opisy
 62
     1
100
AcDbLine
 10
66.2485378442675
 20
250.6745579131761
 30
0.0
 11
150.8513483129552
 21
250.6745579131761
 31
0.0
  0
LWPOLYLINE
  5
224F
330
1F
100
AcDbEntity
  8
SOLBET_Stolarka_Okna
100
AcDbPolyline
 90
        4
 70
     1
 43
0.0
 10
78.43335736348468
 20
119.482722251149
 10
79.79516310316921
 20
119.1336738753167
 10
79.79516310316921
 20
118.2813180867151
 10
78.43335736348468
 20
118.2813180867151
  0
LWPOLYLINE
  5
2250
330
1F
100
AcDbEntity
  8
SOLBET_Stolarka_Okna
100
AcDbPolyline
 90
       15
 70
     1
 43
0.0
 10
75.35242683703495
 20
111.4589063124933
 10
78.85242683703495
 20
111.4589063124933
 10
78.85242683703495
 20
114.5852270101828
 10
77.76829850603758
 20
114.5852270101828
 10
77.76829850603758
 20
115.4572944311023
 10
76.69457711155928
 20
115.4572944311023
 10
76.69457711155928
 20
116.4081727281502
 10
76.34890918730457
 20
116.4081727281502
 10
75.35242683703495
 20
116.1895385828537
 10
75.35242683703495
 20
114.6189762649895
 10
74.88927021797213
 20
114.356911097704
 10
74.88927021797213
 20
112.9512149602849
 10
75.149651283514
 20
112.9512149602849
 10
75.149651283514
 20
113.4717820895098
 10
75.35242683703495
 20
113.4717820895098
  0
LINE
  5
2251
330
1F
100
AcDbEntity
  8
SOLBET_Wymiary_Opisy
 62
     1
100
AcDbLine
 10
66.71524341379927
 20
154.1789275189059
 30
0.0
 11
150.8513483129552
 21
154.1789275189059
 31
0.0
  0
LINE
  5
2253
330
1F
100
AcDbEntity
  8
SOLBET_Stolarka_Okna
100
AcDbLine
 10
75.35242683703495
 20
184.4589063124933
 30
0.0
 11
78.85242683703495
 21
184.4589063124933
 31
0.0
  0
LINE
  5
2254
330
1F
100
AcDbEntity
  8
SOLBET_Stolarka_Okna
100
AcDbLine
 10
78.85242683703495
 20
184.4589063124933
 30
0.0
 11
78.85242683703495
 21
181.3325856148038
 31
0.0
  0
LINE
  5
2255
330
1F
100
AcDbEntity
  8
SOLBET_Stolarka_Okna
100
AcDbLine
 10
78.85242683703495
 20
181.3325856148038
 30
0.0
 11
77.76829850603758
 21
181.3325856148038
 31
0.0
  0
LINE
  5
2256
330
1F
100
AcDbEntity
  8
SOLBET_Stolarka_Okna
100
AcDbLine
 10
77.76829850603758
 20
181.3325856148038
 30
0.0
 11
77.76829850603758
 21
180.4605181938843
 31
0.0
  0
LINE
  5
2257
330
1F
100
AcDbEntity
  8
SOLBET_Stolarka_Okna
100
AcDbLine
 10
77.76829850603758
 20
180.4605181938843
 30
0.0
 11
76.69457711155928
 21
180.4605181938843
 31
0.0
  0
LINE
  5
2258
330
1F
100
AcDbEntity
  8
SOLBET_Stolarka_Okna
100
AcDbLine
 10
76.69457711155928
 20
180.4605181938843
 30
0.0
 11
76.69457711155928
 21
179.5096398968357
 31
0.0
  0
LINE
  5
2259
330
1F
100
AcDbEntity
  8
SOLBET_Stolarka_Okna
100
AcDbLine
 10
76.69457711155928
 20
179.5096398968357
 30
0.0
 11
76.34890918730457
 21
179.5096398968357
 31
0.0
  0
LINE
  5
225A
330
1F
100
AcDbEntity
  8
SOLBET_Stolarka_Okna
100
AcDbLine
 10
76.34890918730457
 20
179.5096398968357
 30
0.0
 11
75.35242683703495
 21
179.7282740421329
 31
0.0
  0
LINE
  5
225B
330
1F
100
AcDbEntity
  8
SOLBET_Stolarka_Okna
100
AcDbLine
 10
75.35242683703495
 20
179.7282740421329
 30
0.0
 11
75.35242683703495
 21
184.4589063124933
 31
0.0
  0
LWPOLYLINE
  5
225C
330
1F
100
AcDbEntity
  8
SOLBET_Stolarka_Okna
100
AcDbPolyline
 90
       15
 70
     1
 43
0.0
 10
76.69457711155928
 20
117.2240920908696
 10
76.69457711155928
 20
116.5193505380388
 10
75.35242683703495
 20
116.5193505380388
 10
75.35242683703495
 20
119.3231225722227
 10
76.6127145859291
 20
119.7602009396001
 10
76.6127145859291
 20
118.1893862672264
 10
78.25510316783265
 20
118.1893862672264
 10
79.79516310316921
 20
118.1893862672264
 10
79.79516310316921
 20
114.2927772365923
 10
79.10037236855078
 20
114.2927772365923
 10
79.10037236855078
 20
116.5193505380388
 10
77.93557751915591
 20
116.5193505380388
 10
77.93557751915591
 20
115.7839693618318
 10
77.07730845460833
 20
115.7839693618318
 10
77.07730845460833
 20
117.2240920908696
  0
LWPOLYLINE
  5
225D
330
1F
100
AcDbEntity
  8
SOLBET_Stolarka_Okna
100
AcDbPolyline
 90
        4
 70
     1
 43
0.0
 10
78.43335736348468
 20
176.4350903738382
 10
79.79516310316921
 20
176.7841387496699
 10
79.79516310316921
 20
177.6364945382707
 10
78.43335736348468
 20
177.6364945382707
  0
LWPOLYLINE
  5
225E
330
1F
100
AcDbEntity
  8
SOLBET_Stolarka_Okna
100
AcDbPolyline
 90
       15
 70
     1
 43
0.0
 10
76.69457711155928
 20
178.6937205341169
 10
76.69457711155928
 20
179.3984620869477
 10
75.35242683703495
 20
179.3984620869477
 10
75.35242683703495
 20
176.5946900527631
 10
76.6127145859291
 20
176.1576116853865
 10
76.6127145859291
 20
177.7284263577593
 10
78.25510316783265
 20
177.7284263577593
 10
79.79516310316921
 20
177.7284263577593
 10
79.79516310316921
 20
181.625035388395
 10
79.10037236855078
 20
181.625035388395
 10
79.10037236855078
 20
179.3984620869477
 10
77.93557751915591
 20
179.3984620869477
 10
77.93557751915591
 20
180.1338432631548
 10
77.07730845460833
 20
180.1338432631548
 10
77.07730845460833
 20
178.6937205341169
  0
LINE
  5
2262
330
1F
100
AcDbEntity
  8
SOLBET_Stolarka_Okna
100
AcDbLine
 10
75.2484115168329
 20
113.3721374509577
 30
0.0
 11
75.2484115168329
 21
111.0471533338232
 31
0.0
  0
LINE
  5
2263
330
1F
100
AcDbEntity
  8
SOLBET_Stolarka_Okna
100
AcDbLine
 10
75.2484115168329
 20
111.0471533338232
 30
0.0
 11
69.5520411450293
 21
111.0471533338232
 31
0.0
  0
LINE
  5
2264
330
1F
100
AcDbEntity
  8
SOLBET_Stolarka_Okna
100
AcDbLine
 10
69.5520411450293
 20
111.0471533338232
 30
0.0
 11
69.5520411450293
 21
111.6863041113195
 31
0.0
  0
LINE
  5
2265
330
1F
100
AcDbEntity
  8
SOLBET_Stolarka_Okna
100
AcDbLine
 10
75.20854644258452
 20
113.3754611198948
 30
0.0
 11
75.20854644258452
 21
112.6346023646225
 31
0.0
  0
LINE
  5
2266
330
1F
100
AcDbEntity
  8
SOLBET_Stolarka_Okna
100
AcDbLine
 10
75.20854644258452
 20
112.6346023646225
 30
0.0
 11
65.07126707989892
 21
110.9351141104465
 31
0.0
  0
LINE
  5
2267
330
1F
100
AcDbEntity
  8
SOLBET_Stolarka_Okna
100
AcDbLine
 10
64.24430872938774
 20
109.9501996027143
 30
0.0
 11
64.24430872938774
 21
109.3777813397287
 31
0.0
  0
LINE
  5
2268
330
1F
100
AcDbEntity
  8
SOLBET_Stolarka_Okna
100
AcDbLine
 10
64.24430872938774
 20
109.3777813397287
 30
0.0
 11
64.55139061624596
 21
109.3777813397287
 31
0.0
  0
LINE
  5
2269
330
1F
100
AcDbEntity
  8
SOLBET_Stolarka_Okna
100
AcDbLine
 10
64.55139061624596
 20
109.3777813397287
 30
0.0
 11
64.55139061624596
 21
109.9098546942716
 31
0.0
  0
ARC
  5
226A
330
1F
100
AcDbEntity
  8
SOLBET_Stolarka_Okna
100
AcDbCircle
 10
65.24430872938774
 20
109.9501996027143
 30
0.0
 40
1.0
100
AcDbArc
 50
99.9647143110222
 51
180.0
  0
LINE
  5
226B
330
1F
100
AcDbEntity
  8
SOLBET_Stolarka_Okna
100
AcDbLine
 10
70.28903884834085
 20
111.8098598401616
 30
0.0
 11
70.28903884834085
 21
111.0471533338232
 31
0.0
  0
CIRCLE
  5
226C
330
1F
100
AcDbEntity
  8
SOLBET_Izolacja
100
AcDbCircle
 10
78.46039805877899
 20
111.2113497733667
 30
0.0
 40
0.25244346087405
  0
INSERT
  5
226D
330
1F
100
AcDbEntity
  8
SOLBET_Izolacja
100
AcDbBlockReference
  2
*U6
 10
-320.432258814795
 20
-24.11069060357568
 30
0.0
 41
50.0
 42
50.0
 43
50.0
1001
ASO_SCHRAFF
1005
0
1070
     0
1005
0
  0
ARC
  5
226E
330
1F
100
AcDbEntity
  8
SOLBET_Izolacja
100
AcDbCircle
 10
79.17117200620646
 20
111.2059311858289
 30
0.0
 40
0.4069335296814501
100
AcDbArc
 50
141.5623929961079
 51
217.3757720391884
  0
CIRCLE
  5
2272
330
1F
100
AcDbEntity
  8
SOLBET_Izolacja
100
AcDbCircle
 10
78.46039805877899
 20
184.706462851619
 30
0.0
 40
0.25244346087405
  0
INSERT
  5
2273
330
1F
100
AcDbEntity
  8
SOLBET_Izolacja
100
AcDbBlockReference
  2
*U6
 10
-320.432258814795
 20
320.0285032285616
 30
0.0
 41
-50.0
 42
50.0
 43
50.0
 50
180.0
1001
ASO_SCHRAFF
1005
0
1070
     0
1005
0
  0
ARC
  5
2274
330
1F
100
AcDbEntity
  8
SOLBET_Izolacja
100
AcDbCircle
 10
79.17117200620646
 20
184.7118814391577
 30
0.0
 40
0.4069335296814501
100
AcDbArc
 50
142.6242279608116
 51
218.4376070038921
  0
LINE
  5
2275
330
1F
100
AcDbEntity
  8
SOLBET_Stolarka_Okna
100
AcDbLine
 10
76.81065287371097
 20
177.4673404085259
 30
0.0
 11
76.81065287371097
 21
156.6208031334716
 31
0.0
  0
LINE
  5
2276
330
1F
100
AcDbEntity
  8
SOLBET_Stolarka_Okna
100
AcDbLine
 10
78.26872888087473
 20
177.4673404085259
 30
0.0
 11
78.26872888087473
 21
156.6208031334716
 31
0.0
  0
LINE
  5
2277
330
1F
100
AcDbEntity
  8
SOLBET_Stolarka_Okna
100
AcDbLine
 10
76.81065287371097
 20
154.1789275189059
 30
0.0
 11
76.81065287371097
 21
118.3954875168294
 31
0.0
  0
LINE
  5
2278
330
1F
100
AcDbEntity
  8
SOLBET_Stolarka_Okna
100
AcDbLine
 10
78.26872888087473
 20
154.1789275189059
 30
0.0
 11
78.26872888087473
 21
118.3954875168294
 31
0.0
  0
LWPOLYLINE
  5
227A
330
1F
100
AcDbEntity
  8
SOLBET_Stolarka_Okna
100
AcDbPolyline
 90
        4
 70
     1
 43
0.0
 10
78.88991246357273
 20
110.9589063124933
 10
95.35242683704655
 20
110.9589063124933
 10
95.35242683704655
 20
112.9589063124933
 10
78.88991246357273
 20
112.9589063124933
1001
ASO_SCHRAFF
1005
227A
1070
     1
1002
{
1070
     1
1005
227A
1002
}
1002
{
1070
     2
1005
227B
1002
}
1002
{
1070
     4
1000
SOFIHOLZ
1040
0.5
1040
0.0
1070
     0
1000
T__SCHR
1070
   256
1000
_bylayer
1040
50.0
1070
     1
1002
}
  0
INSERT
  5
227B
330
1F
100
AcDbEntity
  8
SOLBET_Stolarka_Okna
100
AcDbBlockReference
  2
*U7
 10
-320.432258814795
 20
-24.11069060357568
 30
0.0
 41
50.0
 42
50.0
 43
50.0
1001
ASO_SCHRAFF
1005
227B
1070
     0
1005
227A
  0
LINE
  5
227C
330
1F
100
AcDbEntity
  8
SOLBET_Wymiary_Opisy
 62
     1
100
AcDbLine
 10
66.2485378442675
 20
72.20271136349674
 30
0.0
 11
150.8513483129552
 21
72.20271136349674
 31
0.0
  0
ARC
  5
227E
330
1F
100
AcDbEntity
  8
SOLBET_Tynki_Posadzki
100
AcDbCircle
 10
90.85242683703496
 20
226.8322131460495
 30
0.0
 40
1.5000521396288
100
AcDbArc
 50
0.0
 51
90.0
  0
LINE
  5
2280
330
1F
100
AcDbEntity
  8
SOLBET_Izolacja
  6
Continuous
100
AcDbLine
 10
91.35242683703495
 20
226.3322131460487
 30
0.0
 11
90.35242683703495
 21
226.3322131460487
 31
0.0
  0
LINE
  5
2283
330
1F
100
AcDbEntity
  8
SOLBET_Tynki_Posadzki
100
AcDbLine
 10
91.65049302822376
 20
226.8322131460495
 30
0.0
 11
150.8513483129552
 21
226.8322131460495
 31
0.0
  0
LINE
  5
2286
330
1F
100
AcDbEntity
  8
SOLBET_Izolacja
  6
Continuous
100
AcDbLine
 10
91.35242683703495
 20
220.9589063124933
 30
0.0
 11
91.35242683703495
 21
226.3322131460487
 31
0.0
  0
LINE
  5
2287
330
1F
100
AcDbEntity
  8
SOLBET_Izolacja
  6
Continuous
100
AcDbLine
 10
91.35242683703495
 20
223.4589063124933
 30
0.0
 11
150.8513483129552
 21
223.4589063124933
 31
0.0
  0
LINE
  5
2288
330
1F
100
AcDbEntity
  8
SOLBET_Tynki_Posadzki
100
AcDbLine
 10
90.85242683703496
 20
226.3322131460487
 30
0.0
 11
90.85242683703496
 21
250.6745579131761
 31
0.0
  0
LINE
  5
228A
330
1F
100
AcDbEntity
  8
SOLBET_Emulsje_Folie
100
AcDbLine
 10
91.46724288671908
 20
226.5822131460487
 30
0.0
 11
91.46724288671908
 21
223.9047456260652
 31
0.0
  0
LINE
  5
228B
330
1F
100
AcDbEntity
  8
SOLBET_Emulsje_Folie
100
AcDbLine
 10
91.71724288670748
 20
223.6547456260659
 30
0.0
 11
150.8513483129552
 21
223.6547456260659
 31
0.0
  0
ARC
  5
228C
330
1F
100
AcDbEntity
  8
SOLBET_Emulsje_Folie
100
AcDbCircle
 10
91.71724288670748
 20
223.9047456260652
 30
0.0
 40
0.25
100
AcDbArc
 50
180.0
 51
270.0
  0
LWPOLYLINE
  5
228D
102
{ACAD_REACTORS
330
2404
102
}
330
1F
100
AcDbEntity
  8
SOLBET_Tynki_Posadzki
100
AcDbPolyline
 90
        5
 70
     1
 43
0.0
 10
91.46724288671908
 20
223.9047456260652
 42
0.0737237824442244
 10
91.47799606992567
 20
223.8322131460487
 10
150.8513483129552
 20
223.8322131460487
 10
150.8513483129552
 20
226.3322131460487
 10
91.46724288671908
 20
226.3322131460487
1001
ASO_SCHRAFF
1005
0
1070
     1
1002
{
1070
     1
1005
0
1002
}
1002
{
1070
     2
1005
0
1002
}
1002
{
1070
     4
1000
AR-CONC
1040
0.01
1040
0.0
1070
     0
1000
T__SCHR
1070
   256
1000
_bylayer
1040
50.0
1070
     1
1002
}
  0
LINE
  5
2291
330
1F
100
AcDbEntity
  8
SOLBET_Zaprawy
100
AcDbLine
 10
69.06910503051427
 20
72.20271136349674
 30
0.0
 11
69.06852612971261
 21
111.6052440892121
 31
0.0
  0
LINE
  5
2292
330
1F
100
AcDbEntity
  8
SOLBET_Tynki_Posadzki
100
AcDbLine
 10
68.60242683704655
 20
72.20271136349674
 30
0.0
 11
68.60242683704655
 21
154.1789275189059
 31
0.0
  0
LINE
  5
2295
330
1F
100
AcDbEntity
  8
SOLBET_Zaprawy
100
AcDbLine
 10
69.06910503051427
 20
184.6668294655878
 30
0.0
 11
69.06910503051427
 21
250.6745579131761
 31
0.0
  0
LINE
  5
2296
330
1F
100
AcDbEntity
  8
SOLBET_Tynki_Posadzki
100
AcDbLine
 10
68.60242683704655
 20
156.6208031334716
 30
0.0
 11
68.60242683704655
 21
250.6745579131761
 31
0.0
  0
LINE
  5
2297
330
1F
100
AcDbEntity
  8
SOLBET_Tynki_Posadzki
100
AcDbLine
 10
90.85242683703496
 20
208.4589063124933
 30
0.0
 11
90.85242683703496
 21
156.6208031334716
 31
0.0
  0
LINE
  5
2298
330
1F
100
AcDbEntity
  8
SOLBET_Tynki_Posadzki
100
AcDbLine
 10
90.85242683703496
 20
154.1789275189059
 30
0.0
 11
90.85242683703496
 21
112.9589063124933
 31
0.0
  0
LINE
  5
2299
330
1F
100
AcDbEntity
  8
SOLBET_Tynki_Posadzki
100
AcDbLine
 10
90.85242683703496
 20
110.9589063124933
 30
0.0
 11
90.85242683703496
 21
72.20271136349674
 31
0.0
  0
LINE
  5
229A
330
1F
100
AcDbEntity
  8
SOLBET_Tynki_Posadzki
100
AcDbLine
 10
90.85242683703496
 20
208.4589063124933
 30
0.0
 11
150.8513483129552
 21
208.4589063124933
 31
0.0
  0
LINE
  5
229B
330
1F
100
AcDbEntity
  8
SOLBET_Tynki_Posadzki
100
AcDbLine
 10
90.85242683703496
 20
208.4589063124933
 30
0.0
 11
90.35442000456328
 21
208.958906312494
 31
0.0
  0
LWPOLYLINE
  5
229D
330
1F
100
AcDbEntity
  8
SOLBET_Zbrojenie_Konstrukcja
100
AcDbPolyline
 90
        3
 70
     0
 43
0.05
 10
90.57401346323263
 20
186.1668294655878
 10
90.57401346323263
 20
184.6668294655878
 10
89.07401346323263
 20
184.6668294655878
  0
LWPOLYLINE
  5
229E
330
1F
100
AcDbEntity
  8
SOLBET_Zbrojenie_Konstrukcja
100
AcDbPolyline
 90
        3
 70
     0
 43
0.05
 10
68.84867130300199
 20
186.1668294655878
 10
68.84867130300199
 20
184.6668294655878
 10
70.34867130300199
 20
184.6668294655878
  0
LINE
  5
22A2
330
1F
100
AcDbEntity
  8
SOLBET_Bloczki
100
AcDbLine
 10
91.57617289780001
 20
43.22584082637894
 30
0.0
 11
120.0292268960486
 21
43.22584082637894
 31
0.0
  0
LINE
  5
22A3
330
1F
100
AcDbEntity
  8
SOLBET_Bloczki
100
AcDbLine
 10
91.57617289780001
 20
22.22584082637894
 30
0.0
 11
120.0292268960486
 21
22.22584082637894
 31
0.0
  0
LINE
  5
22A4
330
1F
100
AcDbEntity
  8
SOLBET_Wymiary_Opisy
 62
     1
100
AcDbLine
 10
91.57617289780001
 20
12.70544087443613
 30
0.0
 11
91.57617289780001
 21
49.96217533042051
 31
0.0
  0
LINE
  5
22A5
330
1F
100
AcDbEntity
  8
SOLBET_Bloczki
100
AcDbLine
 10
120.0292268960486
 20
22.22584082637894
 30
0.0
 11
120.0292268960486
 21
43.22584082637894
 31
0.0
  0
LINE
  5
22A6
330
1F
100
AcDbEntity
  8
SOLBET_Zaprawy
100
AcDbLine
 10
91.57617289780001
 20
43.5091626329127
 30
0.0
 11
120.1924937505607
 21
43.5091626329127
 31
0.0
  0
LINE
  5
22A7
330
1F
100
AcDbEntity
  8
SOLBET_Tynki_Posadzki
100
AcDbLine
 10
91.57617289780001
 20
43.97584082637894
 30
0.0
 11
120.5292268960486
 21
43.97584082637894
 31
0.0
  0
LINE
  5
22A8
330
1F
100
AcDbEntity
  8
SOLBET_Tynki_Posadzki
  6
VERDECKT
100
AcDbLine
 10
140.2591102066433
 20
21.72584082637894
 30
0.0
 11
120.5292268960486
 21
21.72584082637894
 31
0.0
  0
LINE
  5
22AA
330
1F
100
AcDbEntity
  8
SOLBET_Stolarka_Okna
100
AcDbLine
 10
120.5292268960486
 20
37.22584082637894
 30
0.0
 11
120.5292268960486
 21
33.72584082637894
 31
0.0
  0
LINE
  5
22AB
330
1F
100
AcDbEntity
  8
SOLBET_Stolarka_Okna
100
AcDbLine
 10
120.5292268960486
 20
33.72584082637894
 30
0.0
 11
123.6555475937302
 21
33.72584082637894
 31
0.0
  0
LINE
  5
22AC
330
1F
100
AcDbEntity
  8
SOLBET_Stolarka_Okna
100
AcDbLine
 10
123.6555475937302
 20
33.72584082637894
 30
0.0
 11
123.6555475937302
 21
34.80996915738484
 31
0.0
  0
LINE
  5
22AD
330
1F
100
AcDbEntity
  8
SOLBET_Stolarka_Okna
100
AcDbLine
 10
123.6555475937302
 20
34.80996915738484
 30
0.0
 11
124.5276150146599
 21
34.80996915738484
 31
0.0
  0
LINE
  5
22AE
330
1F
100
AcDbEntity
  8
SOLBET_Stolarka_Okna
100
AcDbLine
 10
124.5276150146599
 20
34.80996915738484
 30
0.0
 11
124.5276150146599
 21
35.88369055186172
 31
0.0
  0
LINE
  5
22AF
330
1F
100
AcDbEntity
  8
SOLBET_Stolarka_Okna
100
AcDbLine
 10
124.5276150146599
 20
35.88369055186172
 30
0.0
 11
125.4784933117084
 21
35.88369055186172
 31
0.0
  0
LINE
  5
22B0
330
1F
100
AcDbEntity
  8
SOLBET_Stolarka_Okna
100
AcDbLine
 10
125.4784933117084
 20
35.88369055186172
 30
0.0
 11
125.4784933117084
 21
36.22935847612007
 31
0.0
  0
LINE
  5
22B1
330
1F
100
AcDbEntity
  8
SOLBET_Stolarka_Okna
100
AcDbLine
 10
125.4784933117084
 20
36.22935847612007
 30
0.0
 11
125.2598591664207
 21
37.22584082637894
 31
0.0
  0
LINE
  5
22B2
330
1F
100
AcDbEntity
  8
SOLBET_Stolarka_Okna
100
AcDbLine
 10
125.2598591664207
 20
37.22584082637894
 30
0.0
 11
120.5292268960486
 21
37.22584082637894
 31
0.0
  0
LWPOLYLINE
  5
22B3
330
1F
100
AcDbEntity
  8
SOLBET_Stolarka_Okna
100
AcDbPolyline
 90
        4
 70
     1
 43
0.0
 10
128.5530428347044
 20
34.14491029993565
 10
128.2039944588655
 20
32.78310456025116
 10
127.3516386702756
 20
32.78310456025116
 10
127.3516386702756
 20
34.14491029993565
  0
LWPOLYLINE
  5
22B4
330
1F
100
AcDbEntity
  8
SOLBET_Stolarka_Okna
100
AcDbPolyline
 90
       15
 70
     1
 43
0.0
 10
126.2944126744271
 20
35.88369055186172
 10
125.5896711215941
 20
35.88369055186172
 10
125.5896711215941
 20
37.22584082637894
 10
128.3934431557759
 20
37.22584082637894
 10
128.8305215231591
 20
35.96555307748622
 10
127.2597068507789
 20
35.96555307748622
 10
127.2597068507789
 20
34.32316449559056
 10
127.2597068507789
 20
32.78310456025116
 10
123.3630978201499
 20
32.78310456025116
 10
123.3630978201499
 20
33.47789529487688
 10
125.5896711215941
 20
33.47789529487688
 10
125.5896711215941
 20
34.64269014426151
 10
124.854289945388
 20
34.64269014426151
 10
124.854289945388
 20
35.500959208817
 10
126.2944126744271
 20
35.500959208817
  0
CIRCLE
  5
22B8
330
1F
100
AcDbEntity
  8
SOLBET_Izolacja
100
AcDbCircle
 10
120.2816703569244
 20
34.11786960463996
 30
0.0
 40
0.25244346087405
  0
INSERT
  5
22B9
330
1F
100
AcDbEntity
  8
SOLBET_Izolacja
100
AcDbBlockReference
  2
*U6
 10
-15.04037002001587
 20
433.0105264782184
 30
0.0
 41
50.0
 42
50.0
 43
50.0
 50
270.0
1001
ASO_SCHRAFF
1005
0
1070
     0
1005
0
  0
ARC
  5
22BA
330
1F
100
AcDbEntity
  8
SOLBET_Izolacja
100
AcDbCircle
 10
120.2762517693902
 20
33.40709565721096
 30
0.0
 40
0.4069335296814501
100
AcDbArc
 50
51.56239299620135
 51
127.3757720391581
  0
LINE
  5
22BB
330
1F
100
AcDbEntity
  8
SOLBET_Wymiary_Opisy
 62
     1
100
AcDbLine
 10
140.2591102066433
 20
12.70544087443613
 30
0.0
 11
140.2591102066433
 21
49.96217533042051
 31
0.0
  0
LINE
  5
22BC
330
1F
100
AcDbEntity
  8
SOLBET_Stolarka_Okna
100
AcDbLine
 10
140.2591102066433
 20
35.76761478970707
 30
0.0
 11
127.4658081003797
 21
35.76761478970707
 31
0.0
  0
LINE
  5
22BD
330
1F
100
AcDbEntity
  8
SOLBET_Stolarka_Okna
100
AcDbLine
 10
140.2591102066433
 20
34.30953878254786
 30
0.0
 11
127.4658081003797
 21
34.30953878254786
 31
0.0
  0
LWPOLYLINE
  5
22BE
330
1F
100
AcDbEntity
  8
SOLBET_Zbrojenie_Konstrukcja
100
AcDbPolyline
 90
        3
 70
     0
 43
0.05
 10
120.2508135222463
 20
23.43376397947265
 10
120.2508135222463
 20
21.93376397947265
 10
118.7508135222463
 20
21.93376397947265
  0
LWPOLYLINE
  5
22BF
330
1F
100
AcDbEntity
  8
SOLBET_Zbrojenie_Konstrukcja
100
AcDbPolyline
 90
        3
 70
     0
 43
0.05
 10
120.2508135222463
 20
42.01791767328524
 10
120.2508135222463
 20
43.51791767328523
 10
118.7508135222463
 20
43.51791767328523
  0
LINE
  5
22C7
330
1F
100
AcDbEntity
  8
SOLBET_Stolarka_Okna
100
AcDbLine
 10
75.35242683703495
 20
176.5946900527631
 30
0.0
 11
75.35242683703495
 21
156.6208031334716
 31
0.0
  0
LINE
  5
22C8
330
1F
100
AcDbEntity
  8
SOLBET_Stolarka_Okna
100
AcDbLine
 10
79.79516310316921
 20
176.7841387496699
 30
0.0
 11
79.79516310316921
 21
156.6208031334716
 31
0.0
  0
LINE
  5
22C9
330
1F
100
AcDbEntity
  8
SOLBET_Stolarka_Okna
100
AcDbLine
 10
79.79516310316921
 20
154.1789275189059
 30
0.0
 11
79.79516310316921
 21
119.1336738753167
 31
0.0
  0
LINE
  5
22CA
330
1F
100
AcDbEntity
  8
SOLBET_Stolarka_Okna
100
AcDbLine
 10
75.35242683703495
 20
154.1789275189059
 30
0.0
 11
75.35242683703495
 21
119.3231225722227
 31
0.0
  0
LINE
  5
22CB
330
1F
100
AcDbEntity
  8
SOLBET_Stolarka_Okna
100
AcDbLine
 10
128.3934431557759
 20
37.22584082637894
 30
0.0
 11
140.2591102066433
 21
37.22584082637894
 31
0.0
  0
LINE
  5
22CC
330
1F
100
AcDbEntity
  8
SOLBET_Stolarka_Okna
100
AcDbLine
 10
128.2039944588655
 20
32.78310456025116
 30
0.0
 11
140.2591102066433
 21
32.78310456025116
 31
0.0
  0
LINE
  5
22CD
330
1F
100
AcDbEntity
  8
SOLBET_Stolarka_Okna
100
AcDbLine
 10
140.2591102066433
 20
16.72584082637894
 30
0.0
 11
115.5292268960486
 21
16.72584082637894
 31
0.0
  0
LINE
  5
22CE
330
1F
100
AcDbEntity
  8
SOLBET_Stolarka_Okna
100
AcDbLine
 10
115.5292268960486
 20
33.72584082637894
 30
0.0
 11
115.5292268960486
 21
21.72584082637894
 31
0.0
  0
LINE
  5
22CF
330
1F
100
AcDbEntity
  8
SOLBET_Stolarka_Okna
100
AcDbLine
 10
115.5292268960486
 20
33.72584082637894
 30
0.0
 11
120.0292268960486
 21
33.73047408805121
 31
0.0
  0
LINE
  5
22D0
330
1F
100
AcDbEntity
  8
SOLBET_Stolarka_Okna
100
AcDbLine
 10
115.5292268960486
 20
21.72584082637894
 30
0.0
 11
115.5292268960486
 21
16.72584082637894
 31
0.0
  0
LINE
  5
22D1
330
1F
100
AcDbEntity
  8
SOLBET_Tynki_Posadzki
100
AcDbLine
 10
120.5292268960486
 20
21.72584082637894
 30
0.0
 11
91.57617289780001
 21
21.72584082637894
 31
0.0
  0
LWPOLYLINE
  5
22E0
102
{ACAD_REACTORS
330
2416
102
}
330
1F
100
AcDbEntity
  8
SOLBET_Zbrojenie_Konstrukcja
100
AcDbPolyline
 90
       16
 70
     1
 43
0.0
 10
86.71333052529893
 20
221.1372442105426
 42
-0.0869419154568836
 10
86.66661377942592
 20
221.112840320738
 42
-0.04426695874853
 10
86.61000555378791
 20
221.1002133000655
 42
-0.0327594189474477
 10
86.53186965100417
 20
221.0950884266078
 42
-0.0327594189473721
 10
86.45373374823179
 20
221.1002133000655
 42
-0.0442669587487512
 10
86.3971255225822
 20
221.112840320738
 42
-0.0869419154555393
 10
86.35040877669757
 20
221.1372442105426
 42
-0.233077666948955
 10
86.34131267714497
 20
221.1556971843025
 42
-0.2330776669476068
 10
86.35040877669757
 20
221.1741501580631
 42
-0.0869419154571649
 10
86.3971255225822
 20
221.1985540478685
 42
-0.0442669587478621
 10
86.45373374823179
 20
221.2111810685403
 42
-0.032759418947709
 10
86.53186965100417
 20
221.2163059419972
 42
-0.0327594189469762
 10
86.61000555378791
 20
221.2111810685403
 42
-0.0442669587489952
 10
86.66661377942592
 20
221.1985540478685
 42
-0.0869419154555225
 10
86.71333052529893
 20
221.1741501580631
 42
-0.2095631734287794
 10
86.72233316703865
 20
221.1577804409162
 42
-0.256839199828224
1001
ASO_SCHRAFF
1005
0
1070
     1
1002
{
1070
     1
1005
0
1002
}
1002
{
1070
     2
1005
0
1002
}
1002
{
1070
     4
1000
SOFIFUELL
1040
1.0
1040
0.0
1070
     0
1000
T__SCHR
1070
   256
1000
_bylayer
1040
50.0
1070
     1
1002
}
  0
LWPOLYLINE
  5
22E2
102
{ACAD_REACTORS
330
2416
102
}
330
1F
100
AcDbEntity
  8
SOLBET_Zbrojenie_Konstrukcja
100
AcDbPolyline
 90
       16
 70
     1
 43
0.0
 10
76.19089803096085
 20
221.1372442105426
 42
0.0869419154568836
 10
76.23761477683387
 20
221.112840320738
 42
0.04426695874853
 10
76.29422300248347
 20
221.1002133000655
 42
0.0327594189474477
 10
76.37235890525563
 20
221.0950884266078
 42
0.0327594189473721
 10
76.45049480803959
 20
221.1002133000655
 42
0.0442669587487512
 10
76.50710303368919
 20
221.112840320738
 42
0.0869419154555393
 10
76.55381977956221
 20
221.1372442105426
 42
0.233077666948955
 10
76.56291587912642
 20
221.1556971843025
 42
0.2330776669476068
 10
76.55381977956221
 20
221.1741501580631
 42
0.0869419154571649
 10
76.50710303368919
 20
221.1985540478685
 42
0.0442669587478621
 10
76.45049480803959
 20
221.2111810685403
 42
0.032759418947709
 10
76.37235890525563
 20
221.2163059419972
 42
0.0327594189469762
 10
76.29422300248347
 20
221.2111810685403
 42
0.0442669587489952
 10
76.23761477683387
 20
221.1985540478685
 42
0.0869419154555225
 10
76.19089803096085
 20
221.1741501580631
 42
0.2095631734287794
 10
76.18189538920933
 20
221.1577804409162
 42
0.256839199828224
1001
ASO_SCHRAFF
1005
0
1070
     1
1002
{
1070
     1
1005
0
1002
}
1002
{
1070
     2
1005
0
1002
}
1002
{
1070
     4
1000
SOFIFUELL
1040
1.0
1040
0.0
1070
     0
1000
T__SCHR
1070
   256
1000
_bylayer
1040
50.0
1070
     1
1002
}
  0
LINE
  5
22EE
330
1F
100
AcDbEntity
  8
SOLBET_Stolarka_Okna
100
AcDbLine
 10
118.3622601539578
 20
37.22584082637894
 30
0.0
 11
118.3622601539578
 21
46.44850219020935
 31
0.0
  0
LINE
  5
22EF
330
1F
100
AcDbEntity
  8
SOLBET_Stolarka_Okna
100
AcDbLine
 10
118.3622601539578
 20
46.44850219020935
 30
0.0
 11
140.2591102066433
 21
46.44850219020935
 31
0.0
  0
LINE
  5
22F1
330
1F
100
AcDbEntity
  8
SOLBET_Stolarka_Okna
100
AcDbLine
 10
120.5292268960486
 20
37.22584082637894
 30
0.0
 11
118.3622601539578
 21
37.22584082637894
 31
0.0
  0
LINE
  5
22F2
330
1F
100
AcDbEntity
  8
SOLBET_Tynki_Posadzki
  6
VERDECKT
100
AcDbLine
 10
120.5292268960486
 20
43.97584082637894
 30
0.0
 11
140.2591102066433
 21
43.97584082637894
 31
0.0
  0
LWPOLYLINE
  5
2304
330
1F
100
AcDbEntity
  8
SOLBET_Ramka_05
100
AcDbPolyline
 90
        4
 70
     1
 43
0.0
 10
0.1481678221225593
 20
0.0045843716322906
 10
334.4999419142125
 20
0.0045843716322906
 10
334.4999419142125
 20
297.0045843716323
 10
0.1481678221225593
 20
297.0045843716323
  0
MTEXT
  5
2305
102
{ACAD_XDICTIONARY
360
2306
102
}
330
1F
100
AcDbEntity
  8
SOLBET_Wymiary_Opisy @ 1
100
AcDbMText
 10
14.18182084599243
 20
289.9012954624102
 30
0.0
 40
5.0
 41
124.2624847080697
 71
     1
 72
     5
  1
{\LDETAL 10\P}Sposoby zamocowania stolarki w \U+015Bcianie jednowarstwowej
  7
Solbet_5
 73
     1
 44
1.0
1001
AcadAnnotative
1000
AnnotativeData
1002
{
1070
     1
1070
     0
1002
}
1001
ACAD
1000
MTEXTBEGIN
1070
    73
1070
     1
1070
    44
1040
1.0
1070
    74
1070
     0
1000
MTEXTEND
  0
LINE
  5
2342
330
1F
100
AcDbEntity
  8
SOLBET_Bloczki
100
AcDbLine
 10
69.35242697779585
 20
250.6745579131761
 30
0.0
 11
90.35242697779585
 21
250.6745579131761
 31
0.0
  0
LINE
  5
234E
330
1F
100
AcDbEntity
  8
SOLBET_Bloczki
100
AcDbLine
 10
69.35242683704655
 20
72.20271136349674
 30
0.0
 11
90.35242683703495
 21
72.20271136349674
 31
0.0
  0
LWPOLYLINE
  5
2395
330
1F
100
AcDbEntity
  8
SOLBET_Bloczki
100
AcDbPolyline
 90
        4
 70
     1
 43
0.0
 10
69.35242697779585
 20
250.6745579131761
 10
90.35242697779585
 20
250.6745579131761
 10
90.35242697779585
 20
244.9589067207902
 10
69.35242697779585
 20
244.9589067207902
  0
LINE
  5
2399
330
1F
100
AcDbEntity
  8
SOLBET_Bloczki
100
AcDbLine
 10
69.35242683704655
 20
103.9589063124926
 30
0.0
 11
90.35242697779585
 21
103.9589063124926
 31
0.0
  0
LWPOLYLINE
  5
239C
330
1F
100
AcDbEntity
  8
SOLBET_Bloczki
100
AcDbPolyline
 90
        4
 70
     1
 43
0.0
 10
90.35242697779585
 20
103.9589065166419
 10
90.35242683703495
 20
110.9589063124932
 10
69.35242683704655
 20
110.9589063124932
 10
69.35242697779585
 20
103.9589065166419
  0
LWPOLYLINE
  5
239E
330
1F
100
AcDbEntity
  8
SOLBET_Bloczki
100
AcDbPolyline
 90
        5
 70
     0
 43
0.0
 10
90.35242697779585
 20
72.20271136349674
 10
90.35242697779585
 20
79.95890651664251
 10
69.35242697779585
 20
79.95890651664251
 10
69.35242697779585
 20
72.20271136349674
 10
90.35242683703495
 20
72.20271136349674
  0
HATCH
  5
2404
330
1F
100
AcDbEntity
  8
SOLBET_Tynki_Posadzki
100
AcDbHatch
 10
0.0
 20
0.0
 30
0.0
210
0.0
220
0.0
230
1.0
  2
AR-CONC
 70
     0
 71
     1
 91
        1
 92
        1
 93
        5
 72
     2
 10
91.71724288671425
 20
223.9047456260429
 40
0.2499999999951825
 50
179.9999999948866
 51
196.8657343010288
 73
     1
 72
     1
 10
91.47799606992567
 20
223.8322131460487
 11
150.8513483129552
 21
223.8322131460487
 72
     1
 10
150.8513483129552
 20
223.8322131460487
 11
150.8513483129552
 21
226.3322131460487
 72
     1
 10
150.8513483129552
 20
226.3322131460487
 11
91.46724288671908
 21
226.3322131460487
 72
     1
 10
91.46724288671908
 20
226.3322131460487
 11
91.46724288671908
 21
223.9047456260652
 97
        1
330
228D
 75
     0
 76
     1
 52
0.0
 41
0.05
 77
     0
 78
    13
 53
50.0
 43
957.2486475326174
 44
5.283646833070633
 45
9.1092334498002
 46
-0.7969542769451543
 79
     2
 49
0.9525000000000002
 49
-10.4775
 53
355.0
 43
957.2486475326174
 44
5.283646833070633
 45
-1.762141298783349
 46
9.552832144108998
 79
     2
 49
0.762
 49
-8.381999999999999
 53
100.451
 43
958.0077475326175
 44
5.217234333070633
 45
7.347125083297962
 46
8.755834391014593
 79
     2
 49
0.8095
 49
-8.9045
 53
46.1842
 43
957.2486475326174
 44
7.823646833070633
 45
13.5539520446065
 46
-2.102116396636357
 79
     2
 49
1.428749999999999
 49
-15.71625
 53
96.63559999999998
 43
958.3781425326176
 44
7.648471833070633
 45
11.87021172331186
 46
12.37127779450246
 79
     2
 49
1.214249999999999
 49
-13.35674999999999
 53
351.184
 43
957.2486475326174
 44
7.823646833070633
 45
11.87023029069669
 46
12.37125589302988
 79
     2
 49
1.143
 49
-12.573
 53
21.0
 43
958.5186475326175
 44
7.188646833070634
 45
7.580743991769164
 46
-5.113275925838125
 79
     2
 49
0.9525000000000002
 49
-10.4775
 53
326.0
 43
958.5186475326175
 44
7.188646833070634
 45
3.090101417382353
 46
9.209398306115962
 79
     2
 49
0.762
 49
-8.381999999999999
 53
71.45140000000001
 43
959.1503725326175
 44
6.762541833070633
 45
10.67082453850622
 46
4.096142885802872
 79
     2
 49
0.8095
 49
-8.9045
 53
37.5
 43
957.2486475326174
 44
5.283646833070633
 45
0.1544301625295909
 46
4.227751943657655
 79
     6
 49
0.0
 49
-8.2804
 49
0.0
 49
-8.509
 49
0.0
 49
-8.41375
 53
7.499999999999999
 43
957.2486475326174
 44
5.283646833070633
 45
3.340983125515287
 46
5.009028740905975
 79
     6
 49
0.0
 49
-4.851399999999999
 49
0.0
 49
-8.0899
 49
0.0
 49
-3.20675
 53
327.5
 43
954.4165475326176
 44
5.283646833070633
 45
6.779529758343568
 46
-0.2864371996336732
 79
     6
 49
0.0
 49
-3.175
 49
0.0
 49
-9.906
 49
0.0
 49
-13.1445
 53
317.5
 43
953.1465475326175
 44
5.283646833070633
 45
7.406459069300902
 46
1.27132455166665
 79
     6
 49
0.0
 49
-4.1275
 49
0.0
 49
-6.5786
 49
0.0
 49
-9.3345
 98
        1
 10
957.2486475326174
 20
5.283646833070633
1001
ACAD
1010
0.0
1020
0.0
1030
0.0
  0
HATCH
  5
2416
102
{ACAD_XDICTIONARY
360
2AA2
102
}
330
1F
100
AcDbEntity
  8
SOLBET_Zbrojenie_Konstrukcja
 62
     7
100
AcDbHatch
 10
0.0
 20
0.0
 30
0.0
210
0.0
220
0.0
230
1.0
  2
SOLID
 70
     1
 71
     1
 91
        2
 92
        1
 93
       16
 72
     2
 10
76.28389894396597
 20
221.2583600634335
 40
0.1527030439816777
 50
232.4805170833995
 51
252.356157600394
 73
     1
 72
     2
 10
76.33709091942008
 20
221.4255983020193
 40
0.3281966754843501
 50
252.3561576050064
 51
262.4947782705628
 73
     1
 72
     2
 10
76.37235890526262
 20
221.6932967220587
 40
0.5982082954508887
 50
262.4947782682351
 51
269.9999999993303
 73
     1
 72
     2
 10
76.37235890525445
 20
221.6932967221502
 40
0.5982082955424062
 50
270.0000000001116
 51
277.5052217311893
 73
     1
 72
     2
 10
76.40762689110335
 20
221.4255983020177
 40
0.3281966754827251
 50
277.505221729412
 51
287.6438423950188
 73
     1
 72
     2
 10
76.46081886655601
 20
221.2583600634356
 40
0.1527030439839883
 50
287.6438423997612
 51
307.519482916452
 73
     1
 72
     2
 10
76.53965034289467
 20
221.155697184305
 40
0.0232655362317438
 50
307.5194829071214
 51
359.9999999937705
 73
     1
 72
     2
 10
76.53965034289374
 20
221.1556971843003
 40
0.0232655362326852
 50
0.0000000053895249
 51
52.48051709172868
 73
     1
 72
     2
 10
76.46081886655506
 20
221.0530343051731
 40
0.1527030439822477
 50
52.4805170825957
 51
72.35615759965586
 73
     1
 72
     2
 10
76.40762689110641
 20
220.885796066582
 40
0.3281966754882999
 50
72.35615760585045
 51
82.49477827125419
 73
     1
 72
     2
 10
76.37235890526092
 20
220.6180976464613
 40
0.5982082955358693
 50
82.49477826935281
 51
90.0000000005077
 73
     1
 72
     2
 10
76.37235890525712
 20
220.6180976465381
 40
0.5982082954591022
 50
90.0000000001429
 51
97.50522173112987
 73
     1
 72
     2
 10
76.33709091941483
 20
220.8857960665902
 40
0.3281966754799451
 50
97.50522172861519
 51
107.6438423942776
 73
     1
 72
     2
 10
76.28389894396935
 20
221.0530343051706
 40
0.152703043985088
 50
107.6438424005308
 51
127.5194829172173
 73
     1
 72
     2
 10
76.20506746762636
 20
221.1556971842947
 40
0.0232655362353078
 50
127.5194828940722
 51
174.8627062005563
 73
     1
 72
     2
 10
76.20506746762649
 20
221.1556971843094
 40
0.0232655362341056
 50
174.8627062367654
 51
232.4805171032482
 73
     1
 97
        1
330
22E2
 92
        1
 93
       16
 72
     2
 10
86.62032961229384
 20
221.2583600634335
 40
0.1527030439816777
 50
52.48051708339951
 51
72.356157600394
 73
     0
 72
     2
 10
86.56713763684551
 20
221.425598301954
 40
0.328196675420325
 50
72.35615760251341
 51
82.49477826806929
 73
     0
 72
     2
 10
86.53186965100298
 20
221.6932967221471
 40
0.5982082955393084
 50
82.49477826879077
 51
89.99999999988565
 73
     0
 72
     2
 10
86.53186965101113
 20
221.6932967220618
 40
0.5982082954540147
 50
90.00000000066695
 51
97.50522173174458
 73
     0
 72
     2
 10
86.49660166516804
 20
221.4255983020177
 40
0.3281966754827251
 50
97.50522172941202
 51
107.6438423950188
 73
     0
 72
     2
 10
86.44340968970958
 20
221.2583600634687
 40
0.1527030440137846
 50
107.6438423939225
 51
127.5194829106111
 73
     0
 72
     2
 10
86.36457821337092
 20
221.1556971842933
 40
0.0232655362259424
 50
127.5194829360947
 51
180.000000022748
 73
     0
 72
     2
 10
86.36457821337186
 20
221.155697184312
 40
0.0232655362268872
 50
179.999999976482
 51
232.480517062798
 73
     0
 72
     2
 10
86.44340968971054
 20
221.05303430514
 40
0.1527030440120185
 50
232.4805170884302
 51
252.3561576054914
 73
     0
 72
     2
 10
86.49660166516499
 20
220.885796066582
 40
0.3281966754882999
 50
252.3561576058504
 51
262.4947782712542
 73
     0
 72
     2
 10
86.53186965100466
 20
220.6180976465497
 40
0.5982082954474777
 50
262.4947782687976
 51
269.9999999999524
 73
     0
 72
     2
 10
86.53186965100848
 20
220.6180976464497
 40
0.5982082955474937
 50
269.9999999995876
 51
277.5052217305746
 73
     0
 72
     2
 10
86.56713763685075
 20
220.8857960666556
 40
0.3281966754158925
 50
277.5052217311093
 51
287.6438423967721
 73
     0
 72
     2
 10
86.62032961229044
 20
221.0530343051706
 40
0.152703043985088
 50
287.6438424005309
 51
307.5194829172173
 73
     0
 72
     2
 10
86.69916108862752
 20
221.1556971843082
 40
0.0232655362282005
 50
307.5194829258679
 51
354.8627062323662
 73
     0
 72
     2
 10
86.69916108862739
 20
221.1556971842987
 40
0.0232655362291796
 50
354.8627062091104
 51
412.4805170755874
 73
     0
 97
        1
330
22E0
 75
     0
 76
     1
 98
        1
 10
957.2486475326174
 20
5.283646833070633
1001
ACAD
1010
0.0
1020
0.0
1030
0.0
  0
LINE
  5
2417
330
1F
100
AcDbEntity
  8
SOLBET_Izolacja
100
AcDbLine
 10
90.35242697779585
 20
220.9589065166416
 30
0.0
 11
150.851348325109
 21
220.9589063124933
 31
0.0
  0
LINE
  5
2418
330
1F
100
AcDbEntity
  8
SOLBET_Izolacja
100
AcDbLine
 10
150.851348325109
 20
220.9589063124933
 30
0.0
 11
150.851348325109
 21
223.4589063124933
 31
0.0
  0
LINE
  5
2419
330
1F
100
AcDbEntity
  8
SOLBET_Izolacja
100
AcDbLine
 10
150.851348325109
 20
223.4589063124933
 30
0.0
 11
150.851348325109
 21
222.2089063124933
 31
0.0
  0
LINE
  5
241A
330
1F
100
AcDbEntity
  8
SOLBET_Izolacja
  6
BATTING
 48
0.12
100
AcDbLine
 10
150.851348325109
 20
222.2089063124933
 30
0.0
 11
91.35242683703495
 21
222.2089063124933
 31
0.0
  0
LINE
  5
241B
330
1F
100
AcDbEntity
  8
SOLBET_Izolacja
  6
BATTING
 48
0.049
100
AcDbLine
 10
90.85242683703496
 20
226.3322131460487
 30
0.0
 11
90.85242681890326
 21
220.9589065149544
 31
0.0
  0
LINE
  5
241C
330
1F
100
AcDbEntity
  8
SOLBET_Izolacja
100
AcDbLine
 10
90.35242697779585
 20
226.3322131460487
 30
0.0
 11
90.35242697779585
 21
220.9589065166416
 31
0.0
  0
LINE
  5
241D
330
1F
100
AcDbEntity
  8
SOLBET_Izolacja
100
AcDbLine
 10
75.35242683703495
 20
220.9589065166416
 30
0.0
 11
75.35242683704439
 21
208.9589063124931
 31
0.0
  0
LINE
  5
241E
330
1F
100
AcDbEntity
  8
SOLBET_Izolacja
100
AcDbLine
 10
75.35242683704439
 20
208.9589063124931
 30
0.0
 11
72.35242683704655
 21
208.9589066083795
 31
0.0
  0
LINE
  5
241F
330
1F
100
AcDbEntity
  8
SOLBET_Izolacja
100
AcDbLine
 10
72.35242683704655
 20
208.9589066083795
 30
0.0
 11
72.35242675513973
 21
220.9589063124933
 31
0.0
  0
LINE
  5
2420
330
1F
100
AcDbEntity
  8
SOLBET_Izolacja
100
AcDbLine
 10
72.35242675513973
 20
220.9589063124933
 30
0.0
 11
75.35242683704439
 21
220.9589063124928
 31
0.0
  0
LINE
  5
2422
330
1F
100
AcDbEntity
  8
SOLBET_Izolacja
  6
BATTING
 48
0.14
100
AcDbLine
 10
73.852426796092
 20
220.958906312493
 30
0.0
 11
73.852426796092
 21
208.9589065166419
 31
0.0
  0
LINE
  5
2433
330
1F
100
AcDbEntity
  8
SOLBET_Zbrojenie_Konstrukcja
100
AcDbLine
 10
147.8524268370465
 20
217.458906312494
 30
0.0
 11
150.8513483129518
 21
211.8359285451717
 31
0.0
  0
LINE
  5
2434
330
1F
100
AcDbEntity
  8
SOLBET_Zbrojenie_Konstrukcja
100
AcDbLine
 10
144.3857601703797
 20
210.9589063124939
 30
0.0
 11
147.8524268370465
 21
217.458906312494
 31
0.0
  0
LINE
  5
2436
330
1F
100
AcDbEntity
  8
SOLBET_Zbrojenie_Konstrukcja
100
AcDbLine
 10
120.3857601703797
 20
210.9589063124939
 30
0.0
 11
123.8524268370465
 21
217.458906312494
 31
0.0
  0
LINE
  5
2437
330
1F
100
AcDbEntity
  8
SOLBET_Zbrojenie_Konstrukcja
100
AcDbLine
 10
128.3857601703797
 20
210.9589063124939
 30
0.0
 11
131.8524268370463
 21
217.458906312494
 31
0.0
  0
LINE
  5
2438
330
1F
100
AcDbEntity
  8
SOLBET_Zbrojenie_Konstrukcja
100
AcDbLine
 10
136.3857601703797
 20
210.9589063124939
 30
0.0
 11
139.8524268370464
 21
217.458906312494
 31
0.0
  0
LINE
  5
2439
330
1F
100
AcDbEntity
  8
SOLBET_Zbrojenie_Konstrukcja
100
AcDbLine
 10
112.3857601703797
 20
210.9589063124939
 30
0.0
 11
115.8524268370465
 21
217.458906312494
 31
0.0
  0
LINE
  5
243A
330
1F
100
AcDbEntity
  8
SOLBET_Zbrojenie_Konstrukcja
100
AcDbLine
 10
104.3857601703797
 20
210.9589063124939
 30
0.0
 11
107.8524268370465
 21
217.458906312494
 31
0.0
  0
LINE
  5
243B
330
1F
100
AcDbEntity
  8
SOLBET_Zbrojenie_Konstrukcja
100
AcDbLine
 10
96.38576017037975
 20
210.9589063124939
 30
0.0
 11
99.85242683704655
 21
217.458906312494
 31
0.0
  0
LINE
  5
243C
330
1F
100
AcDbEntity
  8
SOLBET_Zbrojenie_Konstrukcja
100
AcDbLine
 10
88.38576017037985
 20
210.9589063124939
 30
0.0
 11
91.85242683704656
 21
217.458906312494
 31
0.0
  0
LINE
  5
243D
330
1F
100
AcDbEntity
  8
SOLBET_Zbrojenie_Konstrukcja
100
AcDbLine
 10
91.85242683704656
 20
217.458906312494
 30
0.0
 11
95.31909350371313
 21
210.9589063124939
 31
0.0
  0
LINE
  5
243E
330
1F
100
AcDbEntity
  8
SOLBET_Zbrojenie_Konstrukcja
100
AcDbLine
 10
99.85242683704655
 20
217.458906312494
 30
0.0
 11
103.3190935037131
 21
210.9589063124939
 31
0.0
  0
LINE
  5
243F
330
1F
100
AcDbEntity
  8
SOLBET_Zbrojenie_Konstrukcja
100
AcDbLine
 10
107.8524268370465
 20
217.458906312494
 30
0.0
 11
111.3190935037133
 21
210.9589063124939
 31
0.0
  0
LINE
  5
2440
330
1F
100
AcDbEntity
  8
SOLBET_Zbrojenie_Konstrukcja
100
AcDbLine
 10
115.8524268370465
 20
217.458906312494
 30
0.0
 11
119.3190935037133
 21
210.9589063124939
 31
0.0
  0
LINE
  5
2441
330
1F
100
AcDbEntity
  8
SOLBET_Zbrojenie_Konstrukcja
  6
Continuous
100
AcDbLine
 10
150.8513483129518
 20
217.4589063124942
 30
0.0
 11
86.35242683704655
 21
217.4589063124939
 31
0.0
  0
LINE
  5
2442
330
1F
100
AcDbEntity
  8
SOLBET_Zbrojenie_Konstrukcja
100
AcDbLine
 10
139.8524268370464
 20
217.458906312494
 30
0.0
 11
143.3190935037132
 21
210.9589063124939
 31
0.0
  0
LINE
  5
2443
330
1F
100
AcDbEntity
  8
SOLBET_Zbrojenie_Konstrukcja
100
AcDbLine
 10
131.8524268370463
 20
217.458906312494
 30
0.0
 11
135.3190935037132
 21
210.9589063124939
 31
0.0
  0
LINE
  5
2444
330
1F
100
AcDbEntity
  8
SOLBET_Zbrojenie_Konstrukcja
100
AcDbLine
 10
123.8524268370465
 20
217.458906312494
 30
0.0
 11
127.3190935037132
 21
210.9589063124939
 31
0.0
  0
INSERT
  5
2448
330
1F
100
AcDbEntity
  8
SOLBET_Beton
100
AcDbBlockReference
  2
*X4
 10
-483.3484890439101
 20
-247.0624347419331
 30
0.0
 41
50.0
 42
50.0
 43
50.0
1001
ASO_SCHRAFF
1005
0
1070
     0
1005
0
1001
ACAD
1000
HATCH
1002
{
1070
    16
1000
NET
1040
0.25
1040
0.7853981633974483
1002
}
  0
LINE
  5
2449
330
1F
100
AcDbEntity
  8
SOLBET_Beton
100
AcDbLine
 10
89.08809905031171
 20
219.4589063124932
 30
0.0
 11
150.8533414804719
 21
219.4589063124933
 31
0.0
  0
LINE
  5
244A
330
1F
100
AcDbEntity
  8
SOLBET_Beton
100
AcDbLine
 10
150.8533414804719
 20
219.4589063124933
 30
0.0
 11
150.8513483129518
 21
210.9589063272053
 31
0.0
  0
LINE
  5
244B
330
1F
100
AcDbEntity
  8
SOLBET_Beton
100
AcDbLine
 10
150.8513483129518
 20
210.9589063272053
 30
0.0
 11
89.08809905031171
 21
210.9589063124933
 31
0.0
  0
LINE
  5
244C
330
1F
100
AcDbEntity
  8
SOLBET_Beton
100
AcDbLine
 10
89.08809905031171
 20
210.9589063124933
 30
0.0
 11
89.08809905031171
 21
219.4589063124932
 31
0.0
  0
LINE
  5
244D
330
1F
100
AcDbEntity
  8
SOLBET_Beton
100
AcDbLine
 10
101.0880990503117
 20
219.4589063124932
 30
0.0
 11
101.0880990503117
 21
210.9589063272053
 31
0.0
  0
LINE
  5
244E
330
1F
100
AcDbEntity
  8
SOLBET_Beton
100
AcDbLine
 10
113.0880990503117
 20
219.4589063124932
 30
0.0
 11
113.0880990503117
 21
210.9589063272053
 31
0.0
  0
LINE
  5
244F
330
1F
100
AcDbEntity
  8
SOLBET_Beton
100
AcDbLine
 10
125.0880990503117
 20
219.4589063124932
 30
0.0
 11
125.0880990503117
 21
210.9589063272053
 31
0.0
  0
LINE
  5
2450
330
1F
100
AcDbEntity
  8
SOLBET_Beton
100
AcDbLine
 10
137.0880990503117
 20
219.4589063124932
 30
0.0
 11
137.0880990523363
 21
210.9589063239269
 31
0.0
  0
LINE
  5
2452
330
1F
100
AcDbEntity
  8
SOLBET_Beton
100
AcDbLine
 10
149.0880990503117
 20
219.4589063124932
 30
0.0
 11
149.0880990523363
 21
210.9589063267853
 31
0.0
  0
LINE
  5
2453
330
1F
100
AcDbEntity
  8
SOLBET_Beton
100
AcDbLine
 10
150.8533414804719
 20
214.458906312494
 30
0.0
 11
89.08809905031171
 21
214.458906312494
 31
0.0
  0
LINE
  5
2454
330
1F
100
AcDbEntity
  8
SOLBET_Beton
100
AcDbLine
 10
86.35242683704655
 20
208.9589065166419
 30
0.0
 11
86.35242683704655
 21
210.9589063272053
 31
0.0
  0
LINE
  5
2455
330
1F
100
AcDbEntity
  8
SOLBET_Beton
100
AcDbLine
 10
86.35242683704655
 20
210.9589063272053
 30
0.0
 11
89.08809905031171
 21
210.9589063272053
 31
0.0
  0
LINE
  5
2456
330
1F
100
AcDbEntity
  8
SOLBET_Beton
100
AcDbLine
 10
86.35242683704655
 20
208.9589063124934
 30
0.0
 11
150.8513483129518
 21
208.9589063124934
 31
0.0
  0
LINE
  5
2457
330
1F
100
AcDbEntity
  8
SOLBET_Beton
100
AcDbLine
 10
150.8513483129518
 20
208.9589063124934
 30
0.0
 11
150.8513483129484
 21
210.9589063124939
 31
0.0
  0
LEADER
  5
2458
330
1F
100
AcDbEntity
  8
SOLBET_Wymiary_Opisy
100
AcDbLeader
  3
Solbet$7
 73
     0
 74
     0
 75
     1
 40
3.25
 41
27.75
 76
     3
 10
82.55056664871313
 20
215.8881473647111
 30
0.0
 10
102.26936095531
 20
235.688790871646
 30
0.0
 10
104.76936095531
 20
235.688790871646
 30
0.0
340
2459
213
1.177601578005123
223
-0.1753245211093599
233
0.0
1001
ACAD
1000
DSTYLE
1002
{
1070
   147
1040
0.625
1070
    77
1070
     1
1002
}
  0
MTEXT
  5
2459
102
{ACAD_XDICTIONARY
360
2AA4
102
}
102
{ACAD_REACTORS
330
2458
102
}
330
1F
100
AcDbEntity
  8
SOLBET_Wymiary_Opisy
100
AcDbMText
 10
104.2167593773049
 20
239.7391153927554
 30
0.0
 40
2.5
 41
0.0
 71
     1
 72
     1
  1
Wieniec \U+017Celbetowy
  7
Solbet_2_5
 73
     1
 44
1.0
1001
ACAD
1000
MTEXTBEGIN
1070
    73
1070
     1
1070
    44
1040
1.0
1070
    74
1070
     0
1000
MTEXTEND
  0
MTEXT
  5
245B
330
1F
100
AcDbEntity
  8
SOLBET_Wymiary_Opisy
100
AcDbMText
 10
34.46255812497702
 20
239.4675453464805
 30
0.0
 40
2.5
 41
0.0
 71
     1
 72
     1
  1
Zbrojenie MURFOR
  7
Solbet_2_5
 73
     1
 44
1.0
1001
ACAD
1000
MTEXTBEGIN
1070
    73
1070
     1
1070
    44
1040
1.0
1070
    74
1070
     0
1000
MTEXTEND
  0
LEADER
  5
245C
330
1F
100
AcDbEntity
  8
SOLBET_Wymiary_Opisy
100
AcDbLeader
  3
Solbet$7
 73
     0
 75
     1
 40
3.25
 41
31.0
 76
     3
 10
73.852426796092
 20
219.0141770677126
 30
0.0
 10
62.64533343400376
 20
227.6446424876279
 30
0.0
 10
60.14533343400376
 20
227.6446424876279
 30
0.0
340
245D
213
1.177601578005123
223
-0.1753245211093599
233
0.0
1001
ACAD
1000
DSTYLE
1002
{
1070
   147
1040
0.625
1070
    77
1070
     1
1002
}
  0
MTEXT
  5
245D
102
{ACAD_REACTORS
330
245C
102
}
330
1F
100
AcDbEntity
  8
SOLBET_Wymiary_Opisy
100
AcDbMText
 10
27.34273185599864
 20
231.6949670087372
 30
0.0
 40
2.5
 41
0.0
 71
     1
 72
     1
  1
Warstwa docieplenia
  7
Solbet_2_5
 73
     1
 44
1.0
1001
ACAD
1000
MTEXTBEGIN
1070
    73
1070
     1
1070
    44
1040
1.0
1070
    74
1070
     0
1000
MTEXTEND
  0
LEADER
  5
245E
330
1F
100
AcDbEntity
  8
SOLBET_Wymiary_Opisy
100
AcDbLeader
  3
Solbet$7
 73
     0
 75
     1
 40
3.25
 41
23.25
 76
     3
 10
70.38622596836876
 20
214.0984848917518
 30
0.0
 10
61.47042705036369
 20
220.1318968492703
 30
0.0
 10
58.97042705036369
 20
220.1318968492703
 30
0.0
340
245F
213
1.177601578005123
223
-0.1753245211093599
233
0.0
1001
ACAD
1000
DSTYLE
1002
{
1070
   147
1040
0.625
1070
    77
1070
     1
1002
}
  0
MTEXT
  5
245F
102
{ACAD_XDICTIONARY
360
2AA6
102
}
102
{ACAD_REACTORS
330
245E
102
}
330
1F
100
AcDbEntity
  8
SOLBET_Wymiary_Opisy
100
AcDbMText
 10
33.91782547235858
 20
224.1822213703797
 30
0.0
 40
2.5
 41
0.0
 71
     1
 72
     1
  1
P\U+0142ytka SOLBET
  7
Solbet_2_5
 73
     1
 44
1.0
1001
ACAD
1000
MTEXTBEGIN
1070
    73
1070
     1
1070
    44
1040
1.0
1070
    74
1070
     0
1000
MTEXTEND
  0
LEADER
  5
2460
330
1F
100
AcDbEntity
  8
SOLBET_Wymiary_Opisy
100
AcDbLeader
  3
Solbet$7
 73
     0
 75
     1
 40
3.25
 41
27.0
 76
     3
 10
70.97552398828861
 20
190.4849229253088
 30
0.0
 10
62.90002608733084
 20
196.5183348828274
 30
0.0
 10
60.40002608733084
 20
196.5183348828274
 30
0.0
340
2461
213
1.177601578005123
223
-0.1753245211093599
233
0.0
1001
ACAD
1000
DSTYLE
1002
{
1070
   147
1040
0.625
1070
    77
1070
     1
1002
}
  0
MTEXT
  5
2461
102
{ACAD_XDICTIONARY
360
2AA8
102
}
102
{ACAD_REACTORS
330
2460
102
}
330
1F
100
AcDbEntity
  8
SOLBET_Wymiary_Opisy
100
AcDbMText
 10
31.59742450932572
 20
200.5686594039367
 30
0.0
 40
2.5
 41
0.0
 71
     1
 72
     1
  1
Nadpro\U+017Ca SOLBET
  7
Solbet_2_5
 73
     1
 44
1.0
1001
ACAD
1000
MTEXTBEGIN
1070
    73
1070
     1
1070
    44
1040
1.0
1070
    74
1070
     0
1000
MTEXTEND
  0
INSERT
  5
2466
330
1F
100
AcDbEntity
  8
SOLBET_Wymiary_Opisy
100
AcDbBlockReference
  2
_DotSmall
 10
81.27515777520184
 20
221.3775737204549
 30
0.0
 41
2.49999999999998
 42
2.5
 43
2.5
 50
292.7887095347386
1001
ACAD
1000
DSTYLE
1002
{
1070
   147
1040
0.625
1070
    77
1070
     1
1002
}
  0
LINE
  5
2467
330
1F
100
AcDbEntity
  8
SOLBET_Wymiary_Opisy
100
AcDbLine
 10
81.45211427813331
 20
221.1556971843085
 30
0.0
 11
62.64533343400376
 21
236.2175453464805
 31
0.0
1001
ACAD
1000
DSTYLE
1002
{
1070
   147
1040
0.625
1070
    77
1070
     1
1002
}
  0
MTEXT
  5
2469
102
{ACAD_XDICTIONARY
360
2AAA
102
}
330
1F
100
AcDbEntity
  8
SOLBET_Wymiary_Opisy
100
AcDbMText
 10
21.70359485041718
 20
172.5824109574694
 30
0.0
 40
2.5
 41
0.0
 71
     1
 72
     1
  1
Profil tynkarski naro\U+017Cny
  7
Solbet_2_5
 73
     1
 44
1.0
1001
ACAD
1000
MTEXTBEGIN
1070
    73
1070
     1
1070
    44
1040
1.0
1070
    74
1070
     0
1000
MTEXTEND
  0
INSERT
  5
246A
330
1F
100
AcDbEntity
  8
SOLBET_Wymiary_Opisy
100
AcDbBlockReference
  2
_DotSmall
 10
69.06910503051427
 20
184.6668294655878
 30
0.0
 41
2.499999999999993
 42
2.5
 43
2.5
 50
82.07934456365514
1001
ACAD
1000
DSTYLE
1002
{
1070
   147
1040
0.625
1070
    77
1070
     1
1002
}
  0
LINE
  5
246C
330
1F
100
AcDbEntity
  8
SOLBET_Wymiary_Opisy
100
AcDbLine
 10
69.06910503051427
 20
184.6668294655878
 30
0.0
 11
62.65624051784948
 21
168.53208643636
 31
0.0
1001
ACAD
1000
DSTYLE
1002
{
1070
   147
1040
0.625
1070
    77
1070
     1
1002
}
  0
LINE
  5
246D
330
1F
100
AcDbEntity
  8
SOLBET_Wymiary_Opisy
100
AcDbLine
 10
62.65624051784948
 20
168.53208643636
 30
0.0
 11
21.78124051784948
 21
168.53208643636
 31
0.0
1001
ACAD
1000
DSTYLE
1002
{
1070
   147
1040
0.625
1070
    77
1070
     1
1002
}
  0
INSERT
  5
246E
330
1F
100
AcDbEntity
  8
SOLBET_Wymiary_Opisy
100
AcDbBlockReference
  2
_DotSmall
 10
90.57401346323263
 20
184.6668294655878
 30
0.0
 41
2.499999999999993
 42
2.5
 43
2.5
 50
82.07934456365514
1001
ACAD
1000
DSTYLE
1002
{
1070
   147
1040
0.625
1070
    77
1070
     1
1002
}
  0
LINE
  5
246F
330
1F
100
AcDbEntity
  8
SOLBET_Wymiary_Opisy
100
AcDbLine
 10
90.57401346323263
 20
184.6668294655878
 30
0.0
 11
62.65624051784948
 21
168.53208643636
 31
0.0
1001
ACAD
1000
DSTYLE
1002
{
1070
   147
1040
0.625
1070
    77
1070
     1
1002
}
  0
MTEXT
  5
2471
102
{ACAD_XDICTIONARY
360
2AAC
102
}
330
1F
100
AcDbEntity
  8
SOLBET_Wymiary_Opisy
100
AcDbMText
 10
73.04451290167048
 20
58.19236514380373
 30
0.0
 40
2.5
 41
0.0
 71
     1
 72
     1
  1
Profil tynkarski naro\U+017Cny
  7
Solbet_2_5
 73
     1
 44
1.0
1001
ACAD
1000
MTEXTBEGIN
1070
    73
1070
     1
1070
    44
1040
1.0
1070
    74
1070
     0
1000
MTEXTEND
  0
LEADER
  5
2472
330
1F
100
AcDbEntity
  8
SOLBET_Wymiary_Opisy
100
AcDbLeader
  3
Solbet$7
 73
     0
 40
2.5
 41
20.0
 76
     2
 10
120.0292268960486
 20
34.37396328287201
 30
0.0
 10
89.4102547011264
 20
27.5698567914601
 30
0.0
340
2473
213
1.177601578005123
223
-0.1753245211093599
233
0.0
1001
ACAD
1000
DSTYLE
1002
{
1070
   147
1040
0.625
1070
    77
1070
     1
1002
}
  0
MTEXT
  5
2473
102
{ACAD_REACTORS
330
2472
102
}
330
1F
100
AcDbEntity
  8
SOLBET_Wymiary_Opisy
100
AcDbMText
 10
67.60765312312128
 20
30.87018131256946
 30
0.0
 40
2.5
 41
0.0
 71
     1
 72
     1
  1
Uszczelnienie
  7
Solbet_2_5
 73
     1
 44
1.0
1001
ACAD
1000
MTEXTBEGIN
1070
    73
1070
     1
1070
    44
1040
1.0
1070
    74
1070
     0
1000
MTEXTEND
  0
INSERT
  5
2484
330
1F
100
AcDbEntity
  8
SOLBET_Wymiary_Opisy
100
AcDbBlockReference
  2
_DotSmall
 10
120.1924937505607
 20
43.5091626329127
 30
0.0
 41
2.499999999999998
 42
2.5
 43
2.5
 50
295.6041971236954
1001
ACAD
1000
DSTYLE
1002
{
1070
   147
1040
0.625
1070
    77
1070
     1
1002
}
  0
LINE
  5
2486
330
1F
100
AcDbEntity
  8
SOLBET_Wymiary_Opisy
100
AcDbLine
 10
120.1924937505607
 20
43.5091626329127
 30
0.0
 11
115.0971144796756
 21
54.14204062269437
 31
0.0
1001
ACAD
1000
DSTYLE
1002
{
1070
   147
1040
0.625
1070
    77
1070
     1
1002
}
  0
LINE
  5
2487
330
1F
100
AcDbEntity
  8
SOLBET_Wymiary_Opisy
100
AcDbLine
 10
115.0971144796756
 20
54.14204062269437
 30
0.0
 11
74.22211447967561
 21
54.14204062269437
 31
0.0
1001
ACAD
1000
DSTYLE
1002
{
1070
   147
1040
0.625
1070
    77
1070
     1
1002
}
  0
INSERT
  5
2488
330
1F
100
AcDbEntity
  8
SOLBET_Wymiary_Opisy
100
AcDbBlockReference
  2
_DotSmall
 10
120.1924937505607
 20
21.93376397947265
 30
0.0
 41
2.499999999999998
 42
2.5
 43
2.5
 50
295.6041971236954
1001
ACAD
1000
DSTYLE
1002
{
1070
   147
1040
0.625
1070
    77
1070
     1
1002
}
  0
LINE
  5
2489
330
1F
100
AcDbEntity
  8
SOLBET_Wymiary_Opisy
100
AcDbLine
 10
120.1924937505607
 20
21.93376397947265
 30
0.0
 11
115.0971144796756
 21
54.14204062269437
 31
0.0
1001
ACAD
1000
DSTYLE
1002
{
1070
   147
1040
0.625
1070
    77
1070
     1
1002
}
  0
INSERT
  5
24AE
330
1F
100
AcDbEntity
  8
SOLBET_Izolacja
  6
Continuous
100
AcDbBlockReference
  2
ASOWDBLK
 10
70.28903884834903
 20
111.0471533338231
 30
0.0
 41
0.708481809784189
 42
0.7495714285714499
 43
0.70848180978415
  0
INSERT
  5
24AF
330
1F
100
AcDbEntity
  8
SOLBET_Izolacja
  6
Continuous
100
AcDbBlockReference
  2
ASOWDBLK
 10
70.64327975324113
 20
111.0471533338231
 30
0.0
 41
0.708481809784189
 42
0.8109999999999999
 43
0.70848180978415
  0
INSERT
  5
24B0
330
1F
100
AcDbEntity
  8
SOLBET_Izolacja
  6
Continuous
100
AcDbBlockReference
  2
ASOWDBLK
 10
70.99752065813323
 20
111.0471533338231
 30
0.0
 41
0.708481809784189
 42
0.87242857142855
 43
0.70848180978415
  0
INSERT
  5
24B1
330
1F
100
AcDbEntity
  8
SOLBET_Izolacja
  6
Continuous
100
AcDbBlockReference
  2
ASOWDBLK
 10
71.35176156302532
 20
111.0471533338231
 30
0.0
 41
0.708481809784189
 42
0.9338571428571498
 43
0.70848180978415
  0
INSERT
  5
24B2
330
1F
100
AcDbEntity
  8
SOLBET_Izolacja
  6
Continuous
100
AcDbBlockReference
  2
ASOWDBLK
 10
71.70600246791742
 20
111.0471533338231
 30
0.0
 41
0.708481809784189
 42
0.9952857142856998
 43
0.70848180978415
  0
INSERT
  5
24B3
330
1F
100
AcDbEntity
  8
SOLBET_Izolacja
  6
Continuous
100
AcDbBlockReference
  2
ASOWDBLK
 10
72.0602433728095
 20
111.0471533338231
 30
0.0
 41
0.708481809784189
 42
1.056714285714299
 43
0.70848180978415
  0
INSERT
  5
24B4
330
1F
100
AcDbEntity
  8
SOLBET_Izolacja
  6
Continuous
100
AcDbBlockReference
  2
ASOWDBLK
 10
72.4144842777016
 20
111.0471533338231
 30
0.0
 41
0.708481809784189
 42
1.118142857142849
 43
0.70848180978415
  0
INSERT
  5
24B5
330
1F
100
AcDbEntity
  8
SOLBET_Izolacja
  6
Continuous
100
AcDbBlockReference
  2
ASOWDBLK
 10
72.7687251825937
 20
111.0471533338231
 30
0.0
 41
0.708481809784189
 42
1.179571428571449
 43
0.70848180978415
  0
INSERT
  5
24B6
330
1F
100
AcDbEntity
  8
SOLBET_Izolacja
  6
Continuous
100
AcDbBlockReference
  2
ASOWDBLK
 10
73.12296608748579
 20
111.0471533338231
 30
0.0
 41
0.708481809784189
 42
1.240999999999999
 43
0.70848180978415
  0
INSERT
  5
24B7
330
1F
100
AcDbEntity
  8
SOLBET_Izolacja
  6
Continuous
100
AcDbBlockReference
  2
ASOWDBLK
 10
73.47720699237789
 20
111.0471533338231
 30
0.0
 41
0.708481809784189
 42
1.302428571428549
 43
0.70848180978415
  0
INSERT
  5
24B8
330
1F
100
AcDbEntity
  8
SOLBET_Izolacja
  6
Continuous
100
AcDbBlockReference
  2
ASOWDBLK
 10
73.83144789726998
 20
111.0471533338231
 30
0.0
 41
0.708481809784189
 42
1.363857142857149
 43
0.70848180978415
  0
INSERT
  5
24B9
330
1F
100
AcDbEntity
  8
SOLBET_Izolacja
  6
Continuous
100
AcDbBlockReference
  2
ASOWDBLK
 10
74.18568880216207
 20
111.0471533338231
 30
0.0
 41
0.708481809784189
 42
1.425285714285699
 43
0.70848180978415
  0
INSERT
  5
24BA
330
1F
100
AcDbEntity
  8
SOLBET_Izolacja
  6
Continuous
100
AcDbBlockReference
  2
ASOWDBLK
 10
74.53992970705417
 20
111.0471533338231
 30
0.0
 41
0.708481809784189
 42
1.486714285714299
 43
0.70848180978415
  0
INSERT
  5
24BB
330
1F
100
AcDbEntity
  8
SOLBET_Izolacja
  6
Continuous
100
AcDbBlockReference
  2
ASOWDBLK
 10
74.89417061194626
 20
111.0471533338231
 30
0.0
 41
0.708481809784189
 42
1.548142857142849
 43
0.70848180978415
  0
MTEXT
  5
24DF
102
{ACAD_XDICTIONARY
360
2AAE
102
}
330
1F
100
AcDbEntity
  8
SOLBET_Wymiary_Opisy
100
AcDbMText
 10
292.5023172535547
 20
241.5226324145119
 30
0.0
 40
2.5
 41
0.0
 71
     1
 72
     1
  1
Warstwa wyko\U+0144czeniowa
  7
Solbet_2_5
 73
     1
 44
1.0
1001
ACAD
1000
MTEXTBEGIN
1070
    73
1070
     1
1070
    44
1040
1.0
1070
    74
1070
     0
1000
MTEXTEND
  0
LEADER
  5
24E0
330
1F
100
AcDbEntity
  8
SOLBET_Wymiary_Opisy
100
AcDbLeader
  3
Solbet$7
 73
     0
 74
     0
 75
     1
 40
3.25
 41
32.5
 76
     3
 10
266.4116037205253
 20
220.3365843563092
 30
0.0
 10
289.3773172535547
 20
230.9811013628118
 30
0.0
 10
291.8773172535547
 20
230.9811013628118
 30
0.0
213
0.0
223
-0.2322806831707567
233
0.0
1001
ACAD
1000
DSTYLE
1002
{
1070
   147
1040
0.625
1070
    77
1070
     1
1002
}
  0
MTEXT
  5
24E1
102
{ACAD_REACTORS
330
24E0
102
}
330
1F
100
AcDbEntity
  8
SOLBET_Wymiary_Opisy
100
AcDbMText
 10
292.5023172535547
 20
235.0883820459826
 30
0.0
 40
2.5
 41
0.0
 71
     1
 72
     1
  1
Wylewka jastrychowa
  7
Solbet_2_5
 73
     1
 44
1.0
1001
ACAD
1000
MTEXTBEGIN
1070
    73
1070
     1
1070
    44
1040
1.0
1070
    74
1070
     0
1000
MTEXTEND
  0
LEADER
  5
24E2
330
1F
100
AcDbEntity
  8
SOLBET_Wymiary_Opisy
100
AcDbLeader
  3
Solbet$7
 73
     0
 74
     0
 75
     1
 40
3.25
 41
19.75
 76
     3
 10
268.4501525542245
 20
213.4429246566194
 30
0.0
 10
289.3773172535547
 20
224.7459442840341
 30
0.0
 10
291.8773172535547
 20
224.7459442840341
 30
0.0
213
0.0
223
-0.2322806831707567
233
0.0
1001
ACAD
1000
DSTYLE
1002
{
1070
   147
1040
0.625
1070
    77
1070
     1
1002
}
  0
MTEXT
  5
24E3
102
{ACAD_REACTORS
330
24E2
102
}
330
1F
100
AcDbEntity
  8
SOLBET_Wymiary_Opisy
100
AcDbMText
 10
292.5023172535547
 20
228.8532249672048
 30
0.0
 40
2.5
 41
0.0
 71
     1
 72
     1
  1
Hydroizolacja
  7
Solbet_2_5
 73
     1
 44
1.0
1001
ACAD
1000
MTEXTBEGIN
1070
    73
1070
     1
1070
    44
1040
1.0
1070
    74
1070
     0
1000
MTEXTEND
  0
LEADER
  5
24E4
330
1F
100
AcDbEntity
  8
SOLBET_Wymiary_Opisy
100
AcDbLeader
  3
Solbet$7
 73
     0
 74
     0
 75
     1
 40
3.25
 41
36.5
 76
     3
 10
272.935623519133
 20
202.6662062950584
 30
0.0
 10
289.3773172535547
 20
214.8120222577993
 30
0.0
 10
291.8773172535547
 20
214.8120222577993
 30
0.0
213
0.0
223
-0.2322806831707567
233
0.0
1001
ACAD
1000
DSTYLE
1002
{
1070
   147
1040
0.625
1070
    77
1070
     1
1002
}
  0
MTEXT
  5
24E5
102
{ACAD_XDICTIONARY
360
2AB0
102
}
102
{ACAD_REACTORS
330
24E4
102
}
330
1F
100
AcDbEntity
  8
SOLBET_Wymiary_Opisy
100
AcDbMText
 10
292.5023172535547
 20
219.1312818482679
 30
0.0
 40
2.5
 41
0.0
 71
     1
 72
     1
  1
P\U+0142yty izolacyjne twarde
  7
Solbet_2_5
 73
     1
 44
1.0
1001
ACAD
1000
MTEXTBEGIN
1070
    73
1070
     1
1070
    44
1040
1.0
1070
    74
1070
     0
1000
MTEXTEND
  0
LINE
  5
24E6
330
1F
100
AcDbEntity
  8
SOLBET_Wymiary_Opisy
100
AcDbLine
 10
278.4718938574332
 20
229.3302622565349
 30
0.0
 11
278.4718938574332
 21
174.365810549776
 31
0.0
  0
LINE
  5
24E7
330
1F
100
AcDbEntity
  8
SOLBET_Izolacja
100
AcDbLine
 10
234.5855479178271
 20
199.9637280887589
 30
0.0
 11
278.4718938574332
 21
199.9637280887589
 31
0.0
  0
LINE
  5
24E8
330
1F
100
AcDbEntity
  8
SOLBET_Izolacja
100
AcDbLine
 10
234.5855479178271
 20
212.4637280887589
 30
0.0
 11
278.4718938574332
 21
212.4637280887589
 31
0.0
  0
LINE
  5
24E9
330
1F
100
AcDbEntity
  8
SOLBET_Tynki_Posadzki
100
AcDbLine
 10
243.2007407798782
 20
229.3302622565349
 30
0.0
 11
278.4718938574332
 21
229.3302622565349
 31
0.0
  0
LINE
  5
24EA
330
1F
100
AcDbEntity
  8
SOLBET_Emulsje_Folie
100
AcDbLine
 10
234.7858094138682
 20
213.4429246566194
 30
0.0
 11
278.4718938574332
 21
213.4429246566194
 31
0.0
  0
HATCH
  5
24EB
330
1F
100
AcDbEntity
  8
SOLBET_Tynki_Posadzki
100
AcDbHatch
 10
0.0
 20
0.0
 30
0.0
210
0.0
220
0.0
230
1.0
  2
AR-CONC
 70
     0
 71
     0
 91
        1
 92
        5
 93
        4
 72
     2
 10
267.6395496737849
 20
206.213728088759
 40
33.63970172404727
 50
142.2031821742316
 51
166.0379938227853
 73
     1
 72
     1
 10
234.9937014662995
 20
214.3302622565359
 11
278.4718938574329
 21
214.3302622565359
 72
     1
 10
278.4718938574332
 20
214.3302622565359
 11
278.4718938574338
 21
226.8302622565347
 72
     1
 10
278.4718938574337
 20
226.8302622565347
 11
241.0578256704064
 21
226.8302622565347
 97
        0
 75
     0
 76
     1
 52
0.0
 41
0.03
 77
     0
 78
    13
 53
50.0
 43
904.5677447941887
 44
129.0817093100213
 45
5.46554006988012
 46
-0.4781725661670926
 79
     2
 49
0.5715
 49
-6.2865
 53
355.0
 43
904.5677447941887
 44
129.0817093100213
 45
-1.057284779270009
 46
5.731699286465398
 79
     2
 49
0.4572
 49
-5.029199999999999
 53
100.451
 43
905.0232047941888
 44
129.0418618100213
 45
4.408275049978777
 46
5.253500634608755
 79
     2
 49
0.4857000000000001
 49
-5.342699999999999
 53
46.1842
 43
904.5677447941887
 44
130.6057093100213
 45
8.132371226763897
 46
-1.261269837981814
 79
     2
 49
0.8572499999999999
 49
-9.429749999999998
 53
96.63559999999998
 43
905.2454417941886
 44
130.5006043100213
 45
7.122127033987114
 46
7.422766676701476
 79
     2
 49
0.7285499999999996
 49
-8.014049999999992
 53
351.184
 43
904.5677447941887
 44
130.6057093100213
 45
7.122138174418017
 46
7.422753535817929
 79
     2
 49
0.6858
 49
-7.5438
 53
21.0
 43
905.3297447941886
 44
130.2247093100213
 45
4.548446395061498
 46
-3.067965555502874
 79
     2
 49
0.5715
 49
-6.2865
 53
326.0
 43
905.3297447941886
 44
130.2247093100213
 45
1.854060850429411
 46
5.525638983669577
 79
     2
 49
0.4572
 49
-5.029199999999999
 53
71.45140000000001
 43
905.7087797941887
 44
129.9690463100213
 45
6.402494723103733
 46
2.457685731481723
 79
     2
 49
0.4857000000000001
 49
-5.342699999999999
 53
37.5
 43
904.5677447941887
 44
129.0817093100213
 45
0.0926580975177545
 46
2.536651166194593
 79
     6
 49
0.0
 49
-4.968239999999999
 49
0.0
 49
-5.1054
 49
0.0
 49
-5.04825
 53
7.499999999999999
 43
904.5677447941887
 44
129.0817093100213
 45
2.004589875309172
 46
3.005417244543585
 79
     6
 49
0.0
 49
-2.910839999999999
 49
0.0
 49
-4.853939999999999
 49
0.0
 49
-1.92405
 53
327.5
 43
902.8684847941887
 44
129.0817093100213
 45
4.067717855006141
 46
-0.1718623197802037
 79
     6
 49
0.0
 49
-1.905
 49
0.0
 49
-5.943599999999999
 49
0.0
 49
-7.886699999999999
 53
317.5
 43
902.1064847941888
 44
129.0817093100213
 45
4.443875441580541
 46
0.7627947309999904
 79
     6
 49
0.0
 49
-2.476499999999999
 49
0.0
 49
-3.947159999999999
 49
0.0
 49
-5.600699999999999
 47
0.0387476598051738
 98
        1
 10
257.9423382179769
 20
220.4278005541497
1001
ACAD
1010
0.0
1020
0.0
1030
0.0
  0
LWPOLYLINE
  5
24EC
330
1F
100
AcDbEntity
  8
SOLBET_Tynki_Posadzki
100
AcDbPolyline
 90
        4
 70
     0
 43
0.0
 10
234.9937014662995
 20
214.3302622565359
 10
278.4718938574332
 20
214.3302622565359
 10
278.4718938574337
 20
226.8302622565349
 10
241.057825670407
 20
226.8302622565349
1001
ASO_SCHRAFF
1005
0
1070
     1
1002
{
1070
     1
1005
0
1002
}
1002
{
1070
     2
1005
0
1002
}
1002
{
1070
     4
1000
AR-CONC
1040
0.01
1040
0.0
1070
     0
1000
T__SCHR
1070
   256
1000
_bylayer
1040
50.0
1070
     1
1002
}
  0
LWPOLYLINE
  5
24ED
330
1F
100
AcDbEntity
  8
SOLBET_Beton
100
AcDbPolyline
 90
        3
 70
     0
 43
0.0
 10
235.4047762763029
 20
196.5934933673068
 10
278.4718938574332
 20
196.5934933673068
 10
278.4718938574332
 20
174.3658105497758
  0
LINE
  5
24EE
330
1F
100
AcDbEntity
  8
SOLBET_Izolacja
  6
BATTING
 48
0.6
100
AcDbLine
 10
233.999847949738
 20
206.2137280887589
 30
0.0
 11
278.4718938574332
 21
206.2137280887589
 31
0.0
  0
ARC
  5
24EF
330
1F
100
AcDbEntity
  8
SOLBET_Wymiary_Opisy
100
AcDbCircle
 10
267.6395496737849
 20
206.2137280887589
 30
0.0
 40
33.6397017240473
100
AcDbArc
 50
136.5926968744823
 51
288.7845676764008
  0
MTEXT
  5
24F0
102
{ACAD_XDICTIONARY
360
2930
102
}
330
1F
100
AcDbEntity
  8
SOLBET_Wymiary_Opisy
100
AcDbMText
 10
243.8685483075655
 20
257.9965765866291
 30
0.0
 40
5.0
 41
30.77919768571883
 71
     1
 72
     5
  1
\pxqc;B\P(5 : 1)
  7
Solbet_5
 73
     1
 44
1.0
1001
ACAD
1000
MTEXTBEGIN
1070
    73
1070
     1
1070
    44
1040
1.0
1070
    74
1070
     0
1000
MTEXTEND
1000
ACAD_MTEXT_DEFINED_HEIGHT_BEGIN
1070
    46
1040
23.42535011036716
1000
ACAD_MTEXT_DEFINED_HEIGHT_END
  0
LINE
  5
24F1
330
1F
100
AcDbEntity
  8
SOLBET_Beton
100
AcDbLine
 10
271.2696654165242
 20
196.5934933673068
 30
0.0
 11
271.2696654165242
 21
172.7704658110266
 31
0.0
  0
LINE
  5
24F2
330
1F
100
AcDbEntity
  8
SOLBET_Zbrojenie_Konstrukcja
100
AcDbLine
 10
278.4718938574332
 20
189.1748228521848
 30
0.0
 11
238.6342873853325
 21
189.1748228521848
 31
0.0
  0
LINE
  5
24F3
330
1F
100
AcDbEntity
  8
SOLBET_Zbrojenie_Konstrukcja
100
AcDbLine
 10
264.8945761446827
 20
189.1748228521848
 30
0.0
 11
274.1817506284012
 21
173.2163169970946
 31
0.0
  0
LINE
  5
24F4
330
1F
100
AcDbEntity
  8
SOLBET_Zbrojenie_Konstrukcja
100
AcDbLine
 10
264.8945761446827
 20
189.1748228521848
 30
0.0
 11
256.5257575534399
 21
174.4629303540778
 31
0.0
  0
CIRCLE
  5
24F5
330
1F
100
AcDbEntity
  8
SOLBET_Wymiary_Opisy
100
AcDbCircle
 10
147.2196505432939
 20
222.3679789033353
 30
0.0
 40
6.72794034480946
  0
LEADER
  5
24F6
330
1F
100
AcDbEntity
  8
SOLBET_Wymiary_Opisy
100
AcDbLeader
  3
Solbet$7
 73
     0
 74
     0
 75
     1
 40
5.0
 41
4.0
 76
     3
 10
150.8412242134109
 20
228.0380217105132
 30
0.0
 10
153.8123744142274
 20
232.0365084495571
 30
0.0
 10
156.3123744142274
 20
232.0365084495571
 30
0.0
213
0.8103787685154202
223
-0.1753245211093599
233
0.0
1001
ACAD
1000
DSTYLE
1002
{
1070
   341
1005
1EF2
1070
   147
1040
0.625
1070
    77
1070
     1
1002
}
  0
MTEXT
  5
24F7
102
{ACAD_REACTORS
330
24F6
102
}
330
1F
100
AcDbEntity
  8
SOLBET_Wymiary_Opisy
100
AcDbMText
 10
160.126995645712
 20
237.8368329706665
 30
0.0
 40
5.0
 41
0.0
 71
     3
 72
     1
  1
B
  7
Solbet_5
 73
     1
 44
1.0
1001
ACAD
1000
MTEXTBEGIN
1070
    73
1070
     1
1070
    44
1040
1.0
1070
    74
1070
     0
1000
MTEXTEND
  0
LEADER
  5
24F8
330
1F
100
AcDbEntity
  8
SOLBET_Wymiary_Opisy
100
AcDbLeader
  3
Solbet$7
 73
     0
 74
     0
 75
     1
 40
3.25
 41
20.25
 76
     3
 10
124.3448684850193
 20
208.3019743752327
 30
0.0
 10
159.8197224295718
 20
172.8482779088407
 30
0.0
 10
162.3197224295718
 20
172.8482779088407
 30
0.0
340
24F9
213
1.177601578005123
223
-0.1753245211093599
233
0.0
1001
ACAD
1000
DSTYLE
1002
{
1070
   147
1040
0.625
1070
    77
1070
     1
1002
}
  0
MTEXT
  5
24F9
102
{ACAD_REACTORS
330
24F8
102
}
330
1F
100
AcDbEntity
  8
SOLBET_Wymiary_Opisy
100
AcDbMText
 10
182.0171208515667
 20
176.8986024299501
 30
0.0
 40
2.5
 41
0.0
 71
     3
 72
     1
  1
Tynk SOLBET
  7
Solbet_2_5
 73
     1
 44
1.0
1001
ACAD
1000
MTEXTBEGIN
1070
    73
1070
     1
1070
    44
1040
1.0
1070
    74
1070
     0
1000
MTEXTEND
  0
LEADER
  5
24FA
330
1F
100
AcDbEntity
  8
SOLBET_Wymiary_Opisy
100
AcDbLeader
  3
Solbet$7
 73
     0
 74
     0
 75
     1
 40
3.25
 41
19.5
 76
     3
 10
135.0190618910512
 20
217.3019743752324
 30
0.0
 10
160.7481583675658
 20
180.5631963817638
 30
0.0
 10
163.2481583675658
 20
180.5631963817638
 30
0.0
340
24FB
213
1.177601578005123
223
-0.1753245211093599
233
0.0
1001
ACAD
1000
DSTYLE
1002
{
1070
   147
1040
0.625
1070
    77
1070
     1
1002
}
  0
MTEXT
  5
24FB
102
{ACAD_REACTORS
330
24FA
102
}
330
1F
100
AcDbEntity
  8
SOLBET_Wymiary_Opisy
100
AcDbMText
 10
182.1955567895606
 20
184.6135209028732
 30
0.0
 40
2.5
 41
0.0
 71
     3
 72
     1
  1
Strop Teriva
  7
Solbet_2_5
 73
     1
 44
1.0
1001
ACAD
1000
MTEXTBEGIN
1070
    73
1070
     1
1070
    44
1040
1.0
1070
    74
1070
     0
1000
MTEXTEND
  0
LEADER
  5
24FC
330
1F
100
AcDbEntity
  8
SOLBET_Wymiary_Opisy
100
AcDbLeader
  3
Solbet$7
 73
     0
 74
     0
 75
     1
 40
3.25
 41
32.5
 76
     3
 10
266.4116037205253
 20
229.3302622565349
 30
0.0
 10
289.9550762659347
 20
237.2314220634966
 30
0.0
 10
292.4550762659347
 20
237.2314220634966
 30
0.0
213
0.0
223
-0.2322806831707567
233
0.0
1001
ACAD
1000
DSTYLE
1002
{
1070
   147
1040
0.625
1070
    77
1070
     1
1002
}
  0
CIRCLE
  5
2507
330
1F
100
AcDbEntity
  8
SOLBET_Wymiary_Opisy
100
AcDbCircle
 10
79.83203356758554
 20
98.04931647421154
 30
0.0
 40
11.52234996777952
  0
LINE
  5
2508
330
1F
100
AcDbEntity
  8
SOLBET_Wymiary_Opisy
100
AcDbLine
 10
68.35747204958195
 20
99.09764216288856
 30
0.0
 11
61.08259126107057
 21
107.5371362181368
 31
0.0
1001
ACAD
1000
DSTYLE
1002
{
1070
   341
1005
0
1070
   147
1040
0.625
1070
    77
1070
     1
1002
}
  0
LINE
  5
2509
330
1F
100
AcDbEntity
  8
SOLBET_Wymiary_Opisy
100
AcDbLine
 10
53.95759126107058
 20
107.5371362181368
 30
0.0
 11
61.08259126107057
 21
107.5371362181368
 31
0.0
1001
ACAD
1000
DSTYLE
1002
{
1070
   341
1005
0
1070
   147
1040
0.625
1070
    77
1070
     1
1002
}
  0
MTEXT
  5
250A
330
1F
100
AcDbEntity
  8
SOLBET_Wymiary_Opisy
100
AcDbMText
 10
59.80430908344877
 20
113.974741648737
 30
0.0
 40
5.0
 41
0.0
 71
     3
 72
     1
  1
A
  7
Solbet_5
 73
     1
 44
1.0
1001
ACAD
1000
MTEXTBEGIN
1070
    73
1070
     1
1070
    44
1040
1.0
1070
    74
1070
     0
1000
MTEXTEND
  0
INSERT
  5
2518
330
1F
100
AcDbEntity
  8
SOLBET_Zbrojenie_Konstrukcja
100
AcDbBlockReference
  2
*U5
 10
-928.8959023469999
 20
-525.941997479985
 30
0.0
 41
150.0
 42
150.0
 43
150.0
1001
ASO_SCHRAFF
1005
0
1070
     0
1005
0
  0
INSERT
  5
2519
330
1F
100
AcDbEntity
  8
SOLBET_Zbrojenie_Konstrukcja
100
AcDbBlockReference
  2
*U5
 10
1481.225761037931
 20
-525.941997479985
 30
0.0
 41
-150.0
 42
150.0
 43
150.0
1001
ASO_SCHRAFF
1005
0
1070
     0
1005
0
  0
LINE
  5
251A
330
1F
100
AcDbEntity
  8
SOLBET_Zaprawy
100
AcDbLine
 10
243.8140861999625
 20
61.34900340315761
 30
0.0
 11
243.8135632405408
 21
96.94391991086185
 31
0.0
  0
LINE
  5
251B
330
1F
100
AcDbEntity
  8
SOLBET_Tynki_Posadzki
100
AcDbLine
 10
242.4149293454655
 20
64.16520854356457
 30
0.0
 11
242.4149293454655
 21
94.12866357562439
 31
0.0
  0
LINE
  5
251C
330
1F
100
AcDbEntity
  8
SOLBET_Tynki_Posadzki
100
AcDbLine
 10
309.16492934543
 20
95.46708173749038
 30
0.0
 11
309.16492934543
 21
62.82679038169743
 31
0.0
  0
LWPOLYLINE
  5
2523
330
1F
100
AcDbEntity
  8
SOLBET_Bloczki
100
AcDbPolyline
 90
        4
 70
     0
 43
0.0
 10
244.6649297369038
 20
98.40802052645427
 10
244.6649297677138
 20
96.87570618688557
 10
307.6649297677138
 20
96.87570618688557
 10
307.6649297409456
 20
98.20685918134211
  0
LINE
  5
2524
330
1F
100
AcDbEntity
  8
SOLBET_Bloczki
100
AcDbLine
 10
244.6649293454655
 20
96.87570557443786
 30
0.0
 11
307.6649297677138
 21
96.87570557443786
 31
0.0
  0
ARC
  5
2525
330
1F
100
AcDbEntity
  8
SOLBET_Wymiary_Opisy
100
AcDbCircle
 10
276.1037495370826
 20
79.14693605959451
 30
0.0
 40
36.86988968342128
100
AcDbArc
 50
203.9751538610404
 51
333.7274547625069
  0
LINE
  5
252D
330
1F
100
AcDbEntity
  8
SOLBET_Bloczki
100
AcDbLine
 10
307.6649297677138
 20
60.87570618688523
 30
0.0
 11
307.6649297677138
 21
60.0870129821713
 31
0.0
  0
LINE
  5
252E
330
1F
100
AcDbEntity
  8
SOLBET_Bloczki
100
AcDbLine
 10
307.6649297677138
 20
60.87570618688523
 30
0.0
 11
244.6649297677138
 21
60.87570618688523
 31
0.0
  0
LINE
  5
252F
330
1F
100
AcDbEntity
  8
SOLBET_Bloczki
100
AcDbLine
 10
244.6649297677138
 20
60.87570618688523
 30
0.0
 11
244.6649297677138
 21
59.8858515424447
 31
0.0
  0
ARC
  5
2531
330
1F
100
AcDbEntity
  8
SOLBET_Wymiary_Opisy
100
AcDbCircle
 10
276.1037495370826
 20
79.14693605959451
 30
0.0
 40
36.86988968342128
100
AcDbArc
 50
26.27254523749312
 51
156.0248461389595
  0
LEADER
  5
2544
330
1F
100
AcDbEntity
  8
SOLBET_Wymiary_Opisy
100
AcDbLeader
  3
Solbet$7
 73
     0
 40
3.25
 41
39.25
 76
     2
 10
242.4149293454656
 20
90.76054922357275
 30
0.0
 10
218.9370727190437
 20
96.79396118109124
 30
0.0
340
2545
213
1.177601578005123
223
-0.1753245211093599
233
0.0
1001
ACAD
1000
DSTYLE
1002
{
1070
   147
1040
0.625
1070
    77
1070
     1
1002
}
  0
MTEXT
  5
2545
102
{ACAD_XDICTIONARY
360
2AB2
102
}
102
{ACAD_REACTORS
330
2544
102
}
330
1F
100
AcDbEntity
  8
SOLBET_Wymiary_Opisy
100
AcDbMText
 10
177.8844711410386
 20
100.8442857022006
 30
0.0
 40
2.5
 41
0.0
 71
     1
 72
     1
  1
Tynk zewn\U+0119trzny SOLBET
  7
Solbet_2_5
 73
     1
 44
1.0
1001
ACAD
1000
MTEXTBEGIN
1070
    73
1070
     1
1070
    44
1040
1.0
1070
    74
1070
     0
1000
MTEXTEND
  0
LEADER
  5
2548
330
1F
100
AcDbEntity
  8
SOLBET_Wymiary_Opisy
100
AcDbLeader
  3
Solbet$7
 73
     0
 40
2.501893939393939
 41
32.0
 76
     2
 10
246.8659421504815
 20
68.71671601446701
 30
0.0
 10
218.2936133072749
 20
75.49823403259157
 30
0.0
340
2549
213
1.177601578005123
223
-0.1753245211093599
233
0.0
1001
ACAD
1000
DSTYLE
1002
{
1070
   147
1040
0.625
1070
    77
1070
     1
1002
}
  0
MTEXT
  5
2549
102
{ACAD_REACTORS
330
2548
102
}
330
1F
100
AcDbEntity
  8
SOLBET_Wymiary_Opisy
100
AcDbMText
 10
184.4910117292697
 20
78.80045249309486
 30
0.0
 40
2.5
 41
0.0
 71
     1
 72
     1
  1
Bloczki SOLBET Ideal
  7
Solbet_2_5
 73
     1
 44
1.0
1001
ACAD
1000
MTEXTBEGIN
1070
    73
1070
     1
1070
    44
1040
1.0
1070
    74
1070
     0
1000
MTEXTEND
  0
LEADER
  5
254A
330
1F
100
AcDbEntity
  8
SOLBET_Wymiary_Opisy
100
AcDbLeader
  3
Solbet$7
 73
     0
 40
3.25
 41
39.75
 76
     2
 10
309.16492934543
 20
75.77230894442982
 30
0.0
 10
223.2725294009631
 20
53.51659240619392
 30
0.0
340
254B
213
1.177601578005123
223
-0.1753245211093599
233
0.0
1001
ACAD
1000
DSTYLE
1002
{
1070
   147
1040
0.625
1070
    77
1070
     1
1002
}
  0
MTEXT
  5
254B
102
{ACAD_XDICTIONARY
360
2AB4
102
}
102
{ACAD_REACTORS
330
254A
102
}
330
1F
100
AcDbEntity
  8
SOLBET_Wymiary_Opisy
100
AcDbMText
 10
181.719927822958
 20
57.56691692730328
 30
0.0
 40
2.5
 41
0.0
 71
     1
 72
     1
  1
Tynk wewn\U+0119trzny SOLBET
  7
Solbet_2_5
 73
     1
 44
1.0
1001
ACAD
1000
MTEXTBEGIN
1070
    73
1070
     1
1070
    44
1040
1.0
1070
    74
1070
     0
1000
MTEXTEND
  0
MTEXT
  5
254D
330
1F
100
AcDbEntity
  8
SOLBET_Wymiary_Opisy
100
AcDbMText
 10
292.1435950105676
 20
120.7133840116909
 30
0.0
 40
2.5
 41
0.0
 71
     1
 72
     1
  1
Zbrojenie MURFOR
  7
Solbet_2_5
 73
     1
 44
1.0
1001
ACAD
1000
MTEXTBEGIN
1070
    73
1070
     1
1070
    44
1040
1.0
1070
    74
1070
     0
1000
MTEXTEND
  0
INSERT
  5
254E
330
1F
100
AcDbEntity
  8
SOLBET_Wymiary_Opisy
100
AcDbBlockReference
  2
_DotSmall
 10
276.7612566836492
 20
97.25971578197528
 30
0.0
 41
2.500000000000027
 42
2.5
 43
2.5
 50
235.3011421850689
1001
ACAD
1000
DSTYLE
1002
{
1070
   147
1040
0.625
1070
    77
1070
     1
1002
}
  0
LINE
  5
2550
330
1F
100
AcDbEntity
  8
SOLBET_Wymiary_Opisy
100
AcDbLine
 10
276.7612566836492
 20
97.25971578197528
 30
0.0
 11
290.1961965885727
 21
116.6630594905816
 31
0.0
1001
ACAD
1000
DSTYLE
1002
{
1070
   147
1040
0.625
1070
    77
1070
     1
1002
}
  0
LINE
  5
2551
330
1F
100
AcDbEntity
  8
SOLBET_Wymiary_Opisy
100
AcDbLine
 10
290.1961965885727
 20
116.6630594905816
 30
0.0
 11
320.5711965885727
 21
116.6630594905816
 31
0.0
1001
ACAD
1000
DSTYLE
1002
{
1070
   147
1040
0.625
1070
    77
1070
     1
1002
}
  0
MTEXT
  5
255B
102
{ACAD_XDICTIONARY
360
2932
102
}
330
1F
100
AcDbEntity
  8
SOLBET_Wymiary_Opisy
100
AcDbMText
 10
234.5931175742641
 20
146.8953494361623
 30
0.0
 40
5.0
 41
30.77919768571883
 71
     1
 72
     5
  1
\pxqc;A\P(3 : 1)
  7
Solbet_5
 73
     1
 44
1.0
1001
ACAD
1000
MTEXTBEGIN
1070
    73
1070
     1
1070
    44
1040
1.0
1070
    74
1070
     0
1000
MTEXTEND
1000
ACAD_MTEXT_DEFINED_HEIGHT_BEGIN
1070
    46
1040
23.42535011036716
1000
ACAD_MTEXT_DEFINED_HEIGHT_END
  0
LINE
  5
269A
330
1F
100
AcDbEntity
  8
SOLBET_Wymiary_Opisy
100
AcDbLine
 10
243.8225137854779
 20
80.55477857065374
 30
0.0
 11
230.1139061219777
 21
83.15587675098781
 31
0.0
1001
ACAD
1000
DSTYLE
1002
{
1070
   147
1040
0.625
1070
    77
1070
     1
1002
}
  0
LINE
  5
269B
330
1F
100
AcDbEntity
  8
SOLBET_Wymiary_Opisy
100
AcDbLine
 10
230.1139061219777
 20
83.15587675098781
 30
0.0
 11
184.1081874197975
 21
83.13309709930136
 31
0.0
1001
ACAD
1000
DSTYLE
1002
{
1070
   147
1040
0.625
1070
    77
1070
     1
1002
}
  0
TEXT
  5
269C
330
1F
100
AcDbEntity
  8
SOLBET_Wymiary_Opisy
100
AcDbText
 10
178.6730635121689
 20
88.4675240605784
 30
0.0
 40
2.5
  1
Siatka z klejem SOLBET Gabit T
  7
Solbet_2_5
100
AcDbText
  0
TEXT
  5
269D
330
1F
100
AcDbEntity
  8
SOLBET_Wymiary_Opisy
100
AcDbText
 10
203.9634411501252
 20
84.18548745918906
 30
0.0
 40
2.5
  1
jeżeli wymagane
  7
Solbet_2_5
100
AcDbText
  0
INSERT
  5
269E
330
1F
100
AcDbEntity
  8
SOLBET_Wymiary_Opisy
100
AcDbBlockReference
  2
_DotSmall
 10
243.8225137854779
 20
80.55477857065374
 30
0.0
 41
2.499999999999195
 42
2.5
 43
2.5
 50
323.192595210197
1001
ACAD
1000
DSTYLE
1002
{
1070
   147
1040
0.625
1070
    77
1070
     1
1002
}
  0
LWPOLYLINE
  5
2833
330
1F
100
AcDbEntity
  8
SOLBET_Zbrojenie_Konstrukcja
  6
Continuous
100
AcDbPolyline
 90
        2
 70
     1
 43
0.3
 10
76.69628860600778
 20
219.6896843041526
 42
1.0
 10
76.99628860600705
 20
219.6896843041526
 42
1.0
  0
LWPOLYLINE
  5
2834
330
1F
100
AcDbEntity
  8
SOLBET_Zbrojenie_Konstrukcja
  6
Continuous
100
AcDbPolyline
 90
        2
 70
     1
 43
0.3
 10
85.09093256922415
 20
219.6680646290701
 42
1.0
 10
85.39093256922342
 20
219.6680646290701
 42
1.0
  0
LWPOLYLINE
  5
2835
330
1F
100
AcDbEntity
  8
SOLBET_Zbrojenie_Konstrukcja
  6
Continuous
100
AcDbPolyline
 90
        2
 70
     1
 43
0.3
 10
85.09093256922415
 20
209.8311527540085
 42
1.0
 10
85.39093256922342
 20
209.8311527540085
 42
1.0
  0
LWPOLYLINE
  5
2836
330
1F
100
AcDbEntity
  8
SOLBET_Zbrojenie_Konstrukcja
  6
Continuous
100
AcDbPolyline
 90
        2
 70
     1
 43
0.3
 10
76.69628860600778
 20
209.8311527540085
 42
1.0
 10
76.99628860600705
 20
209.8311527540085
 42
1.0
  0
LINE
  5
2837
330
1F
100
AcDbEntity
  8
SOLBET_Zbrojenie_Konstrukcja
  6
Continuous
100
AcDbLine
 10
79.14120867727388
 20
218.6007177913165
 30
0.0
 11
77.72699511490055
 21
220.014931353688
 31
0.0
  0
LINE
  5
2838
330
1F
100
AcDbEntity
  8
SOLBET_Zbrojenie_Konstrukcja
  6
Continuous
100
AcDbLine
 10
77.94120867727315
 20
217.4007177913158
 30
0.0
 11
76.52699511490346
 21
218.8149313536891
 31
0.0
  0
LWPOLYLINE
  5
2839
330
1F
100
AcDbEntity
  8
SOLBET_Zbrojenie_Konstrukcja
  6
Continuous
100
AcDbPolyline
 90
        5
 70
     0
 43
0.0
 10
85.53262640900857
 20
209.5149313536898
 10
85.53262640900857
 20
220.014931353688
 10
76.52699511490346
 20
220.014931353688
 10
76.52699511490346
 20
209.5149313536898
 10
85.53262640900857
 20
209.5149313536898
  0
LINE
  5
284E
330
1F
100
AcDbEntity
  8
SOLBET_Zbrojenie_Konstrukcja
100
AcDbLine
 10
76.53965034289469
 20
221.155697184305
 30
0.0
 11
86.36457821337193
 21
221.155697184312
 31
0.0
  0
LINE
  5
2867
330
1F
100
AcDbEntity
  8
SOLBET_Wymiary_Opisy
100
AcDbLine
 10
34.46255812497702
 20
236.2175453464805
 30
0.0
 11
62.64533343400376
 21
236.2175453464805
 31
0.0
  0
LINE
  5
2886
330
1F
100
AcDbEntity
  8
SOLBET_Zbrojenie_Konstrukcja
100
AcDbLine
 10
74.9632284380362
 20
103.9900660727928
 30
0.0
 11
84.74162523605668
 21
103.9900660727928
 31
0.0
  0
LINE
  5
2887
330
1F
100
AcDbEntity
  8
SOLBET_Zbrojenie_Konstrukcja
100
AcDbLine
 10
261.4973341484344
 20
96.96918485533831
 30
0.0
 11
290.8325245424965
 21
96.96918485533831
 31
0.0
  0
INSERT
  5
29D9
330
1F
100
AcDbEntity
  8
SOLBET_Bloczki
100
AcDbBlockReference
  2
SOLBET_Nadproze_120x240x1400_zz_PRA
 10
69.35242738369834
 20
184.9589063124933
 30
0.0
  0
INSERT
  5
29DA
330
1F
100
AcDbEntity
  8
SOLBET_Bloczki
100
AcDbBlockReference
  2
SOLBET_Nadproze_120x240x1400_zz_PRA
 10
84.35242738369835
 20
184.9589063124933
 30
0.0
  0
INSERT
  5
29F0
330
1F
100
AcDbEntity
  8
SOLBET_Bloczki
100
AcDbBlockReference
  2
SOLBET_Nadproze_180x240x2300_zz_PRA
 10
75.35242697779586
 20
184.9589063124929
 30
0.0
  0
INSERT
  5
29FD
330
1F
100
AcDbEntity
  8
SOLBET_Bloczki
100
AcDbBlockReference
  2
SOLBET_Bloczek_Ideal_420x240x590_P+W_KG400_PRA
 10
69.35242697779585
 20
196.9589061880048
 30
0.0
  0
INSERT
  5
29FE
330
1F
100
AcDbEntity
  8
SOLBET_Bloczki
100
AcDbBlockReference
  2
SOLBET_Bloczek_Ideal_420x240x590_P+W_KG400_PRA
 10
69.35242697779585
 20
220.9589066083794
 30
0.0
  0
INSERT
  5
29FF
330
1F
100
AcDbEntity
  8
SOLBET_Bloczki
100
AcDbBlockReference
  2
SOLBET_Bloczek_Ideal_420x240x590_P+W_KG400_PRA
 10
69.35242711854517
 20
232.9589068125279
 30
0.0
  0
INSERT
  5
2A00
330
1F
100
AcDbEntity
  8
SOLBET_Bloczki
100
AcDbBlockReference
  2
SOLBET_Bloczek_Ideal_420x240x590_P+W_KG400_PRA
 10
69.35242711854517
 20
79.95890651664251
 30
0.0
  0
INSERT
  5
2A01
330
1F
100
AcDbEntity
  8
SOLBET_Bloczki
100
AcDbBlockReference
  2
SOLBET_Bloczek_Ideal_420x240x590_P+W_KG400_PRA
 10
69.35242725929447
 20
91.958906720791
 30
0.0
  0
INSERT
  5
2A02
330
1F
100
AcDbEntity
  8
SOLBET_Bloczki
100
AcDbBlockReference
  2
SOLBET_Bloczek_Ideal_420x240x590_P+W_KG400_PRA
 10
244.6649293454659
 20
60.87570496199242
 30
0.0
 41
3.0
 42
3.0
 43
3.0
  0
INSERT
  5
2A11
330
1F
100
AcDbEntity
  8
SOLBET_Bloczki
100
AcDbBlockReference
  2
SOLBET_Plytka_60x240x590_KG600_PRA
 10
69.35242711854517
 20
208.9589063921533
 30
0.0
  0
MTEXT
  5
2A58
102
{ACAD_XDICTIONARY
360
2A59
102
}
330
1F
100
AcDbEntity
  8
SOLBET_Wymiary_Opisy
100
AcDbMText
 10
301.4024311477042
 20
7.277734907047829
 30
0.0
 40
5.0
 41
0.0
 71
     1
 72
     5
  1
Skala 1:20
  7
Solbet_5
 73
     1
 44
1.0
1001
ACAD
1000
MTEXTBEGIN
1070
    73
1070
     1
1070
    44
1040
1.0
1070
    74
1070
     0
1000
MTEXTEND
1000
ACAD_MTEXT_DEFINED_HEIGHT_BEGIN
1070
    46
1040
5.395147572682731
1000
ACAD_MTEXT_DEFINED_HEIGHT_END
  0
LWPOLYLINE
  5
2A5B
330
1F
100
AcDbEntity
  8
SOLBET_Ramka_05
100
AcDbPolyline
 90
        4
 70
     1
 43
0.0
 10
298.3837650267903
 20
9.808805570567756
 10
334.4999419142125
 20
9.808805570567756
 10
334.4999419142125
 20
0.0045843716322906
 10
298.3837650267904
 20
0.0045843716322906
  0
ENDSEC
  0
SECTION
  2
OBJECTS
  0
DICTIONARY
  5
C
330
0
100
AcDbDictionary
281
     1
  3
ACAD_COLOR
350
6B
  3
ACAD_GROUP
350
D
  3
ACAD_LAYOUT
350
1A
  3
ACAD_MATERIAL
350
6A
  3
ACAD_MLEADERSTYLE
350
12D
  3
ACAD_MLINESTYLE
350
17
  3
ACAD_PLOTSETTINGS
350
19
  3
ACAD_PLOTSTYLENAME
350
E
  3
ACAD_SCALELIST
350
10C
  3
ACAD_TABLESTYLE
350
7E
  3
ACAD_VISUALSTYLE
350
EF
  3
ACDB_RECOMPOSE_DATA
350
15D
  3
AcDbVariableDictionary
350
5E
  3
DWGPROPS
350
2A94
  0
DICTIONARY
  5
443
330
8
100
AcDbDictionary
280
     1
281
     1
  0
DICTIONARY
  5
3E5
330
2
100
AcDbDictionary
280
     1
281
     1
  3
ACAD_LAYERFILTERS
360
238D
  3
ACLYDICTIONARY
360
238C
  0
DICTIONARY
  5
13C
330
10
100
AcDbDictionary
280
     1
281
     1
  3
ADSK_XREC_LAYER_RECONCILED
360
3F4
  0
DICTIONARY
  5
403
330
3DD
100
AcDbDictionary
280
     1
281
     1
  3
ADSK_XREC_LAYER_RECONCILED
360
404
  0
DICTIONARY
  5
405
330
3DF
100
AcDbDictionary
280
     1
281
     1
  3
ADSK_XREC_LAYER_RECONCILED
360
406
  0
DICTIONARY
  5
407
330
3E0
100
AcDbDictionary
280
     1
281
     1
  3
ADSK_XREC_LAYER_RECONCILED
360
408
  0
DICTIONARY
  5
409
330
3E1
100
AcDbDictionary
280
     1
281
     1
  3
ADSK_XREC_LAYER_RECONCILED
360
40A
  0
DICTIONARY
  5
40B
330
3E2
100
AcDbDictionary
280
     1
281
     1
  3
ADSK_XREC_LAYER_RECONCILED
360
40C
  0
DICTIONARY
  5
40F
330
3E4
100
AcDbDictionary
280
     1
281
     1
  3
ADSK_XREC_LAYER_RECONCILED
360
410
  0
DICTIONARY
  5
411
330
3E8
100
AcDbDictionary
280
     1
281
     1
  3
ADSK_XREC_LAYER_RECONCILED
360
412
  0
DICTIONARY
  5
292E
330
292D
100
AcDbDictionary
280
     1
281
     1
  3
ASDK_XREC_ANNO_SCALE_INFO
360
292F
  0
DICTIONARY
  5
4A3
330
1F
100
AcDbDictionary
280
     1
281
     1
  3
ACAD_SORTENTS
360
4A4
  0
DICTIONARY
  5
2318
330
230C
100
AcDbDictionary
280
     1
281
     1
  3
ACAD_SORTENTS
360
2319
  0
DICTIONARY
  5
23B7
330
23AD
100
AcDbDictionary
280
     1
281
     1
  3
ACAD_SORTENTS
360
23B8
  0
DICTIONARY
  5
23C7
330
23BD
100
AcDbDictionary
280
     1
281
     1
  3
ACAD_SORTENTS
360
23C8
  0
DICTIONARY
  5
23FE
330
23F4
100
AcDbDictionary
280
     1
281
     1
  3
ACAD_SORTENTS
360
23FF
  0
DICTIONARY
  5
297E
330
2972
100
AcDbDictionary
280
     1
281
     1
  3
ACAD_SORTENTS
360
29FC
  0
DICTIONARY
  5
29D5
330
29C4
100
AcDbDictionary
280
     1
281
     1
  3
ACAD_SORTENTS
360
29D6
  0
DICTIONARY
  5
29EC
330
29DB
100
AcDbDictionary
280
     1
281
     1
  3
ACAD_SORTENTS
360
29ED
  0
DICTIONARY
  5
2A0D
330
2A03
100
AcDbDictionary
280
     1
281
     1
  3
ACAD_SORTENTS
360
2A0E
  0
DICTIONARY
  5
2306
330
2305
100
AcDbDictionary
280
     1
281
     1
  3
ACAD_MTEXT_RT
360
2AA1
  3
AcDbContextDataManager
360
2307
  0
DICTIONARY
  5
2AA2
330
2416
100
AcDbDictionary
280
     1
281
     1
  3
ACAD_XREC_ROUNDTRIP
360
2AA3
  0
DICTIONARY
  5
2AA4
330
2459
100
AcDbDictionary
280
     1
281
     1
  3
ACAD_MTEXT_RT
360
2AA5
  0
DICTIONARY
  5
2AA6
330
245F
100
AcDbDictionary
280
     1
281
     1
  3
ACAD_MTEXT_RT
360
2AA7
  0
DICTIONARY
  5
2AA8
330
2461
100
AcDbDictionary
280
     1
281
     1
  3
ACAD_MTEXT_RT
360
2AA9
  0
DICTIONARY
  5
2AAA
330
2469
100
AcDbDictionary
280
     1
281
     1
  3
ACAD_MTEXT_RT
360
2AAB
  0
DICTIONARY
  5
2AAC
330
2471
100
AcDbDictionary
280
     1
281
     1
  3
ACAD_MTEXT_RT
360
2AAD
  0
DICTIONARY
  5
2AAE
330
24DF
100
AcDbDictionary
280
     1
281
     1
  3
ACAD_MTEXT_RT
360
2AAF
  0
DICTIONARY
  5
2AB0
330
24E5
100
AcDbDictionary
280
     1
281
     1
  3
ACAD_MTEXT_RT
360
2AB1
  0
DICTIONARY
  5
2930
330
24F0
100
AcDbDictionary
280
     1
281
     1
  3
ACAD_MTEXT_2008_RT
360
2931
  0
DICTIONARY
  5
2AB2
330
2545
100
AcDbDictionary
280
     1
281
     1
  3
ACAD_MTEXT_RT
360
2AB3
  0
DICTIONARY
  5
2AB4
330
254B
100
AcDbDictionary
280
     1
281
     1
  3
ACAD_MTEXT_RT
360
2AB5
  0
DICTIONARY
  5
2932
330
255B
100
AcDbDictionary
280
     1
281
     1
  3
ACAD_MTEXT_2008_RT
360
2933
  0
DICTIONARY
  5
2A59
330
2A58
100
AcDbDictionary
280
     1
281
     1
  3
ACAD_MTEXT_2008_RT
360
2A5A
  0
DICTIONARY
  5
6B
102
{ACAD_REACTORS
330
C
102
}
330
C
100
AcDbDictionary
281
     1
  0
DICTIONARY
  5
D
102
{ACAD_REACTORS
330
C
102
}
330
C
100
AcDbDictionary
281
     1
  0
DICTIONARY
  5
1A
102
{ACAD_REACTORS
330
C
102
}
330
C
100
AcDbDictionary
281
     1
  3
Arkusz1
350
D3
  3
Arkusz2
350
D7
  3
Model
350
22
  0
DICTIONARY
  5
6A
102
{ACAD_REACTORS
330
C
102
}
330
C
100
AcDbDictionary
281
     1
  3
ByBlock
350
ED
  3
ByLayer
350
EC
  3
Global
350
EE
  0
DICTIONARY
  5
12D
102
{ACAD_REACTORS
330
C
102
}
330
C
100
AcDbDictionary
281
     1
  3
Standard
350
12E
  0
DICTIONARY
  5
17
102
{ACAD_REACTORS
330
C
102
}
330
C
100
AcDbDictionary
281
     1
  3
SOLBET_IZOLACJA
350
7E9
  3
Standard
350
18
  0
DICTIONARY
  5
19
102
{ACAD_REACTORS
330
C
102
}
330
C
100
AcDbDictionary
281
     1
  0
ACDBDICTIONARYWDFLT
  5
E
102
{ACAD_REACTORS
330
C
102
}
330
C
100
AcDbDictionary
281
     1
  3
Normal
350
F
100
AcDbDictionaryWithDefault
340
F
  0
DICTIONARY
  5
10C
102
{ACAD_REACTORS
330
C
102
}
330
C
100
AcDbDictionary
281
     1
  3
A0
350
10D
  3
A1
350
188
  3
A2
350
189
  3
A3
350
18A
  3
A4
350
18B
  3
A5
350
18C
  3
A6
350
18D
  3
A7
350
18E
  3
A8
350
18F
  3
A9
350
190
  3
B0
350
191
  3
B1
350
192
  3
B2
350
193
  3
B3
350
194
  3
B4
350
195
  3
B5
350
196
  3
B6
350
197
  3
B7
350
198
  3
B8
350
199
  3
B9
350
19A
  3
C0
350
19B
  3
C1
350
19C
  3
C2
350
19D
  3
C3
350
19E
  3
C4
350
19F
  3
C5
350
1A0
  3
C6
350
1A1
  3
C7
350
1A2
  3
C8
350
1A3
  3
C9
350
1A4
  3
D0
350
1A5
  3
D1
350
1A6
  3
D2
350
1A7
  0
DICTIONARY
  5
7E
102
{ACAD_REACTORS
330
C
102
}
330
C
100
AcDbDictionary
281
     1
  3
Standard
350
7F
  0
DICTIONARY
  5
EF
102
{ACAD_REACTORS
330
C
102
}
330
C
100
AcDbDictionary
281
     1
  3
2dWireframe
350
F5
  3
3D Hidden
350
F7
  3
3dWireframe
350
F6
  3
Basic
350
F4
  3
Brighten
350
FB
  3
ColorChange
350
FF
  3
Conceptual
350
F8
  3
Dim
350
FA
  3
Facepattern
350
FE
  3
Flat
350
F0
  3
FlatWithEdges
350
F1
  3
Gouraud
350
F2
  3
GouraudWithEdges
350
F3
  3
Linepattern
350
FD
  3
Realistic
350
F9
  3
Thicken
350
FC
  0
XRECORD
  5
15D
102
{ACAD_REACTORS
330
C
102
}
330
C
100
AcDbXrecord
280
     1
 90
        1
330
7F
330
2305
330
24F0
330
255B
  0
DICTIONARY
  5
5E
102
{ACAD_REACTORS
330
C
102
}
330
C
100
AcDbDictionary
281
     1
  3
CANNOSCALE
350
146
  3
CMLEADERSTYLE
350
145
  3
CTABLESTYLE
350
84
  3
DIMASSOC
350
5F
  3
HIDETEXT
350
63
  3
INDEXCTL
350
466
  3
LIGHTINGUNITS
350
464
  3
MSLTSCALE
350
463
  3
PSOLHEIGHT
350
2A93
  3
PSOLWIDTH
350
2A92
  3
SORTENTS
350
465
  0
XRECORD
  5
2A94
102
{ACAD_REACTORS
330
C
102
}
330
C
100
AcDbXrecord
280
     1
  1
DWGPROPS COOKIE
  2

  3

  4

  6

  7

  8
Olus
  9

300
=
301
=
302
=
303
=
304
=
305
=
306
=
307
=
308
=
309
=
 40
0.546293275462963
 41
2454690.075573148
 42
2454848.861120243
  1

 90
        0
  0
DICTIONARY
  5
238D
102
{ACAD_REACTORS
330
3E5
102
}
330
3E5
100
AcDbDictionary
281
     1
  0
DICTIONARY
  5
238C
102
{ACAD_REACTORS
330
3E5
102
}
330
3E5
100
AcDbDictionary
281
     1
1001
ACAD
1000
<All
  0
XRECORD
  5
3F4
102
{ACAD_REACTORS
330
13C
102
}
330
13C
100
AcDbXrecord
280
     1
290
     1
  0
XRECORD
  5
404
102
{ACAD_REACTORS
330
403
102
}
330
403
100
AcDbXrecord
280
     1
290
     1
  0
XRECORD
  5
406
102
{ACAD_REACTORS
330
405
102
}
330
405
100
AcDbXrecord
280
     1
290
     1
  0
XRECORD
  5
408
102
{ACAD_REACTORS
330
407
102
}
330
407
100
AcDbXrecord
280
     1
290
     1
  0
XRECORD
  5
40A
102
{ACAD_REACTORS
330
409
102
}
330
409
100
AcDbXrecord
280
     1
290
     1
  0
XRECORD
  5
40C
102
{ACAD_REACTORS
330
40B
102
}
330
40B
100
AcDbXrecord
280
     1
290
     1
  0
XRECORD
  5
410
102
{ACAD_REACTORS
330
40F
102
}
330
40F
100
AcDbXrecord
280
     1
290
     1
  0
XRECORD
  5
412
102
{ACAD_REACTORS
330
411
102
}
330
411
100
AcDbXrecord
280
     1
290
     1
  0
XRECORD
  5
292F
102
{ACAD_REACTORS
330
292E
102
}
330
292E
100
AcDbXrecord
280
     1
 70
     1
340
10D
340
3DF
 70
    -1
  0
SORTENTSTABLE
  5
4A4
102
{ACAD_REACTORS
330
4A3
102
}
330
4A3
100
AcDbSortentsTable
330
1F
331
22C9
  5
2398
331
228A
  5
22BB
331
2292
  5
22C2
331
22D1
  5
23D5
331
2416
  5
2419
331
245D
  5
2473
331
24B4
  5
22D3
331
229A
  5
22CA
331
241E
  5
2452
331
251B
  5
251B
331
22A2
  5
22DD
331
246D
  5
24AF
331
2523
  5
252E
331
2436
  5
2259
331
24E4
  5
24E4
331
2531
  5
2531
331
2549
  5
2549
331
22AA
  5
22E5
331
226B
  5
2298
331
2273
  5
22A3
331
22B2
  5
22ED
331
22F1
  5
2434
331
243E
  5
2262
331
24EC
  5
24EB
331
227B
  5
22AE
331
22BA
  5
22F5
331
24F4
  5
24F3
331
2283
  5
22B4
331
244E
  5
245E
331
24FC
  5
24FC
331
2456
  5
2465
331
2551
  5
2550
331
2256
  5
2282
331
225E
  5
228A
331
2266
  5
2292
331
228B
  5
22BC
331
22CA
  5
239A
331
2417
  5
244A
331
245E
  5
2484
331
24B5
  5
22D4
331
229B
  5
22CB
331
22E2
  5
241C
331
241F
  5
2453
331
2466
  5
2488
331
251C
  5
251C
331
22A3
  5
22DE
331
246E
  5
24B1
331
2524
  5
252F
331
2437
  5
225A
331
24E5
  5
24E5
331
223F
  5
2467
331
254A
  5
254A
331
224F
  5
227B
331
226C
  5
2299
331
22AB
  5
22E6
331
2274
  5
22A4
331
22B3
  5
22EE
331
22F2
  5
2435
331
243F
  5
2263
331
24ED
  5
24EC
331
2486
  5
24B4
331
227C
  5
2446
331
22BB
  5
22F6
331
2399
  5
2445
331
24F5
  5
24F4
331
244F
  5
245F
331
2457
  5
2466
331
24AE
  5
22CD
331
2257
  5
2283
331
2267
  5
2293
331
228C
  5
22BD
331
22CB
  5
239D
331
2418
  5
244B
331
245F
  5
2485
331
24B6
  5
22D5
331
2342
  5
2440
331
2420
  5
2454
331
2467
  5
2489
331
22A4
  5
22DF
331
246F
  5
24B2
331
2525
  5
2530
331
24E6
  5
24FB
331
254B
  5
254B
331
226D
  5
229A
331
22AC
  5
22E7
331
2438
  5
225B
331
2275
  5
22A5
331
22B4
  5
22EF
331
2440
  5
2264
331
24EE
  5
24ED
331
2487
  5
24B5
331
22BC
  5
22F7
331
2448
  5
226C
331
24F6
  5
24F5
331
2450
  5
2460
331
24AF
  5
22CE
331
2250
  5
227C
331
2258
  5
2284
331
228D
  5
22BF
331
22CC
  5
23BB
331
2458
  5
2469
331
24B7
  5
22D6
331
2295
  5
22C5
331
2419
  5
244C
331
2460
  5
2486
331
229D
  5
22DB
331
22A5
  5
22E0
331
24DF
  5
24DF
331
24E7
  5
24E6
331
2239
  5
2251
331
2544
  5
2544
331
226E
  5
229B
331
22AD
  5
22E8
331
2439
  5
225C
331
2276
  5
22A8
331
2441
  5
2265
331
24EF
  5
24EE
331
24F7
  5
24F6
331
227E
  5
22B0
331
22BD
  5
22F9
331
2304
  5
2438
331
2449
  5
2457
331
2488
  5
24B9
331
2286
  5
22B7
331
2507
  5
2507
331
2251
  5
227D
331
2259
  5
2285
331
22CD
  5
23CE
331
2459
  5
246B
331
24B0
  5
22CF
331
24B8
  5
22D7
331
2296
  5
22C6
331
241A
  5
244D
331
2461
  5
2487
331
229E
  5
22DC
331
2422
  5
2455
331
2469
  5
24B0
331
22A6
  5
22E1
331
24E0
  5
24E0
331
252D
  5
252A
331
2545
  5
2545
331
254D
  5
2551
331
22AE
  5
22E9
331
243A
  5
225D
331
2471
  5
24B6
331
24E8
  5
24E7
331
2277
  5
22A9
331
2442
  5
2266
331
24F0
  5
24EF
331
22BE
  5
22FA
331
2305
  5
2439
331
239C
  5
2444
331
244A
  5
2458
331
2489
  5
24BA
331
24F8
  5
24F7
331
2287
  5
22B8
331
2452
  5
2461
331
225A
  5
2286
331
2262
  5
228E
331
22CE
  5
23CF
331
24B1
  5
22D0
331
2508
  5
2508
331
2297
  5
22C7
331
241B
  5
244E
331
24B9
  5
22D8
331
2518
  5
2518
331
246A
  5
248A
331
22A7
  5
22E2
331
2433
  5
2256
331
24E1
  5
24E1
331
252E
  5
252B
331
254E
  5
254D
331
2268
  5
2294
331
22AF
  5
22EA
331
22EE
  5
2422
331
243B
  5
225E
331
2472
  5
24B7
331
24E9
  5
24E8
331
2278
  5
22AB
331
2395
  5
2442
331
2443
  5
2267
331
24F1
  5
24F0
331
2280
  5
22B1
331
22BF
  5
22FB
331
244B
  5
2459
331
24F9
  5
24F8
331
2404
  5
22BE
331
22C7
  5
2303
331
2453
  5
2462
331
2253
  5
227F
331
225B
  5
2287
331
2263
  5
228F
331
2288
  5
22B9
331
245B
  5
246F
331
22CF
  5
23D0
331
24B2
  5
22D1
331
2509
  5
2509
331
2298
  5
22C8
331
241C
  5
244F
331
24BA
  5
22D9
331
2519
  5
2519
331
234E
  5
2441
331
2434
  5
2257
331
24E2
  5
24E2
331
252F
  5
252C
331
223C
  5
2254
331
224C
  5
2443
331
2269
  5
2296
331
22A8
  5
22E3
331
22B0
  5
22EB
331
22EF
  5
2433
331
243C
  5
225F
331
2473
  5
24B8
331
24EA
  5
24E9
331
22B8
  5
22F3
331
2444
  5
2268
331
24F2
  5
24F1
331
239E
  5
243F
331
244C
  5
245B
331
24FA
  5
24F9
331
2454
  5
2463
331
2254
  5
2280
331
225C
  5
2288
331
2264
  5
2290
331
22C8
  5
2395
331
2291
  5
22C1
331
22D0
  5
23D1
331
245C
  5
2471
331
24B3
  5
22D2
331
250A
  5
250A
331
2299
  5
22C9
331
22E0
  5
241A
331
241D
  5
2450
331
24BB
  5
22DA
331
251A
  5
251A
331
246C
  5
24AE
331
24E3
  5
24E3
331
222D
  5
222D
331
2548
  5
2548
331
226A
  5
2297
331
2272
  5
22A2
331
22B1
  5
22EC
331
243D
  5
2260
331
24EB
  5
24EA
331
227A
  5
22AD
331
22B9
  5
22F4
331
2484
  5
24B3
331
24F3
  5
24F2
331
244D
  5
245D
331
24FB
  5
24FA
331
2455
  5
2464
331
2550
  5
254F
331
2255
  5
2281
331
225D
  5
2289
331
2265
  5
2291
  0
SORTENTSTABLE
  5
2319
102
{ACAD_REACTORS
330
2318
102
}
330
2318
100
AcDbSortentsTable
330
230C
  0
SORTENTSTABLE
  5
23B8
102
{ACAD_REACTORS
330
23B7
102
}
330
23B7
100
AcDbSortentsTable
330
23AD
  0
SORTENTSTABLE
  5
23C8
102
{ACAD_REACTORS
330
23C7
102
}
330
23C7
100
AcDbSortentsTable
330
23BD
  0
SORTENTSTABLE
  5
23FF
102
{ACAD_REACTORS
330
23FE
102
}
330
23FE
100
AcDbSortentsTable
330
23F4
  0
SORTENTSTABLE
  5
29FC
102
{ACAD_REACTORS
330
297E
102
}
330
297E
100
AcDbSortentsTable
330
2972
  0
SORTENTSTABLE
  5
29D6
102
{ACAD_REACTORS
330
29D5
102
}
330
29D5
100
AcDbSortentsTable
330
29C4
  0
SORTENTSTABLE
  5
29ED
102
{ACAD_REACTORS
330
29EC
102
}
330
29EC
100
AcDbSortentsTable
330
29DB
  0
SORTENTSTABLE
  5
2A0E
102
{ACAD_REACTORS
330
2A0D
102
}
330
2A0D
100
AcDbSortentsTable
330
2A03
  0
XRECORD
  5
2AA1
102
{ACAD_REACTORS
330
2306
102
}
330
2306
100
AcDbXrecord
280
     1
 40
265498.0
  1
{\LDETAL 10\P}Sposoby zamocowania stolarki w ścianie jednowarstwowej
  0
DICTIONARY
  5
2307
102
{ACAD_REACTORS
330
2306
102
}
330
2306
100
AcDbDictionary
281
     1
  3
ACDB_ANNOTATIONSCALES
350
2308
  0
XRECORD
  5
2AA3
102
{ACAD_REACTORS
330
2AA2
102
}
330
2AA2
100
AcDbXrecord
280
     1
102
Gradient1
1004
7B0000000200000001000000000000000000000000000000000000000000000001000000000000000000F03F0200000000000000000000001800000001000000FFFFFFC2000000000000000000000000000000000000F03F1800000001000000FFFFFFC2000000000000000000000000070000004C494E45415200
  0
XRECORD
  5
2AA5
102
{ACAD_REACTORS
330
2AA4
102
}
330
2AA4
100
AcDbXrecord
280
     1
 40
25446.0
  1
Wieniec żelbetowy
  0
XRECORD
  5
2AA7
102
{ACAD_REACTORS
330
2AA6
102
}
330
2AA6
100
AcDbXrecord
280
     1
 40
14518.0
  1
Płytka SOLBET
  0
XRECORD
  5
2AA9
102
{ACAD_REACTORS
330
2AA8
102
}
330
2AA8
100
AcDbXrecord
280
     1
 40
16792.0
  1
Nadproża SOLBET
  0
XRECORD
  5
2AAB
102
{ACAD_REACTORS
330
2AAA
102
}
330
2AAA
100
AcDbXrecord
280
     1
 40
40925.0
  1
Profil tynkarski narożny
  0
XRECORD
  5
2AAD
102
{ACAD_REACTORS
330
2AAC
102
}
330
2AAC
100
AcDbXrecord
280
     1
 40
40925.0
  1
Profil tynkarski narożny
  0
XRECORD
  5
2AAF
102
{ACAD_REACTORS
330
2AAE
102
}
330
2AAE
100
AcDbXrecord
280
     1
 40
34960.0
  1
Warstwa wykończeniowa
  0
XRECORD
  5
2AB1
102
{ACAD_REACTORS
330
2AB0
102
}
330
2AB0
100
AcDbXrecord
280
     1
 40
42625.0
  1
Płyty izolacyjne twarde
  0
XRECORD
  5
2931
102
{ACAD_REACTORS
330
2930
102
}
330
2930
100
AcDbXrecord
280
     1
 40
24757.0
  1
\pxqc;B\P(5 : 1)
  0
XRECORD
  5
2AB3
102
{ACAD_REACTORS
330
2AB2
102
}
330
2AB2
100
AcDbXrecord
280
     1
 40
33376.0
  1
Tynk zewnętrzny SOLBET
  0
XRECORD
  5
2AB5
102
{ACAD_REACTORS
330
2AB4
102
}
330
2AB4
100
AcDbXrecord
280
     1
 40
33358.0
  1
Tynk wewnętrzny SOLBET
  0
XRECORD
  5
2933
102
{ACAD_REACTORS
330
2932
102
}
330
2932
100
AcDbXrecord
280
     1
 40
24645.0
  1
\pxqc;A\P(3 : 1)
  0
XRECORD
  5
2A5A
102
{ACAD_REACTORS
330
2A59
102
}
330
2A59
100
AcDbXrecord
280
     1
 40
24748.0
  1
\pxqc;C\P(5 : 1)
  0
LAYOUT
  5
D3
102
{ACAD_XDICTIONARY
360
2A98
102
}
102
{ACAD_REACTORS
330
1A
102
}
330
1A
100
AcDbPlotSettings
  1

  2
C:\Documents and Settings\basas\Application Data\Autodesk\AutoCAD 2005\R16.1\enu\plotters\Default Windows System Printer.pc3
  4

  6

 40
0.0
 41
0.0
 42
0.0
 43
0.0
 44
0.0
 45
0.0
 46
0.0
 47
0.0
 48
0.0
 49
0.0
140
0.0
141
0.0
142
1.0
143
1.0
 70
   688
 72
     0
 73
     0
 74
     5
  7

 75
    16
147
1.0
148
0.0
149
0.0
100
AcDbLayout
  1
Arkusz1
 70
     1
 71
     1
 10
0.0
 20
0.0
 11
12.0
 21
9.0
 12
0.0
 22
0.0
 32
0.0
 14
0.0
 24
0.0
 34
0.0
 15
0.0
 25
0.0
 35
0.0
146
0.0
 13
0.0
 23
0.0
 33
0.0
 16
1.0
 26
0.0
 36
0.0
 17
0.0
 27
1.0
 37
0.0
 76
     0
330
D2
  0
LAYOUT
  5
D7
102
{ACAD_XDICTIONARY
360
2A9A
102
}
102
{ACAD_REACTORS
330
1A
102
}
330
1A
100
AcDbPlotSettings
  1

  2
C:\Documents and Settings\basas\Application Data\Autodesk\AutoCAD 2005\R16.1\enu\plotters\Default Windows System Printer.pc3
  4

  6

 40
0.0
 41
0.0
 42
0.0
 43
0.0
 44
0.0
 45
0.0
 46
0.0
 47
0.0
 48
0.0
 49
0.0
140
0.0
141
0.0
142
1.0
143
1.0
 70
   688
 72
     0
 73
     0
 74
     5
  7

 75
    16
147
1.0
148
0.0
149
0.0
100
AcDbLayout
  1
Arkusz2
 70
     1
 71
     2
 10
0.0
 20
0.0
 11
12.0
 21
9.0
 12
0.0
 22
0.0
 32
0.0
 14
0.0
 24
0.0
 34
0.0
 15
0.0
 25
0.0
 35
0.0
146
0.0
 13
0.0
 23
0.0
 33
0.0
 16
1.0
 26
0.0
 36
0.0
 17
0.0
 27
1.0
 37
0.0
 76
     0
330
D6
  0
LAYOUT
  5
22
102
{ACAD_XDICTIONARY
360
2A95
102
}
102
{ACAD_REACTORS
330
1A
102
}
330
1A
100
AcDbPlotSettings
  1

  2
none_device
  4
Letter_(8.50_x_11.00_Inches)
  6

 40
6.349999904632568
 41
6.349999904632568
 42
6.350006103515625
 43
6.350006103515625
 44
215.8999938964844
 45
279.3999938964844
 46
11.54999923706054
 47
-13.65000009536743
 48
0.0
 49
0.0
140
210.0
141
297.0
142
1.0
143
1.0
 70
 11936
 72
     1
 73
     0
 74
     4
  7

 75
     0
147
0.9999999999999998
148
0.0
149
0.0
100
AcDbLayout
  1
Model
 70
     1
 71
     0
 10
0.0
 20
0.0
 11
12.0
 21
9.0
 12
0.0
 22
0.0
 32
0.0
 14
0.0
 24
0.0
 34
0.0
 15
0.0
 25
0.0
 35
0.0
146
0.0
 13
0.0
 23
0.0
 33
0.0
 16
1.0
 26
0.0
 36
0.0
 17
0.0
 27
1.0
 37
0.0
 76
     0
330
1F
331
EA
1001
ACAD_PSEXT
1000
Brak
1000
Brak
1000
Nie można zastosować.
1000
Arkusz nie zostanie wydrukowany dopóki nie wybrano konfiguracji plotera.
1070
     0
  0
MATERIAL
  5
ED
102
{ACAD_XDICTIONARY
360
2A9E
102
}
102
{ACAD_REACTORS
330
6A
102
}
330
6A
100
AcDbMaterial
  1
ByBlock
 73
     2
 78
     2
172
     2
176
     2
270
     2
274
     2
  0
MATERIAL
  5
EC
102
{ACAD_XDICTIONARY
360
2A9C
102
}
102
{ACAD_REACTORS
330
6A
102
}
330
6A
100
AcDbMaterial
  1
ByLayer
 73
     2
 78
     2
172
     2
176
     2
270
     2
274
     2
  0
MATERIAL
  5
EE
102
{ACAD_XDICTIONARY
360
173
102
}
102
{ACAD_REACTORS
330
6A
102
}
330
6A
100
AcDbMaterial
  1
Global
 73
     2
 43
0.0007999999797903
 43
0.0
 43
0.0
 43
0.0
 43
0.0
 43
0.0007999999797903
 43
0.0
 43
0.0
 43
0.0
 43
0.0
 43
1.0
 43
0.0
 43
0.0
 43
0.0
 43
0.0
 43
1.0
 78
     2
172
     2
 49
0.0007999999797903
 49
0.0
 49
0.0
 49
0.0
 49
0.0
 49
0.0007999999797903
 49
0.0
 49
0.0
 49
0.0
 49
0.0
 49
1.0
 49
0.0
 49
0.0
 49
0.0
 49
0.0
 49
1.0
176
     2
142
0.0007999999797903
142
0.0
142
0.0
142
0.0
142
0.0
142
0.0007999999797903
142
0.0
142
0.0
142
0.0
142
0.0
142
1.0
142
0.0
142
0.0
142
0.0
142
0.0
142
1.0
270
     2
144
0.0007999999797903
144
0.0
144
0.0
144
0.0
144
0.0
144
0.0007999999797903
144
0.0
144
0.0
144
0.0
144
0.0
144
1.0
144
0.0
144
0.0
144
0.0
144
0.0
144
1.0
274
     2
1001
ACAD
1070
    -1
1070
     3
1070
     0
1000

1071
        0
1070
     0
  0
ACAD_PROXY_OBJECT
  5
12E
102
{ACAD_REACTORS
330
12D
102
}
330
12D
100
AcDbProxyObject
 90
      499
 91
      508
 95
       23
 70
     0
 93
      618
310
40901902A4063FBFFFFFE0000000000000020400000000000020404254DD185B99185C99000000000000000104090140501A0000000000000410000000000000004102576400000000000003903F
340
14
340
0
340
11
340
0
 94
        0
1001
ACAD_MLEADERVER
1070
     2
1001
ACAD
1000
AcRTDxfName
1000
MLEADERSTYLE
1000
AcRTDxfName
1000
MLEADERSTYLE
1000
AcRTDxfName
1000
MLEADERSTYLE
  0
MLINESTYLE
  5
7E9
102
{ACAD_REACTORS
330
17
102
}
330
17
100
AcDbMlineStyle
  2
SOLBET_IZOLACJA
 70
   272
  3

 62
   256
 51
90.0
 52
90.0
 71
     2
 49
0.008
 62
   256
  6
BYLAYER
 49
-0.008
 62
   256
  6
BYLAYER
  0
MLINESTYLE
  5
18
102
{ACAD_REACTORS
330
17
102
}
330
17
100
AcDbMlineStyle
  2
STANDARD
 70
     0
  3

 62
   256
 51
90.0
 52
90.0
 71
     2
 49
0.5
 62
   256
  6
BYLAYER
 49
-0.5
 62
   256
  6
BYLAYER
  0
ACDBPLACEHOLDER
  5
F
102
{ACAD_REACTORS
330
E
102
}
330
E
  0
ACAD_PROXY_OBJECT
  5
10D
102
{ACAD_REACTORS
330
10C
102
}
330
10C
100
AcDbProxyObject
 90
      499
 91
      507
 95
       23
 70
     0
 93
       49
310
904313A31005FF
 94
        0
1001
ACAD
1000
AcRTDxfName
1000
SCALE
1000
AcRTDxfName
1000
SCALE
1000
AcRTDxfName
1000
SCALE
  0
ACAD_PROXY_OBJECT
  5
188
102
{ACAD_REACTORS
330
10C
102
}
330
10C
100
AcDbProxyObject
 90
      499
 91
      507
 95
       23
 70
     0
 93
      113
310
904313A3200400000000000000407F
 94
        0
1001
ACAD
1000
AcRTDxfName
1000
SCALE
1000
AcRTDxfName
1000
SCALE
1000
AcRTDxfName
1000
SCALE
  0
ACAD_PROXY_OBJECT
  5
189
102
{ACAD_REACTORS
330
10C
102
}
330
10C
100
AcDbProxyObject
 90
      499
 91
      507
 95
       23
 70
     0
 93
      113
310
904313A3400400000000000010407F
 94
        0
1001
ACAD
1000
AcRTDxfName
1000
SCALE
1000
AcRTDxfName
1000
SCALE
1000
AcRTDxfName
1000
SCALE
  0
ACAD_PROXY_OBJECT
  5
18A
102
{ACAD_REACTORS
330
10C
102
}
330
10C
100
AcDbProxyObject
 90
      499
 91
      507
 95
       23
 70
     0
 93
      113
310
904313A3500400000000000014407F
 94
        0
1001
ACAD
1000
AcRTDxfName
1000
SCALE
1000
AcRTDxfName
1000
SCALE
1000
AcRTDxfName
1000
SCALE
  0
ACAD_PROXY_OBJECT
  5
18B
102
{ACAD_REACTORS
330
10C
102
}
330
10C
100
AcDbProxyObject
 90
      499
 91
      507
 95
       23
 70
     0
 93
      113
310
904313A3800400000000000020407F
 94
        0
1001
ACAD
1000
AcRTDxfName
1000
SCALE
1000
AcRTDxfName
1000
SCALE
1000
AcRTDxfName
1000
SCALE
  0
ACAD_PROXY_OBJECT
  5
18C
102
{ACAD_REACTORS
330
10C
102
}
330
10C
100
AcDbProxyObject
 90
      499
 91
      507
 95
       23
 70
     0
 93
      121
310
905313A313000400000000000024407F
 94
        0
1001
ACAD
1000
AcRTDxfName
1000
SCALE
1000
AcRTDxfName
1000
SCALE
1000
AcRTDxfName
1000
SCALE
  0
ACAD_PROXY_OBJECT
  5
18D
102
{ACAD_REACTORS
330
10C
102
}
330
10C
100
AcDbProxyObject
 90
      499
 91
      507
 95
       23
 70
     0
 93
      121
310
905313A313600400000000000030407F
 94
        0
1001
ACAD
1000
AcRTDxfName
1000
SCALE
1000
AcRTDxfName
1000
SCALE
1000
AcRTDxfName
1000
SCALE
  0
ACAD_PROXY_OBJECT
  5
18E
102
{ACAD_REACTORS
330
10C
102
}
330
10C
100
AcDbProxyObject
 90
      499
 91
      507
 95
       23
 70
     0
 93
      121
310
905313A323000400000000000034407F
 94
        0
1001
ACAD
1000
AcRTDxfName
1000
SCALE
1000
AcRTDxfName
1000
SCALE
1000
AcRTDxfName
1000
SCALE
  0
ACAD_PROXY_OBJECT
  5
18F
102
{ACAD_REACTORS
330
10C
102
}
330
10C
100
AcDbProxyObject
 90
      499
 91
      507
 95
       23
 70
     0
 93
      121
310
905313A33300040000000000003E407F
 94
        0
1001
ACAD
1000
AcRTDxfName
1000
SCALE
1000
AcRTDxfName
1000
SCALE
1000
AcRTDxfName
1000
SCALE
  0
ACAD_PROXY_OBJECT
  5
190
102
{ACAD_REACTORS
330
10C
102
}
330
10C
100
AcDbProxyObject
 90
      499
 91
      507
 95
       23
 70
     0
 93
      121
310
905313A343000400000000000044407F
 94
        0
1001
ACAD
1000
AcRTDxfName
1000
SCALE
1000
AcRTDxfName
1000
SCALE
1000
AcRTDxfName
1000
SCALE
  0
ACAD_PROXY_OBJECT
  5
191
102
{ACAD_REACTORS
330
10C
102
}
330
10C
100
AcDbProxyObject
 90
      499
 91
      507
 95
       23
 70
     0
 93
      121
310
905313A353000400000000000049407F
 94
        0
1001
ACAD
1000
AcRTDxfName
1000
SCALE
1000
AcRTDxfName
1000
SCALE
1000
AcRTDxfName
1000
SCALE
  0
ACAD_PROXY_OBJECT
  5
192
102
{ACAD_REACTORS
330
10C
102
}
330
10C
100
AcDbProxyObject
 90
      499
 91
      507
 95
       23
 70
     0
 93
      129
310
906313A31303000400000000000059407F
 94
        0
1001
ACAD
1000
AcRTDxfName
1000
SCALE
1000
AcRTDxfName
1000
SCALE
1000
AcRTDxfName
1000
SCALE
  0
ACAD_PROXY_OBJECT
  5
193
102
{ACAD_REACTORS
330
10C
102
}
330
10C
100
AcDbProxyObject
 90
      499
 91
      507
 95
       23
 70
     0
 93
      113
310
904323A3100000000000000001017F
 94
        0
1001
ACAD
1000
AcRTDxfName
1000
SCALE
1000
AcRTDxfName
1000
SCALE
1000
AcRTDxfName
1000
SCALE
  0
ACAD_PROXY_OBJECT
  5
194
102
{ACAD_REACTORS
330
10C
102
}
330
10C
100
AcDbProxyObject
 90
      499
 91
      507
 95
       23
 70
     0
 93
      113
310
904343A3100000000000000041017F
 94
        0
1001
ACAD
1000
AcRTDxfName
1000
SCALE
1000
AcRTDxfName
1000
SCALE
1000
AcRTDxfName
1000
SCALE
  0
ACAD_PROXY_OBJECT
  5
195
102
{ACAD_REACTORS
330
10C
102
}
330
10C
100
AcDbProxyObject
 90
      499
 91
      507
 95
       23
 70
     0
 93
      113
310
904383A3100000000000000081017F
 94
        0
1001
ACAD
1000
AcRTDxfName
1000
SCALE
1000
AcRTDxfName
1000
SCALE
1000
AcRTDxfName
1000
SCALE
  0
ACAD_PROXY_OBJECT
  5
196
102
{ACAD_REACTORS
330
10C
102
}
330
10C
100
AcDbProxyObject
 90
      499
 91
      507
 95
       23
 70
     0
 93
      121
310
90531303A3100000000000000091017F
 94
        0
1001
ACAD
1000
AcRTDxfName
1000
SCALE
1000
AcRTDxfName
1000
SCALE
1000
AcRTDxfName
1000
SCALE
  0
ACAD_PROXY_OBJECT
  5
197
102
{ACAD_REACTORS
330
10C
102
}
330
10C
100
AcDbProxyObject
 90
      499
 91
      507
 95
       23
 70
     0
 93
      129
310
9063130303A3100000000000000165017F
 94
        0
1001
ACAD
1000
AcRTDxfName
1000
SCALE
1000
AcRTDxfName
1000
SCALE
1000
AcRTDxfName
1000
SCALE
  0
ACAD_PROXY_OBJECT
  5
198
102
{ACAD_REACTORS
330
10C
102
}
330
10C
100
AcDbProxyObject
 90
      499
 91
      507
 95
       23
 70
     0
 93
      265
310
90F312F31323822203D2031272D302200000000000000200FC00000000000028407F
 94
        0
1001
ACAD
1000
AcRTDxfName
1000
SCALE
1000
AcRTDxfName
1000
SCALE
1000
AcRTDxfName
1000
SCALE
  0
ACAD_PROXY_OBJECT
  5
199
102
{ACAD_REACTORS
330
10C
102
}
330
10C
100
AcDbProxyObject
 90
      499
 91
      507
 95
       23
 70
     0
 93
      257
310
90E312F363422203D2031272D302200000000000000240FC00000000000028407F
 94
        0
1001
ACAD
1000
AcRTDxfName
1000
SCALE
1000
AcRTDxfName
1000
SCALE
1000
AcRTDxfName
1000
SCALE
  0
ACAD_PROXY_OBJECT
  5
19A
102
{ACAD_REACTORS
330
10C
102
}
330
10C
100
AcDbProxyObject
 90
      499
 91
      507
 95
       23
 70
     0
 93
      257
310
90E312F333222203D2031272D302200000000000000280FC00000000000028407F
 94
        0
1001
ACAD
1000
AcRTDxfName
1000
SCALE
1000
AcRTDxfName
1000
SCALE
1000
AcRTDxfName
1000
SCALE
  0
ACAD_PROXY_OBJECT
  5
19B
102
{ACAD_REACTORS
330
10C
102
}
330
10C
100
AcDbProxyObject
 90
      499
 91
      507
 95
       23
 70
     0
 93
      257
310
90E312F313622203D2031272D3022000000000000002C0FC00000000000028407F
 94
        0
1001
ACAD
1000
AcRTDxfName
1000
SCALE
1000
AcRTDxfName
1000
SCALE
1000
AcRTDxfName
1000
SCALE
  0
ACAD_PROXY_OBJECT
  5
19C
102
{ACAD_REACTORS
330
10C
102
}
330
10C
100
AcDbProxyObject
 90
      499
 91
      507
 95
       23
 70
     0
 93
      257
310
90E332F333222203D2031272D3022000000000000002E0FC00000000000028407F
 94
        0
1001
ACAD
1000
AcRTDxfName
1000
SCALE
1000
AcRTDxfName
1000
SCALE
1000
AcRTDxfName
1000
SCALE
  0
ACAD_PROXY_OBJECT
  5
19D
102
{ACAD_REACTORS
330
10C
102
}
330
10C
100
AcDbProxyObject
 90
      499
 91
      507
 95
       23
 70
     0
 93
      249
310
90D312F3822203D2031272D302200000000000000300FC00000000000028407F
 94
        0
1001
ACAD
1000
AcRTDxfName
1000
SCALE
1000
AcRTDxfName
1000
SCALE
1000
AcRTDxfName
1000
SCALE
  0
ACAD_PROXY_OBJECT
  5
19E
102
{ACAD_REACTORS
330
10C
102
}
330
10C
100
AcDbProxyObject
 90
      499
 91
      507
 95
       23
 70
     0
 93
      257
310
90E332F313622203D2031272D302200000000000000320FC00000000000028407F
 94
        0
1001
ACAD
1000
AcRTDxfName
1000
SCALE
1000
AcRTDxfName
1000
SCALE
1000
AcRTDxfName
1000
SCALE
  0
ACAD_PROXY_OBJECT
  5
19F
102
{ACAD_REACTORS
330
10C
102
}
330
10C
100
AcDbProxyObject
 90
      499
 91
      507
 95
       23
 70
     0
 93
      249
310
90D312F3422203D2031272D302200000000000000340FC00000000000028407F
 94
        0
1001
ACAD
1000
AcRTDxfName
1000
SCALE
1000
AcRTDxfName
1000
SCALE
1000
AcRTDxfName
1000
SCALE
  0
ACAD_PROXY_OBJECT
  5
1A0
102
{ACAD_REACTORS
330
10C
102
}
330
10C
100
AcDbProxyObject
 90
      499
 91
      507
 95
       23
 70
     0
 93
      249
310
90D332F3822203D2031272D302200000000000000360FC00000000000028407F
 94
        0
1001
ACAD
1000
AcRTDxfName
1000
SCALE
1000
AcRTDxfName
1000
SCALE
1000
AcRTDxfName
1000
SCALE
  0
ACAD_PROXY_OBJECT
  5
1A1
102
{ACAD_REACTORS
330
10C
102
}
330
10C
100
AcDbProxyObject
 90
      499
 91
      507
 95
       23
 70
     0
 93
      249
310
90D312F3222203D2031272D302200000000000000380FC00000000000028407F
 94
        0
1001
ACAD
1000
AcRTDxfName
1000
SCALE
1000
AcRTDxfName
1000
SCALE
1000
AcRTDxfName
1000
SCALE
  0
ACAD_PROXY_OBJECT
  5
1A2
102
{ACAD_REACTORS
330
10C
102
}
330
10C
100
AcDbProxyObject
 90
      499
 91
      507
 95
       23
 70
     0
 93
      249
310
90D332F3422203D2031272D3022000000000000003A0FC00000000000028407F
 94
        0
1001
ACAD
1000
AcRTDxfName
1000
SCALE
1000
AcRTDxfName
1000
SCALE
1000
AcRTDxfName
1000
SCALE
  0
ACAD_PROXY_OBJECT
  5
1A3
102
{ACAD_REACTORS
330
10C
102
}
330
10C
100
AcDbProxyObject
 90
      499
 91
      507
 95
       23
 70
     0
 93
      169
310
90B3122203D2031272D302200400000000000028407F
 94
        0
1001
ACAD
1000
AcRTDxfName
1000
SCALE
1000
AcRTDxfName
1000
SCALE
1000
AcRTDxfName
1000
SCALE
  0
ACAD_PROXY_OBJECT
  5
1A4
102
{ACAD_REACTORS
330
10C
102
}
330
10C
100
AcDbProxyObject
 90
      499
 91
      507
 95
       23
 70
     0
 93
      265
310
90F312D312F3222203D2031272D3022000000000000003E0FC00000000000028407F
 94
        0
1001
ACAD
1000
AcRTDxfName
1000
SCALE
1000
AcRTDxfName
1000
SCALE
1000
AcRTDxfName
1000
SCALE
  0
ACAD_PROXY_OBJECT
  5
1A5
102
{ACAD_REACTORS
330
10C
102
}
330
10C
100
AcDbProxyObject
 90
      499
 91
      507
 95
       23
 70
     0
 93
      233
310
90B3322203D2031272D3022000000000000000210000000000000028407F
 94
        0
1001
ACAD
1000
AcRTDxfName
1000
SCALE
1000
AcRTDxfName
1000
SCALE
1000
AcRTDxfName
1000
SCALE
  0
ACAD_PROXY_OBJECT
  5
1A6
102
{ACAD_REACTORS
330
10C
102
}
330
10C
100
AcDbProxyObject
 90
      499
 91
      507
 95
       23
 70
     0
 93
      233
310
90B3622203D2031272D3022000000000000000610000000000000028407F
 94
        0
1001
ACAD
1000
AcRTDxfName
1000
SCALE
1000
AcRTDxfName
1000
SCALE
1000
AcRTDxfName
1000
SCALE
  0
ACAD_PROXY_OBJECT
  5
1A7
102
{ACAD_REACTORS
330
10C
102
}
330
10C
100
AcDbProxyObject
 90
      499
 91
      507
 95
       23
 70
     0
 93
      257
310
90E31272D3022203D2031272D3022000000000000000A10000000000000028407F
 94
        0
1001
ACAD
1000
AcRTDxfName
1000
SCALE
1000
AcRTDxfName
1000
SCALE
1000
AcRTDxfName
1000
SCALE
  0
TABLESTYLE
  5
7F
102
{ACAD_XDICTIONARY
360
162
102
}
102
{ACAD_REACTORS
330
7E
102
}
330
7E
100
AcDbTableStyle
  3
Standard
 70
     0
 71
     0
 40
1.5
 41
1.5
280
     0
281
     0
  7
Standard
140
4.5
170
     2
 62
     0
 63
     7
283
     0
274
    -2
284
     1
 64
     0
275
    -2
285
     1
 65
     0
276
    -2
286
     1
 66
     0
277
    -2
287
     1
 67
     0
278
    -2
288
     1
 68
     0
279
    -2
289
     1
 69
     0
  7
Standard
140
6.0
170
     5
 62
     0
 63
     7
283
     0
274
    -2
284
     1
 64
     0
275
    -2
285
     1
 65
     0
276
    -2
286
     1
 66
     0
277
    -2
287
     1
 67
     0
278
    -2
288
     1
 68
     0
279
    -2
289
     1
 69
     0
  7
Standard
140
4.5
170
     5
 62
     0
 63
     7
283
     0
274
    -2
284
     1
 64
     0
275
    -2
285
     1
 65
     0
276
    -2
286
     1
 66
     0
277
    -2
287
     1
 67
     0
278
    -2
288
     1
 68
     0
279
    -2
289
     1
 69
     0
  0
VISUALSTYLE
  5
F5
102
{ACAD_REACTORS
330
EF
102
}
330
EF
100
AcDbVisualStyle
  2
2dWireframe
 70
     4
 71
     0
 72
     2
 73
     1
 90
        0
 40
-0.6
 41
-30.0
 62
     5
 63
     7
 74
     1
 91
        4
 64
     7
 65
   257
 75
     1
175
     1
 42
1.0
 92
        0
 66
   257
 43
1.0
 76
     1
 77
     6
 78
     2
 67
     7
 79
     5
170
     0
171
     0
290
     0
174
     0
 93
        1
 44
0.0
173
     0
291
     0
 45
0.0
1001
ACAD
1000
AcDbSavedByObjectVersion
1070
     0
  0
VISUALSTYLE
  5
F7
102
{ACAD_REACTORS
330
EF
102
}
330
EF
100
AcDbVisualStyle
  2
3D Hidden
 70
     6
 71
     1
 72
     2
 73
     2
 90
        0
 40
-0.6
 41
-30.0
 62
     5
 63
     7
 74
     2
 91
        2
 64
     7
 65
   257
 75
     2
175
     1
 42
40.0
 92
        0
 66
   257
 43
1.0
 76
     1
 77
     6
 78
     2
 67
     7
 79
     3
170
     0
171
     0
290
     0
174
     0
 93
        1
 44
0.0
173
     0
291
     0
 45
0.0
1001
ACAD
1000
AcDbSavedByObjectVersion
1070
     0
  0
VISUALSTYLE
  5
F6
102
{ACAD_REACTORS
330
EF
102
}
330
EF
100
AcDbVisualStyle
  2
3dWireframe
 70
     5
 71
     0
 72
     2
 73
     1
 90
        0
 40
-0.6
 41
-30.0
 62
     5
 63
     7
 74
     1
 91
        4
 64
     7
 65
   257
 75
     1
175
     1
 42
1.0
 92
        0
 66
   257
 43
1.0
 76
     1
 77
     6
 78
     2
 67
     7
 79
     5
170
     0
171
     0
290
     0
174
     0
 93
        1
 44
0.0
173
     0
291
     0
 45
0.0
1001
ACAD
1000
AcDbSavedByObjectVersion
1070
     0
  0
VISUALSTYLE
  5
F4
102
{ACAD_REACTORS
330
EF
102
}
330
EF
100
AcDbVisualStyle
  2
Basic
 70
     7
 71
     1
 72
     0
 73
     1
 90
        0
 40
-0.6
 41
-30.0
 62
     5
 63
     7
 74
     0
 91
        4
 64
     7
 65
   257
 75
     1
175
     1
 42
1.0
 92
        8
 66
     7
 43
1.0
 76
     1
 77
     6
 78
     2
 67
     7
 79
     5
170
     0
171
     0
290
     0
174
     0
 93
        1
 44
0.0
173
     0
291
     1
 45
0.0
1001
ACAD
1000
AcDbSavedByObjectVersion
1070
     0
  0
VISUALSTYLE
  5
FB
102
{ACAD_REACTORS
330
EF
102
}
330
EF
100
AcDbVisualStyle
  2
Brighten
 70
    12
 71
     2
 72
     2
 73
     1
 90
        0
 40
-0.6
 41
-30.0
 62
     5
 63
     7
 74
     1
 91
        4
 64
     7
 65
   257
 75
     1
175
     1
 42
1.0
 92
        8
 66
     7
 43
1.0
 76
     1
 77
     6
 78
     2
 67
     7
 79
     5
170
     0
171
     0
290
     0
174
     0
 93
        1
 44
50.0
173
     0
291
     1
 45
0.0
1001
ACAD
1000
AcDbSavedByObjectVersion
1070
     0
  0
VISUALSTYLE
  5
FF
102
{ACAD_REACTORS
330
EF
102
}
330
EF
100
AcDbVisualStyle
  2
ColorChange
 70
    16
 71
     2
 72
     2
 73
     3
 90
        0
 40
-0.6
 41
-30.0
 62
     5
 63
     8
 74
     1
 91
        4
 64
     7
 65
   257
 75
     1
175
     1
 42
1.0
 92
        8
 66
     8
 43
1.0
 76
     1
 77
     6
 78
     2
 67
     7
 79
     5
170
     0
171
     0
290
     0
174
     0
 93
        1
 44
0.0
173
     0
291
     1
 45
0.0
1001
ACAD
1000
AcDbSavedByObjectVersion
1070
     0
  0
VISUALSTYLE
  5
F8
102
{ACAD_REACTORS
330
EF
102
}
330
EF
100
AcDbVisualStyle
  2
Conceptual
 70
     9
 71
     3
 72
     2
 73
     1
 90
        0
 40
-0.6
 41
-30.0
 62
     5
 63
     7
 74
     2
 91
        2
 64
     7
 65
   257
 75
     1
175
     1
 42
40.0
 92
        8
 66
     7
 43
1.0
 76
     1
 77
     6
 78
     2
 67
     7
 79
     3
170
     0
171
     0
290
     0
174
     0
 93
        1
 44
0.0
173
     0
291
     0
 45
0.0
1001
ACAD
1000
AcDbSavedByObjectVersion
1070
     0
  0
VISUALSTYLE
  5
FA
102
{ACAD_REACTORS
330
EF
102
}
330
EF
100
AcDbVisualStyle
  2
Dim
 70
    11
 71
     2
 72
     2
 73
     1
 90
        0
 40
-0.6
 41
-30.0
 62
     5
 63
     7
 74
     1
 91
        4
 64
     7
 65
   257
 75
     1
175
     1
 42
1.0
 92
        8
 66
     7
 43
1.0
 76
     1
 77
     6
 78
     2
 67
     7
 79
     5
170
     0
171
     0
290
     0
174
     0
 93
        1
 44
-50.0
173
     0
291
     1
 45
0.0
1001
ACAD
1000
AcDbSavedByObjectVersion
1070
     0
  0
VISUALSTYLE
  5
FE
102
{ACAD_REACTORS
330
EF
102
}
330
EF
100
AcDbVisualStyle
  2
Facepattern
 70
    15
 71
     2
 72
     2
 73
     1
 90
        0
 40
-0.6
 41
-30.0
 62
     5
 63
     7
 74
     1
 91
        4
 64
     7
 65
   257
 75
     1
175
     1
 42
1.0
 92
        8
 66
     7
 43
1.0
 76
     1
 77
     6
 78
     2
 67
     7
 79
     5
170
     0
171
     0
290
     0
174
     0
 93
        1
 44
0.0
173
     0
291
     1
 45
0.0
1001
ACAD
1000
AcDbSavedByObjectVersion
1070
     0
  0
VISUALSTYLE
  5
F0
102
{ACAD_REACTORS
330
EF
102
}
330
EF
100
AcDbVisualStyle
  2
Flat
 70
     0
 71
     2
 72
     1
 73
     1
 90
        2
 40
-0.6
 41
30.0
 62
     5
 63
     7
 74
     0
 91
        4
 64
     7
 65
   257
 75
     1
175
     1
 42
1.0
 92
        8
 66
     7
 43
1.0
 76
     1
 77
     6
 78
     2
 67
     7
 79
     5
170
     0
171
     0
290
     0
174
     0
 93
        1
 44
0.0
173
     0
291
     1
 45
0.0
1001
ACAD
1000
AcDbSavedByObjectVersion
1070
     0
  0
VISUALSTYLE
  5
F1
102
{ACAD_REACTORS
330
EF
102
}
330
EF
100
AcDbVisualStyle
  2
FlatWithEdges
 70
     1
 71
     2
 72
     1
 73
     1
 90
        2
 40
-0.6
 41
30.0
 62
     5
 63
     7
 74
     1
 91
        4
 64
     7
 65
   257
 75
     1
175
     1
 42
1.0
 92
        0
 66
   257
 43
1.0
 76
     1
 77
     6
 78
     2
 67
     7
 79
     5
170
     0
171
     0
290
     0
174
     0
 93
        1
 44
0.0
173
     0
291
     1
 45
0.0
1001
ACAD
1000
AcDbSavedByObjectVersion
1070
     0
  0
VISUALSTYLE
  5
F2
102
{ACAD_REACTORS
330
EF
102
}
330
EF
100
AcDbVisualStyle
  2
Gouraud
 70
     2
 71
     2
 72
     2
 73
     1
 90
        2
 40
-0.6
 41
30.0
 62
     5
 63
     7
 74
     0
 91
        4
 64
     7
 65
   257
 75
     1
175
     1
 42
1.0
 92
        0
 66
     7
 43
1.0
 76
     1
 77
     6
 78
     2
 67
     7
 79
     5
170
     0
171
     0
290
     0
174
     0
 93
        1
 44
0.0
173
     0
291
     1
 45
0.0
1001
ACAD
1000
AcDbSavedByObjectVersion
1070
     0
  0
VISUALSTYLE
  5
F3
102
{ACAD_REACTORS
330
EF
102
}
330
EF
100
AcDbVisualStyle
  2
GouraudWithEdges
 70
     3
 71
     2
 72
     2
 73
     1
 90
        2
 40
-0.6
 41
30.0
 62
     5
 63
     7
 74
     1
 91
        4
 64
     7
 65
   257
 75
     1
175
     1
 42
1.0
 92
        0
 66
   257
 43
1.0
 76
     1
 77
     6
 78
     2
 67
     7
 79
     5
170
     0
171
     0
290
     0
174
     0
 93
        1
 44
0.0
173
     0
291
     1
 45
0.0
1001
ACAD
1000
AcDbSavedByObjectVersion
1070
     0
  0
VISUALSTYLE
  5
FD
102
{ACAD_REACTORS
330
EF
102
}
330
EF
100
AcDbVisualStyle
  2
Linepattern
 70
    14
 71
     2
 72
     2
 73
     1
 90
        0
 40
-0.6
 41
-30.0
 62
     5
 63
     7
 74
     1
 91
        4
 64
     7
 65
   257
 75
     7
175
     7
 42
1.0
 92
        8
 66
     7
 43
1.0
 76
     1
 77
     6
 78
     2
 67
     7
 79
     5
170
     0
171
     0
290
     0
174
     0
 93
        1
 44
0.0
173
     0
291
     1
 45
0.0
1001
ACAD
1000
AcDbSavedByObjectVersion
1070
     0
  0
VISUALSTYLE
  5
F9
102
{ACAD_REACTORS
330
EF
102
}
330
EF
100
AcDbVisualStyle
  2
Realistic
 70
     8
 71
     2
 72
     2
 73
     1
 90
        0
 40
-0.6
 41
-30.0
 62
     5
 63
     7
 74
     1
 91
        0
 64
     7
 65
   257
 75
     1
175
     1
 42
1.0
 92
        8
 66
     8
 43
1.0
 76
     1
 77
     6
 78
     2
 67
     7
 79
     5
170
     0
171
     0
290
     0
174
     0
 93
       13
 44
0.0
173
     0
291
     0
 45
0.0
1001
ACAD
1000
AcDbSavedByObjectVersion
1070
     0
  0
VISUALSTYLE
  5
FC
102
{ACAD_REACTORS
330
EF
102
}
330
EF
100
AcDbVisualStyle
  2
Thicken
 70
    13
 71
     2
 72
     2
 73
     1
 90
        0
 40
-0.6
 41
-30.0
 62
     5
 63
     7
 74
     1
 91
        4
 64
     7
 65
   257
 75
     1
175
     1
 42
1.0
 92
       12
 66
     7
 43
1.0
 76
     1
 77
     6
 78
     2
 67
     7
 79
     5
170
     0
171
     0
290
     0
174
     0
 93
        1
 44
0.0
173
     0
291
     1
 45
0.0
1001
ACAD
1000
AcDbSavedByObjectVersion
1070
     0
  0
DICTIONARYVAR
  5
146
102
{ACAD_REACTORS
330
5E
102
}
330
5E
100
DictionaryVariables
280
     0
  1
1:1
  0
DICTIONARYVAR
  5
145
102
{ACAD_REACTORS
330
5E
102
}
330
5E
100
DictionaryVariables
280
     0
  1
STANDARD
  0
DICTIONARYVAR
  5
84
102
{ACAD_REACTORS
330
5E
102
}
330
5E
100
DictionaryVariables
280
     0
  1
STANDARD
  0
DICTIONARYVAR
  5
5F
102
{ACAD_REACTORS
330
5E
102
}
330
5E
100
DictionaryVariables
280
     0
  1
2
  0
DICTIONARYVAR
  5
63
102
{ACAD_REACTORS
330
5E
102
}
330
5E
100
DictionaryVariables
280
     0
  1
1
  0
DICTIONARYVAR
  5
466
102
{ACAD_REACTORS
330
5E
102
}
330
5E
100
DictionaryVariables
280
     0
  1
0
  0
DICTIONARYVAR
  5
464
102
{ACAD_REACTORS
330
5E
102
}
330
5E
100
DictionaryVariables
280
     0
  1
2
  0
DICTIONARYVAR
  5
463
102
{ACAD_REACTORS
330
5E
102
}
330
5E
100
DictionaryVariables
280
     0
  1
1
  0
DICTIONARYVAR
  5
2A93
102
{ACAD_REACTORS
330
5E
102
}
330
5E
100
DictionaryVariables
280
     0
  1
80.000000
  0
DICTIONARYVAR
  5
2A92
102
{ACAD_REACTORS
330
5E
102
}
330
5E
100
DictionaryVariables
280
     0
  1
5.000000
  0
DICTIONARYVAR
  5
465
102
{ACAD_REACTORS
330
5E
102
}
330
5E
100
DictionaryVariables
280
     0
  1
127
  0
DICTIONARY
  5
2308
102
{ACAD_REACTORS
330
2307
102
}
330
2307
100
AcDbDictionary
281
     1
  0
DICTIONARY
  5
2A98
330
D3
100
AcDbDictionary
280
     1
281
     1
  3
ACAD_XREC_ROUNDTRIP
360
2A99
  0
DICTIONARY
  5
2A9A
330
D7
100
AcDbDictionary
280
     1
281
     1
  3
ACAD_XREC_ROUNDTRIP
360
2A9B
  0
DICTIONARY
  5
2A95
330
22
100
AcDbDictionary
280
     1
281
     1
  3
ACAD_XREC_ROUNDTRIP
360
2A96
  0
DICTIONARY
  5
2A9E
330
ED
100
AcDbDictionary
280
     1
281
     1
  3
ACAD_XREC_ROUNDTRIP
360
2A9F
  0
DICTIONARY
  5
2A9C
330
EC
100
AcDbDictionary
280
     1
281
     1
  3
ACAD_XREC_ROUNDTRIP
360
2A9D
  0
DICTIONARY
  5
173
330
EE
100
AcDbDictionary
280
     1
281
     1
  3
ACAD_XREC_ROUNDTRIP
360
2AA0
  3
BUMPTILE
360
175
  3
DIFFUSETILE
360
174
  3
OPACITYTILE
360
176
  3
REFLECTIONTILE
360
177
  0
DICTIONARY
  5
162
330
7F
100
AcDbDictionary
280
     1
281
     1
  3
ACAD_ROUNDTRIP_2008_TABLESTYLE_CELLSTYLEMAP
360
292C
  3
ACAD_XREC_ROUNDTRIP
360
2A97
  0
XRECORD
  5
2A99
102
{ACAD_REACTORS
330
2A98
102
}
330
2A98
100
AcDbXrecord
280
     1
102
SHADEPLOT
 70
     0
102
SHADEPLOTRESLEVEL
 70
     2
102
SHADEPLOTCUSTOMDPI
 70
   300
  0
XRECORD
  5
2A9B
102
{ACAD_REACTORS
330
2A9A
102
}
330
2A9A
100
AcDbXrecord
280
     1
102
SHADEPLOT
 70
     0
102
SHADEPLOTRESLEVEL
 70
     2
102
SHADEPLOTCUSTOMDPI
 70
   300
  0
XRECORD
  5
2A96
102
{ACAD_REACTORS
330
2A95
102
}
330
2A95
100
AcDbXrecord
280
     1
102
SHADEPLOT
 70
     0
102
SHADEPLOTRESLEVEL
 70
     2
102
SHADEPLOTCUSTOMDPI
 70
   300
  0
XRECORD
  5
2A9F
102
{ACAD_REACTORS
330
2A9E
102
}
330
2A9E
100
AcDbXrecord
280
     1
102
MATERIAL
148
0.0
149
0.0
149
0.0
 93
        0
 94
       63
282
     0
 72
     1
 77
     1
171
     1
175
     1
179
     1
273
     0
  0
XRECORD
  5
2A9D
102
{ACAD_REACTORS
330
2A9C
102
}
330
2A9C
100
AcDbXrecord
280
     1
102
MATERIAL
148
0.0
149
0.0
149
0.0
 93
        0
 94
       63
282
     0
 72
     1
 77
     1
171
     1
175
     1
179
     1
273
     0
  0
XRECORD
  5
2AA0
102
{ACAD_REACTORS
330
173
102
}
330
173
100
AcDbXrecord
280
     1
102
MATERIAL
148
0.0
149
0.0
149
0.0
 93
        0
 94
       63
282
     0
 72
     1
 77
     1
171
     1
175
     1
179
     1
273
     0
  0
XRECORD
  5
175
102
{ACAD_REACTORS
330
173
102
}
330
173
100
AcDbXrecord
280
     1
270
     1
271
     1
  0
XRECORD
  5
174
102
{ACAD_REACTORS
330
173
102
}
330
173
100
AcDbXrecord
280
     1
270
     1
271
     1
  0
XRECORD
  5
176
102
{ACAD_REACTORS
330
173
102
}
330
173
100
AcDbXrecord
280
     1
270
     1
271
     1
  0
XRECORD
  5
177
102
{ACAD_REACTORS
330
173
102
}
330
173
100
AcDbXrecord
280
     1
270
     1
271
     1
  0
ACAD_PROXY_OBJECT
  5
292C
102
{ACAD_REACTORS
330
162
102
}
330
162
100
AcDbProxyObject
 90
      499
 91
      509
 95
       23
 70
     0
 93
     5304
310
40D054060020000020000003200101A000080002A5058000000C10000000000000006101010000000000003E0FC000000000000F83F0000000000003E0FC000000000000F83F02B5E8DC0F42B1CFC0AD7A3703D0AC73F419019018000000C1003FBFFFFFE0000000000003C8FD029018000000C1003FBFFFFFE00000000000
310
03C8FD049018000000C1003FBFFFFFE0000000000003C8FD089018000000C1003FBFFFFFE0000000000003C8FD109018000000C1003FBFFFFFE0000000000003C8FD209018000000C1003FBFFFFFE0000000000003C8FD01405075F5449544C450041501A8000000C800406800020000A94160000003040000000000000012
310
40404000000000000F83F0000000000003E0FC000000000000F83F0000000000003E0FC0AD7A3703D0AC73F02B5E8DC0F42B1CFD0640640600000030400FEFFFFFF8000000000000F23F40A40600000030400FEFFFFFF8000000000000F23F41240600000030400FEFFFFFF8000000000000F23F42240600000030400FEFFF
310
FFF8000000000000F23F44240600000030400FEFFFFFF8000000000000F23F48240600000030400FEFFFFFF8000000000000F23F409014217D2115051115480105406A0000003200101A000080002A5028000000C10000000000000004901010000000000003E0FC000000000000F83F0000000000003E0FC000000000000F
310
83F02B5E8DC0F42B1CFC0AD7A3703D0AC73F419019018000000C1003FBFFFFFE0000000000003C8FD029018000000C1003FBFFFFFE0000000000003C8FD049018000000C1003FBFFFFFE0000000000003C8FD089018000000C1003FBFFFFFE0000000000003C8FD109018000000C1003FBFFFFFE0000000000003C8FD20901
310
8000000C1003FBFFFFFE0000000000003C8FD03409065F444154410000
340
11
340
14
340
14
340
14
340
14
340
14
340
14
340
11
340
14
340
14
340
14
340
14
340
14
340
14
340
11
340
14
340
14
340
14
340
14
340
14
340
14
 94
        0
1001
ACAD
1000
AcRTDxfName
1000
CELLSTYLEMAP
1000
AcRTDxfName
1000
CELLSTYLEMAP
1000
AcRTDxfName
1000
CELLSTYLEMAP
  0
XRECORD
  5
2A97
102
{ACAD_REACTORS
330
162
102
}
330
162
100
AcDbXrecord
280
     1
102
ACAD_ROUNDTRIP_PRE2007_TABLESTYLE
 90
      512
 91
        0
  1

 92
      512
 93
        0
  2

 94
      512
 95
        0
  3

  0
ENDSEC
  0
EOF
