  0
SECTION
  2
HEADER
  9
$ACADVER
  1
AC1015
  9
$ACADMAINTVER
 70
    20
  9
$DWGCODEPAGE
  3
ANSI_1250
  9
$INSBASE
 10
0.0
 20
0.0
 30
0.0
  9
$EXTMIN
 10
-0.0142781049767677
 20
-0.0071549468545982
 30
-0.0000000000000058
  9
$EXTMAX
 10
210.0062872951609
 20
297.0154663916385
 30
0.0000000000000104
  9
$LIMMIN
 10
0.1602185076262685
 20
-0.1114297788899421
  9
$LIMMAX
 10
210.1602185076262
 20
296.8885702211101
  9
$ORTHOMODE
 70
     1
  9
$REGENMODE
 70
     1
  9
$FILLMODE
 70
     1
  9
$QTEXTMODE
 70
     0
  9
$MIRRTEXT
 70
     0
  9
$LTSCALE
 40
1.0
  9
$ATTMODE
 70
     2
  9
$TEXTSIZE
 40
5.0
  9
$TRACEWID
 40
1.0
  9
$TEXTSTYLE
  7
Solbet_5
  9
$CLAYER
  8
SOLBET_Bloczki
  9
$CELTYPE
  6
ByLayer
  9
$CECOLOR
 62
   256
  9
$CELTSCALE
 40
1.0
  9
$DISPSILH
 70
     0
  9
$DIMSCALE
 40
1.0
  9
$DIMASZ
 40
2.5
  9
$DIMEXO
 40
0.0
  9
$DIMDLI
 40
3.75
  9
$DIMRND
 40
0.0
  9
$DIMDLE
 40
0.0
  9
$DIMEXE
 40
1.25
  9
$DIMTP
 40
0.0
  9
$DIMTM
 40
0.0
  9
$DIMTXT
 40
2.5
  9
$DIMCEN
 40
2.5
  9
$DIMTSZ
 40
0.0
  9
$DIMTOL
 70
     0
  9
$DIMLIM
 70
     0
  9
$DIMTIH
 70
     0
  9
$DIMTOH
 70
     0
  9
$DIMSE1
 70
     0
  9
$DIMSE2
 70
     0
  9
$DIMTAD
 70
     1
  9
$DIMZIN
 70
     8
  9
$DIMBLK
  1

  9
$DIMASO
 70
     1
  9
$DIMSHO
 70
     1
  9
$DIMPOST
  1

  9
$DIMAPOST
  1

  9
$DIMALT
 70
     0
  9
$DIMALTD
 70
     3
  9
$DIMALTF
 40
0.03937007874016
  9
$DIMLFAC
 40
1.0
  9
$DIMTOFL
 70
     1
  9
$DIMTVP
 40
0.0
  9
$DIMTIX
 70
     0
  9
$DIMSOXD
 70
     0
  9
$DIMSAH
 70
     0
  9
$DIMBLK1
  1

  9
$DIMBLK2
  1

  9
$DIMSTYLE
  2
Solbet
  9
$DIMCLRD
 70
     0
  9
$DIMCLRE
 70
     0
  9
$DIMCLRT
 70
     0
  9
$DIMTFAC
 40
1.0
  9
$DIMGAP
 40
0.625
  9
$DIMJUST
 70
     0
  9
$DIMSD1
 70
     0
  9
$DIMSD2
 70
     0
  9
$DIMTOLJ
 70
     0
  9
$DIMTZIN
 70
     8
  9
$DIMALTZ
 70
     0
  9
$DIMALTTZ
 70
     0
  9
$DIMUPT
 70
     0
  9
$DIMDEC
 70
     2
  9
$DIMTDEC
 70
     2
  9
$DIMALTU
 70
     2
  9
$DIMALTTD
 70
     3
  9
$DIMTXSTY
  7
Solbet_2_5
  9
$DIMAUNIT
 70
     0
  9
$DIMADEC
 70
     0
  9
$DIMALTRND
 40
0.0
  9
$DIMAZIN
 70
     0
  9
$DIMDSEP
 70
    44
  9
$DIMATFIT
 70
     3
  9
$DIMFRAC
 70
     0
  9
$DIMLDRBLK
  1

  9
$DIMLUNIT
 70
     2
  9
$DIMLWD
 70
    -2
  9
$DIMLWE
 70
    -2
  9
$DIMTMOVE
 70
     0
  9
$LUNITS
 70
     2
  9
$LUPREC
 70
     4
  9
$SKETCHINC
 40
1.0
  9
$FILLETRAD
 40
0.0
  9
$AUNITS
 70
     0
  9
$AUPREC
 70
     0
  9
$MENU
  1
.
  9
$ELEVATION
 40
0.0
  9
$PELEVATION
 40
0.0
  9
$THICKNESS
 40
0.0
  9
$LIMCHECK
 70
     0
  9
$CHAMFERA
 40
0.0
  9
$CHAMFERB
 40
0.0
  9
$CHAMFERC
 40
0.0
  9
$CHAMFERD
 40
0.0
  9
$SKPOLY
 70
     0
  9
$TDCREATE
 40
2454690.075573148
  9
$TDUCREATE
 40
2454690.033906482
  9
$TDUPDATE
 40
2454848.890003160
  9
$TDUUPDATE
 40
2454848.848336493
  9
$TDINDWG
 40
0.4835690972
  9
$TDUSRTIMER
 40
0.4835645718
  9
$USRTIMER
 70
     1
  9
$ANGBASE
 50
0.0
  9
$ANGDIR
 70
     0
  9
$PDMODE
 70
     0
  9
$PDSIZE
 40
0.0
  9
$PLINEWID
 40
0.0
  9
$SPLFRAME
 70
     0
  9
$SPLINETYPE
 70
     6
  9
$SPLINESEGS
 70
     8
  9
$HANDSEED
  5
275E
  9
$SURFTAB1
 70
     6
  9
$SURFTAB2
 70
     6
  9
$SURFTYPE
 70
     6
  9
$SURFU
 70
     6
  9
$SURFV
 70
     6
  9
$UCSBASE
  2

  9
$UCSNAME
  2

  9
$UCSORG
 10
0.0
 20
0.0
 30
0.0
  9
$UCSXDIR
 10
1.0
 20
0.0
 30
0.0
  9
$UCSYDIR
 10
0.0
 20
1.0
 30
0.0
  9
$UCSORTHOREF
  2

  9
$UCSORTHOVIEW
 70
     0
  9
$UCSORGTOP
 10
0.0
 20
0.0
 30
0.0
  9
$UCSORGBOTTOM
 10
0.0
 20
0.0
 30
0.0
  9
$UCSORGLEFT
 10
0.0
 20
0.0
 30
0.0
  9
$UCSORGRIGHT
 10
0.0
 20
0.0
 30
0.0
  9
$UCSORGFRONT
 10
0.0
 20
0.0
 30
0.0
  9
$UCSORGBACK
 10
0.0
 20
0.0
 30
0.0
  9
$PUCSBASE
  2

  9
$PUCSNAME
  2

  9
$PUCSORG
 10
0.0
 20
0.0
 30
0.0
  9
$PUCSXDIR
 10
1.0
 20
0.0
 30
0.0
  9
$PUCSYDIR
 10
0.0
 20
1.0
 30
0.0
  9
$PUCSORTHOREF
  2

  9
$PUCSORTHOVIEW
 70
     0
  9
$PUCSORGTOP
 10
0.0
 20
0.0
 30
0.0
  9
$PUCSORGBOTTOM
 10
0.0
 20
0.0
 30
0.0
  9
$PUCSORGLEFT
 10
0.0
 20
0.0
 30
0.0
  9
$PUCSORGRIGHT
 10
0.0
 20
0.0
 30
0.0
  9
$PUCSORGFRONT
 10
0.0
 20
0.0
 30
0.0
  9
$PUCSORGBACK
 10
0.0
 20
0.0
 30
0.0
  9
$USERI1
 70
     0
  9
$USERI2
 70
     0
  9
$USERI3
 70
     0
  9
$USERI4
 70
     0
  9
$USERI5
 70
     0
  9
$USERR1
 40
0.0
  9
$USERR2
 40
0.0
  9
$USERR3
 40
0.0
  9
$USERR4
 40
0.0
  9
$USERR5
 40
0.0
  9
$WORLDVIEW
 70
     1
  9
$SHADEDGE
 70
     3
  9
$SHADEDIF
 70
    70
  9
$TILEMODE
 70
     1
  9
$MAXACTVP
 70
    64
  9
$PINSBASE
 10
0.0
 20
0.0
 30
0.0
  9
$PLIMCHECK
 70
     0
  9
$PEXTMIN
 10
0.0
 20
0.0
 30
0.0
  9
$PEXTMAX
 10
0.0
 20
0.0
 30
0.0
  9
$PLIMMIN
 10
0.0
 20
0.0
  9
$PLIMMAX
 10
12.0
 20
9.0
  9
$UNITMODE
 70
     0
  9
$VISRETAIN
 70
     1
  9
$PLINEGEN
 70
     0
  9
$PSLTSCALE
 70
     1
  9
$TREEDEPTH
 70
  3020
  9
$CMLSTYLE
  2
SOLBET_IZOLACJA
  9
$CMLJUST
 70
     0
  9
$CMLSCALE
 40
20.0
  9
$PROXYGRAPHICS
 70
     1
  9
$MEASUREMENT
 70
     1
  9
$CELWEIGHT
370
    -1
  9
$ENDCAPS
280
     0
  9
$JOINSTYLE
280
     0
  9
$LWDISPLAY
290
     1
  9
$INSUNITS
 70
     4
  9
$HYPERLINKBASE
  1

  9
$STYLESHEET
  1

  9
$XEDIT
290
     1
  9
$CEPSNTYPE
380
     0
  9
$PSTYLEMODE
290
     1
  9
$FINGERPRINTGUID
  2
{6B12AB33-8E39-428E-8E85-461C8D99A3CB}
  9
$VERSIONGUID
  2
{02F35A17-D5FA-42FB-8979-038DDD406F05}
  9
$EXTNAMES
290
     1
  9
$PSVPSCALE
 40
0.0
  9
$OLESTARTUP
290
     0
  0
ENDSEC
  0
SECTION
  2
CLASSES
  0
CLASS
  1
ACDBDICTIONARYWDFLT
  2
AcDbDictionaryWithDefault
  3
ObjectDBX Classes
 90
        0
280
     0
281
     0
  0
CLASS
  1
ACDBPLACEHOLDER
  2
AcDbPlaceHolder
  3
ObjectDBX Classes
 90
        0
280
     0
281
     0
  0
CLASS
  1
LAYOUT
  2
AcDbLayout
  3
ObjectDBX Classes
 90
        0
280
     0
281
     0
  0
CLASS
  1
DICTIONARYVAR
  2
AcDbDictionaryVar
  3
ObjectDBX Classes
 90
        0
280
     0
281
     0
  0
CLASS
  1
TABLESTYLE
  2
AcDbTableStyle
  3
ObjectDBX Classes
 90
     4095
280
     0
281
     0
  0
CLASS
  1
MATERIAL
  2
AcDbMaterial
  3
ObjectDBX Classes
 90
     1024
280
     0
281
     0
  0
CLASS
  1
VISUALSTYLE
  2
AcDbVisualStyle
  3
ObjectDBX Classes
 90
     4095
280
     0
281
     0
  0
CLASS
  1
SCALE
  2
AcDbScale
  3
ObjectDBX Classes
 90
     1153
280
     0
281
     0
  0
CLASS
  1
MLEADERSTYLE
  2
AcDbMLeaderStyle
  3
ACDB_MLEADERSTYLE_CLASS
 90
     4095
280
     0
281
     0
  0
CLASS
  1
CELLSTYLEMAP
  2
AcDbCellStyleMap
  3
ObjectDBX Classes
 90
     1152
280
     0
281
     0
  0
CLASS
  1
DIMASSOC
  2
AcDbDimAssoc
  3
"AcDbDimAssoc|Product Desc:     AcDim ARX App For Dimension|Company:          Autodesk, Inc.|WEB Address:      www.autodesk.com"
 90
    32768
280
     0
281
     0
  0
CLASS
  1
SORTENTSTABLE
  2
AcDbSortentsTable
  3
ObjectDBX Classes
 90
        0
280
     0
281
     0
  0
CLASS
  1
MULTILEADER
  2
AcDbMLeader
  3
ACDB_MLEADER_CLASS
 90
    33793
280
     0
281
     1
  0
CLASS
  1
ACDB_MTEXTOBJECTCONTEXTDATA_CLASS
  2
AcDbMTextObjectContextData
  3
ObjectDBX Classes
 90
    33921
280
     0
281
     0
  0
ENDSEC
  0
SECTION
  2
TABLES
  0
TABLE
  2
VPORT
  5
8
102
{ACAD_XDICTIONARY
360
443
102
}
330
0
100
AcDbSymbolTable
 70
     1
  0
VPORT
  5
EA
330
8
100
AcDbSymbolTableRecord
100
AcDbViewportTableRecord
  2
*Active
 70
     0
 10
0.0
 20
0.0
 11
1.0
 21
1.0
 12
105.0729702013247
 22
148.4520183063743
 13
0.0
 23
0.0
 14
10.0
 24
10.0
 15
10.0
 25
10.0
 16
0.0
 26
0.0
 36
1.0
 17
0.0
 27
0.0
 37
0.0
 40
300.4283061279788
 41
1.74582560296846
 42
50.0
 43
0.0
 44
0.0
 50
0.0
 51
0.0
 71
     0
 72
  1000
 73
     1
 74
     3
 75
     0
 76
     0
 77
     0
 78
     0
281
     0
 65
     1
110
0.0
120
0.0
130
0.0
111
1.0
121
0.0
131
0.0
112
0.0
122
1.0
132
0.0
 79
     0
146
0.0
  0
ENDTAB
  0
TABLE
  2
LTYPE
  5
5
330
0
100
AcDbSymbolTable
 70
     3
  0
LTYPE
  5
14
330
5
100
AcDbSymbolTableRecord
100
AcDbLinetypeTableRecord
  2
ByBlock
 70
     0
  3

 72
    65
 73
     0
 40
0.0
  0
LTYPE
  5
15
330
5
100
AcDbSymbolTableRecord
100
AcDbLinetypeTableRecord
  2
ByLayer
 70
     0
  3

 72
    65
 73
     0
 40
0.0
  0
LTYPE
  5
16
330
5
100
AcDbSymbolTableRecord
100
AcDbLinetypeTableRecord
  2
Continuous
 70
     0
  3
Solid line
 72
    65
 73
     0
 40
0.0
  0
LTYPE
  5
982
330
5
100
AcDbSymbolTableRecord
100
AcDbLinetypeTableRecord
  2
BATTING
 70
     0
  3
Batting SSSSSSSSSSSSSSSSSSSSSSSSSSSSSSSSSSSSSSSSSSSSSSS
 72
    65
 73
     4
 40
10.16254
 49
0.00254
 74
     0
 49
-2.54
 74
     4
 75
   134
340
7E7
 46
2.54
 50
0.0
 44
-2.54
 45
0.0
 49
-5.08
 74
     4
 75
   134
340
7E7
 46
2.54
 50
180.0
 44
2.54
 45
0.0
 49
-2.54
 74
     0
  0
LTYPE
  5
2317
330
5
100
AcDbSymbolTableRecord
100
AcDbLinetypeTableRecord
  2
DASHED2
 70
     0
  3
Dashed (.5x) _ _ _ _ _ _ _ _ _ _ _ _ _ _ _ _ _
 72
    65
 73
     2
 40
9.524999999999998
 49
6.349999999999999
 74
     0
 49
-3.174999999999999
 74
     0
  0
ENDTAB
  0
TABLE
  2
LAYER
  5
2
102
{ACAD_XDICTIONARY
360
3E5
102
}
330
0
100
AcDbSymbolTable
 70
    13
  0
LAYER
  5
10
102
{ACAD_XDICTIONARY
360
13C
102
}
330
2
100
AcDbSymbolTableRecord
100
AcDbLayerTableRecord
  2
0
 70
     0
 62
     7
  6
Continuous
370
    -3
390
F
  0
LAYER
  5
2BB
330
2
100
AcDbSymbolTableRecord
100
AcDbLayerTableRecord
  2
DEFPOINTS
 70
     0
 62
     7
  6
Continuous
290
     0
370
    -3
390
F
  0
LAYER
  5
3DD
102
{ACAD_XDICTIONARY
360
403
102
}
330
2
100
AcDbSymbolTableRecord
100
AcDbLayerTableRecord
  2
SOLBET_Bloczki
 70
     0
 62
   140
  6
Continuous
370
    -3
390
F
1001
AcAecLayerStandard
1000

1000

  0
LAYER
  5
3DF
102
{ACAD_XDICTIONARY
360
405
102
}
330
2
100
AcDbSymbolTableRecord
100
AcDbLayerTableRecord
  2
SOLBET_Wymiary_Opisy
 70
     0
 62
     1
  6
Continuous
370
    -3
390
F
1001
AcAecLayerStandard
1000

1000

  0
LAYER
  5
3E0
102
{ACAD_XDICTIONARY
360
407
102
}
330
2
100
AcDbSymbolTableRecord
100
AcDbLayerTableRecord
  2
SOLBET_Beton
 70
     0
 62
     9
  6
Continuous
370
    -3
390
F
1001
AcAecLayerStandard
1000

1000

  0
LAYER
  5
3E1
102
{ACAD_XDICTIONARY
360
409
102
}
330
2
100
AcDbSymbolTableRecord
100
AcDbLayerTableRecord
  2
SOLBET_Izolacja
 70
     0
 62
    40
  6
Continuous
370
    -3
390
F
1001
AcAecLayerStandard
1000

1000

  0
LAYER
  5
3E4
102
{ACAD_XDICTIONARY
360
40F
102
}
330
2
100
AcDbSymbolTableRecord
100
AcDbLayerTableRecord
  2
SOLBET_Tynki_Posadzki
 70
     0
 62
     3
  6
Continuous
370
    -3
390
F
1001
AcAecLayerStandard
1000

1000

  0
LAYER
  5
3E8
102
{ACAD_XDICTIONARY
360
411
102
}
330
2
100
AcDbSymbolTableRecord
100
AcDbLayerTableRecord
  2
SOLBET_Ramka_05
 70
     0
 62
     2
  6
Continuous
370
    -3
390
F
1001
AcAecLayerStandard
1000

1000

  0
LAYER
  5
472
330
2
100
AcDbSymbolTableRecord
100
AcDbLayerTableRecord
  2
SOLBET_Zaprawy
 70
     0
 62
     4
  6
Continuous
370
    -3
390
F
1001
AcAecLayerStandard
1000

1000

  0
LAYER
  5
4E2
330
2
100
AcDbSymbolTableRecord
100
AcDbLayerTableRecord
  2
SOLBET_Emulsje_Folie
 70
     0
 62
     6
  6
Continuous
370
    -3
390
F
1001
AcAecLayerStandard
1000

1000

  0
LAYER
  5
2318
330
2
100
AcDbSymbolTableRecord
100
AcDbLayerTableRecord
  2
SOLBET_Zbrojenie_Konstrukcja
 70
     0
 62
     7
  6
Continuous
370
    -3
390
F
1001
AcAecLayerStandard
1000

1000

  0
LAYER
  5
231A
330
2
100
AcDbSymbolTableRecord
100
AcDbLayerTableRecord
  2
SOLBET_Grunt
 70
     0
 62
    42
  6
Continuous
370
    -3
390
F
1001
AcAecLayerStandard
1000

1000

  0
LAYER
  5
2698
102
{ACAD_XDICTIONARY
360
2699
102
}
330
2
100
AcDbSymbolTableRecord
100
AcDbLayerTableRecord
  2
SOLBET_Wymiary_Opisy @ 1
 70
     0
 62
     1
  6
Continuous
370
    -3
390
F
1001
AcAecLayerStandard
1000

1000

1001
AcadAnnotativeDecomposition
1000
AnnotativeData
1002
{
1070
     1
1070
     1
1002
}
  0
ENDTAB
  0
TABLE
  2
STYLE
  5
3
330
0
100
AcDbSymbolTable
 70
     5
  0
STYLE
  5
11
330
3
100
AcDbSymbolTableRecord
100
AcDbTextStyleTableRecord
  2
Standard
 70
     0
 40
0.0
 41
1.0
 50
0.0
 71
     0
 42
2.5
  3
txt.shx
  4

  0
STYLE
  5
7D7
330
3
100
AcDbSymbolTableRecord
100
AcDbTextStyleTableRecord
  2
Solbet_5
 70
     0
 40
5.0
 41
1.0
 50
0.0
 71
     0
 42
5.0
  3
isocpeur.ttf
  4

1001
ACAD
1000
ISOCPEUR
1071
       34
  0
STYLE
  5
7D9
330
3
100
AcDbSymbolTableRecord
100
AcDbTextStyleTableRecord
  2
Solbet_2_5
 70
     0
 40
2.5
 41
1.0
 50
0.0
 71
     0
 42
2.5
  3
isocpeur.ttf
  4

1001
ACAD
1000
ISOCPEUR
1071
       34
  0
STYLE
  5
7E7
330
3
100
AcDbSymbolTableRecord
100
AcDbTextStyleTableRecord
  2

 70
     1
 40
0.0
 41
1.0
 50
0.0
 71
     0
 42
2.5
  3
ltypeshp.shx
  4

  0
STYLE
  5
2121
330
3
100
AcDbSymbolTableRecord
100
AcDbTextStyleTableRecord
  2
Solbet_1
 70
     0
 40
1.0
 41
1.0
 50
0.0
 71
     0
 42
2.5
  3
isocpeur.ttf
  4

1001
ACAD
1000
ISOCPEUR
1071
       34
  0
ENDTAB
  0
TABLE
  2
VIEW
  5
6
330
0
100
AcDbSymbolTable
 70
     0
  0
ENDTAB
  0
TABLE
  2
UCS
  5
7
330
0
100
AcDbSymbolTable
 70
     0
  0
ENDTAB
  0
TABLE
  2
APPID
  5
9
330
0
100
AcDbSymbolTable
 70
    13
  0
APPID
  5
12
330
9
100
AcDbSymbolTableRecord
100
AcDbRegAppTableRecord
  2
ACAD
 70
     0
  0
APPID
  5
9E
330
9
100
AcDbSymbolTableRecord
100
AcDbRegAppTableRecord
  2
ACAD_PSEXT
 70
     0
  0
APPID
  5
133
330
9
100
AcDbSymbolTableRecord
100
AcDbRegAppTableRecord
  2
AcadAnnoPO
 70
     0
  0
APPID
  5
134
330
9
100
AcDbSymbolTableRecord
100
AcDbRegAppTableRecord
  2
AcadAnnotative
 70
     0
  0
APPID
  5
135
330
9
100
AcDbSymbolTableRecord
100
AcDbRegAppTableRecord
  2
ACAD_DSTYLE_DIMJAG
 70
     0
  0
APPID
  5
136
330
9
100
AcDbSymbolTableRecord
100
AcDbRegAppTableRecord
  2
ACAD_DSTYLE_DIMTALN
 70
     0
  0
APPID
  5
165
330
9
100
AcDbSymbolTableRecord
100
AcDbRegAppTableRecord
  2
ACAD_MLEADERVER
 70
     0
  0
APPID
  5
2C4
330
9
100
AcDbSymbolTableRecord
100
AcDbRegAppTableRecord
  2
ASO_SCHRAFF
 70
     0
  0
APPID
  5
3DE
330
9
100
AcDbSymbolTableRecord
100
AcDbRegAppTableRecord
  2
AcAecLayerStandard
 70
     0
  0
APPID
  5
7DE
330
9
100
AcDbSymbolTableRecord
100
AcDbRegAppTableRecord
  2
ACAD_EXEMPT_FROM_CAD_STANDARDS
 70
     0
  0
APPID
  5
948
330
9
100
AcDbSymbolTableRecord
100
AcDbRegAppTableRecord
  2
ACAD_DSTYLE_DIMBREAK
 70
     0
  0
APPID
  5
1D0A
330
9
100
AcDbSymbolTableRecord
100
AcDbRegAppTableRecord
  2
AcadAnnotativeDecomposition
 70
     0
  0
APPID
  5
2122
330
9
100
AcDbSymbolTableRecord
100
AcDbRegAppTableRecord
  2
AcDbAttr
 70
     0
  0
ENDTAB
  0
TABLE
  2
DIMSTYLE
  5
A
330
0
100
AcDbSymbolTable
 70
     2
100
AcDbDimStyleTable
 71
     1
340
949
  0
DIMSTYLE
105
949
330
A
100
AcDbSymbolTableRecord
100
AcDbDimStyleTableRecord
  2
Solbet
 70
     0
 41
2.5
 42
0.0
 43
3.75
 44
1.25
 73
     0
 74
     0
 77
     1
 78
     8
140
2.5
141
2.5
143
0.03937007874016
147
0.625
171
     3
172
     1
271
     2
272
     2
274
     3
278
    44
283
     0
284
     8
340
7D9
1001
ACAD_DSTYLE_DIMBREAK
1070
   391
1040
3.75
1001
ACAD_DSTYLE_DIMJAG
1070
   388
1040
1.5
1001
ACAD_DSTYLE_DIMTALN
1070
   392
1070
     0
  0
DIMSTYLE
105
954
330
A
100
AcDbSymbolTableRecord
100
AcDbDimStyleTableRecord
  2
Solbet$7
 70
     0
 41
2.5
 42
0.0
 43
3.75
 44
1.25
 73
     0
 74
     0
 77
     1
 78
     8
140
2.5
141
2.5
143
0.03937007874016
147
0.625
171
     3
172
     1
271
     2
272
     2
274
     3
278
    44
283
     0
284
     8
340
7D9
341
958
1001
ACAD_DSTYLE_DIMBREAK
1070
   391
1040
3.75
1001
ACAD_DSTYLE_DIMJAG
1070
   388
1040
1.5
1001
ACAD_DSTYLE_DIMTALN
1070
   392
1070
     0
  0
ENDTAB
  0
TABLE
  2
BLOCK_RECORD
  5
1
330
0
100
AcDbSymbolTable
 70
     7
  0
BLOCK_RECORD
  5
1F
102
{ACAD_XDICTIONARY
360
4A3
102
}
330
1
100
AcDbSymbolTableRecord
100
AcDbBlockTableRecord
  2
*Model_Space
340
22
  0
BLOCK_RECORD
  5
D2
330
1
100
AcDbSymbolTableRecord
100
AcDbBlockTableRecord
  2
*Paper_Space
340
D3
  0
BLOCK_RECORD
  5
D6
330
1
100
AcDbSymbolTableRecord
100
AcDbBlockTableRecord
  2
*Paper_Space0
340
D7
  0
BLOCK_RECORD
  5
958
330
1
100
AcDbSymbolTableRecord
100
AcDbBlockTableRecord
  2
_DotSmall
340
0
102
{BLKREFS
331
21A1
331
21A5
331
2572
331
2576
331
2578
331
2583
102
}
  0
BLOCK_RECORD
  5
2135
102
{ACAD_XDICTIONARY
360
2140
102
}
330
1
100
AcDbSymbolTableRecord
100
AcDbBlockTableRecord
  2
SOLBET_Bloczek_OPTIMAL_120x240x590_brak_PRA
340
0
1001
ACAD
1000
DesignCenter Data
1002
{
1070
     1
1070
     4
1002
}
  0
BLOCK_RECORD
  5
2304
330
1
100
AcDbSymbolTableRecord
100
AcDbBlockTableRecord
  2
_None
340
0
  0
BLOCK_RECORD
  5
2307
102
{ACAD_XDICTIONARY
360
2308
102
}
330
1
100
AcDbSymbolTableRecord
100
AcDbBlockTableRecord
  2
SOLBET_Bloczek_Ideal_420x240x590_P+W_PRA
340
0
1001
ACAD
1000
DesignCenter Data
1002
{
1070
     1
1070
     4
1002
}
  0
BLOCK_RECORD
  5
26CD
102
{ACAD_XDICTIONARY
360
26D8
102
}
330
1
100
AcDbSymbolTableRecord
100
AcDbBlockTableRecord
  2
SOLBET_Bloczek_Optimal_120x240x590_G_KG700_PRA
340
0
102
{BLKREFS
331
26DC
331
26DE
331
26DF
331
26E0
331
26E1
102
}
1001
ACAD
1000
DesignCenter Data
1002
{
1070
     1
1070
     4
1002
}
  0
ENDTAB
  0
ENDSEC
  0
SECTION
  2
BLOCKS
  0
BLOCK
  5
20
330
1F
100
AcDbEntity
  8
0
100
AcDbBlockBegin
  2
*Model_Space
 70
     0
 10
0.0
 20
0.0
 30
0.0
  3
*Model_Space
  1

  0
ENDBLK
  5
21
330
1F
100
AcDbEntity
  8
0
100
AcDbBlockEnd
  0
BLOCK
  5
D4
330
D2
100
AcDbEntity
 67
     1
  8
0
100
AcDbBlockBegin
  2
*Paper_Space
 70
     0
 10
0.0
 20
0.0
 30
0.0
  3
*Paper_Space
  1

  0
ENDBLK
  5
D5
330
D2
100
AcDbEntity
 67
     1
  8
0
100
AcDbBlockEnd
  0
BLOCK
  5
D8
330
D6
100
AcDbEntity
 67
     1
  8
0
100
AcDbBlockBegin
  2
*Paper_Space0
 70
     0
 10
0.0
 20
0.0
 30
0.0
  3
*Paper_Space0
  1

  0
ENDBLK
  5
D9
330
D6
100
AcDbEntity
 67
     1
  8
0
100
AcDbBlockEnd
  0
BLOCK
  5
95A
330
958
100
AcDbEntity
  8
0
100
AcDbBlockBegin
  2
_DotSmall
 70
     0
 10
0.0
 20
0.0
 30
0.0
  3
_DotSmall
  1

  0
LWPOLYLINE
  5
959
330
958
100
AcDbEntity
  8
0
  6
ByBlock
 62
     0
100
AcDbPolyline
 90
        2
 70
     1
 43
0.5
 10
-0.0625
 20
0.0
 42
1.0
 10
0.0625
 20
0.0
 42
1.0
  0
ENDBLK
  5
95B
330
958
100
AcDbEntity
  8
0
100
AcDbBlockEnd
  0
BLOCK
  5
2142
330
2135
100
AcDbEntity
  8
0
100
AcDbBlockBegin
  2
SOLBET_Bloczek_OPTIMAL_120x240x590_brak_PRA
 70
     2
 10
0.0
 20
0.0
 30
0.0
  3
SOLBET_Bloczek_OPTIMAL_120x240x590_brak_PRA
  1

  0
ATTDEF
  5
2136
330
2135
100
AcDbEntity
  8
SOLBET_Wymiary_Opisy
100
AcDbText
 10
-0.000000150103233
 20
2.598190964365766
 30
0.0
 40
0.5444803754078297
  1
120x240x590
  7
Solbet_1
100
AcDbAttributeDefinition
  3

  2
WYMIARY
 70
     3
1001
AcDbAttr
1070
     0
1070
     1
  0
ATTDEF
  5
2137
330
2135
100
AcDbEntity
  8
SOLBET_Wymiary_Opisy
100
AcDbText
 10
-0.000000150103233
 20
1.767436344358767
 30
0.0
 40
0.5444803754078297
  1
400, 600, 700
  7
Solbet_1
100
AcDbAttributeDefinition
  3

  2
KLASA_GĘSTOŚCI
 70
     9
1001
AcDbAttr
1070
     0
1070
     1
  0
ATTDEF
  5
2138
330
2135
100
AcDbEntity
  8
SOLBET_Wymiary_Opisy
100
AcDbText
 10
-0.0000000264364354
 20
0.1344924945601741
 30
0.0
 40
0.5444803754078297
  1
SOLBET
  7
Solbet_1
100
AcDbAttributeDefinition
  3

  2
FIRMA
 70
     3
1001
AcDbAttr
1070
     0
1070
     1
  0
ATTDEF
  5
2139
330
2135
100
AcDbEntity
  8
SOLBET_Wymiary_Opisy
100
AcDbText
 10
-0.000000150103233
 20
4.262595413219882
 30
0.0
 40
0.5444803754078297
  1
Bloczek
  7
Solbet_1
100
AcDbAttributeDefinition
  3
Nazwa
  2
NAZWA
 70
     3
1001
AcDbAttr
1070
     0
1070
     1
  0
ATTDEF
  5
213A
330
2135
100
AcDbEntity
  8
SOLBET_Wymiary_Opisy
100
AcDbText
 10
-0.000000150103233
 20
3.417269806407621
 30
0.0
 40
0.5444803754078297
  1
SOLBET OPTIMAL
  7
Solbet_1
100
AcDbAttributeDefinition
  3

  2
SYSTEM
 70
     3
1001
AcDbAttr
1070
     0
1070
     1
  0
ATTDEF
  5
213B
330
2135
100
AcDbEntity
  8
SOLBET_Wymiary_Opisy
100
AcDbText
 10
-0.0000000264364354
 20
0.95799553093567
 30
0.0
 40
0.5444803754078297
  1
Prawo
  7
Solbet_1
100
AcDbAttributeDefinition
  3

  2
WIDOK
 70
    11
1001
AcDbAttr
1070
     0
1070
     1
  0
LINE
  5
213C
330
2135
100
AcDbEntity
  8
SOLBET_Bloczki
100
AcDbLine
 10
5.999999849896539
 20
0.0000000056816134
 30
0.0
 11
5.999999849896767
 21
12.00000000568173
 31
0.0
  0
LINE
  5
213D
330
2135
100
AcDbEntity
  8
SOLBET_Bloczki
100
AcDbLine
 10
5.999999849896767
 20
12.00000000568173
 30
0.0
 11
-0.000000150103233
 21
12.00000000568173
 31
0.0
  0
LINE
  5
213E
330
2135
100
AcDbEntity
  8
SOLBET_Bloczki
100
AcDbLine
 10
-0.000000150103233
 20
12.00000000568173
 30
0.0
 11
-0.000000150103233
 21
0.0000000056818408
 31
0.0
  0
LINE
  5
213F
330
2135
100
AcDbEntity
  8
SOLBET_Bloczki
100
AcDbLine
 10
-0.000000150103233
 20
0.0000000056818408
 30
0.0
 11
5.999999849896539
 21
0.0000000056817271
 31
0.0
  0
ENDBLK
  5
2143
330
2135
100
AcDbEntity
  8
0
100
AcDbBlockEnd
  0
BLOCK
  5
2305
330
2304
100
AcDbEntity
  8
0
100
AcDbBlockBegin
  2
_None
 70
     0
 10
0.0
 20
0.0
 30
0.0
  3
_None
  1

  0
ENDBLK
  5
2306
330
2304
100
AcDbEntity
  8
0
100
AcDbBlockEnd
  0
BLOCK
  5
230A
330
2307
100
AcDbEntity
  8
0
100
AcDbBlockBegin
  2
SOLBET_Bloczek_Ideal_420x240x590_P+W_PRA
 70
     2
 10
0.0
 20
0.0
 30
0.0
  3
SOLBET_Bloczek_Ideal_420x240x590_P+W_PRA
  1

  0
ATTDEF
  5
230B
330
2307
100
AcDbEntity
  8
SOLBET_Wymiary_Opisy
100
AcDbText
 10
-0.0000000703746536
 20
6.303237281370451
 30
0.0
 40
0.9913121336814832
  1
420x240x590
  7
Solbet_1
100
AcDbAttributeDefinition
  3

  2
WYMIARY
 70
     3
1001
AcDbAttr
1070
     0
1070
     1
  0
ATTDEF
  5
230C
330
2307
100
AcDbEntity
  8
SOLBET_Wymiary_Opisy
100
AcDbText
 10
-0.0000000703746536
 20
4.790717873654354
 30
0.0
 40
0.9913121336814832
  1
400
  7
Solbet_1
100
AcDbAttributeDefinition
  3

  2
KLASA_GĘSTOŚCI
 70
     9
1001
AcDbAttr
1070
     0
1070
     1
  0
ATTDEF
  5
230D
330
2307
100
AcDbEntity
  8
SOLBET_Wymiary_Opisy
100
AcDbText
 10
-0.0000000703746536
 20
3.269569038442127
 30
0.0
 40
0.9913121336814832
  1
Pióra+Wpusty
  7
Solbet_1
100
AcDbAttributeDefinition
  3

  2
PROFILOWANIE
 70
     3
1001
AcDbAttr
1070
     0
1070
     1
  0
ATTDEF
  5
230E
330
2307
100
AcDbEntity
  8
SOLBET_Wymiary_Opisy
100
AcDbText
 10
-0.0000000703746536
 20
0.2448646291013483
 30
0.0
 40
0.9913121336814832
  1
SOLBET
  7
Solbet_1
100
AcDbAttributeDefinition
  3

  2
FIRMA
 70
     3
1001
AcDbAttr
1070
     0
1070
     1
  0
ATTDEF
  5
230F
330
2307
100
AcDbEntity
  8
SOLBET_Wymiary_Opisy
100
AcDbText
 10
-0.0000000703746536
 20
9.333547279718283
 30
0.0
 40
0.9913121336814832
  1
Bloczek
  7
Solbet_1
100
AcDbAttributeDefinition
  3
Nazwa
  2
NAZWA
 70
     3
1001
AcDbAttr
1070
     0
1070
     1
  0
ATTDEF
  5
2310
330
2307
100
AcDbEntity
  8
SOLBET_Wymiary_Opisy
100
AcDbText
 10
-0.0000000703746536
 20
7.794499099484078
 30
0.0
 40
0.9913121336814832
  1
SOLBET IDEAL
  7
Solbet_1
100
AcDbAttributeDefinition
  3

  2
SYSTEM
 70
     3
1001
AcDbAttr
1070
     0
1070
     1
  0
ATTDEF
  5
2311
330
2307
100
AcDbEntity
  8
SOLBET_Wymiary_Opisy
100
AcDbText
 10
-0.0000000703746536
 20
1.74418138862846
 30
0.0
 40
0.9913121336814832
  1
Prawo
  7
Solbet_1
100
AcDbAttributeDefinition
  3

  2
WIDOK
 70
    11
1001
AcDbAttr
1070
     0
1070
     1
  0
LINE
  5
2312
330
2307
100
AcDbEntity
  8
SOLBET_Bloczki
100
AcDbLine
 10
21.00000014074931
 20
12.00000020414847
 30
0.0
 11
21.00000014074931
 21
0.000000204148364
 31
0.0
  0
LINE
  5
2313
330
2307
100
AcDbEntity
  8
SOLBET_Bloczki
100
AcDbLine
 10
21.00000014074931
 20
12.00000020414847
 30
0.0
 11
0.0000001407493072
 21
12.00000020414847
 31
0.0
  0
LINE
  5
2314
330
2307
100
AcDbEntity
  8
SOLBET_Bloczki
100
AcDbLine
 10
0.0000001407493072
 20
12.00000020414847
 30
0.0
 11
0.0000001407493072
 21
0.000000204148364
 31
0.0
  0
LINE
  5
2315
330
2307
100
AcDbEntity
  8
SOLBET_Bloczki
100
AcDbLine
 10
0.0000001407493072
 20
0.000000204148364
 30
0.0
 11
21.00000014074931
 21
0.000000204148364
 31
0.0
  0
ENDBLK
  5
2316
330
2307
100
AcDbEntity
  8
0
100
AcDbBlockEnd
  0
BLOCK
  5
26DA
330
26CD
100
AcDbEntity
  8
0
100
AcDbBlockBegin
  2
SOLBET_Bloczek_Optimal_120x240x590_G_KG700_PRA
 70
     2
 10
0.0
 20
0.0
 30
0.0
  3
SOLBET_Bloczek_Optimal_120x240x590_G_KG700_PRA
  1

  0
ATTDEF
  5
26CE
330
26CD
100
AcDbEntity
  8
SOLBET_Wymiary_Opisy
100
AcDbText
 10
-0.000000150103233
 20
2.598190964365766
 30
0.0
 40
0.5444803754078297
  1
120x240x590
  7
Solbet_1
100
AcDbAttributeDefinition
  3

  2
WYMIARY
 70
    11
1001
AcDbAttr
1070
     0
1070
     1
  0
ATTDEF
  5
26CF
330
26CD
100
AcDbEntity
  8
SOLBET_Wymiary_Opisy
100
AcDbText
 10
-0.000000150103233
 20
1.767436344358767
 30
0.0
 40
0.5444803754078297
  1
700
  7
Solbet_1
100
AcDbAttributeDefinition
  3

  2
KLASA_GĘSTOŚCI
 70
    11
1001
AcDbAttr
1070
     0
1070
     1
  0
ATTDEF
  5
26D0
330
26CD
100
AcDbEntity
  8
SOLBET_Wymiary_Opisy
100
AcDbText
 10
-0.0000000264364354
 20
0.1344924945601741
 30
0.0
 40
0.5444803754078297
  1
SOLBET
  7
Solbet_1
100
AcDbAttributeDefinition
  3

  2
FIRMA
 70
    11
1001
AcDbAttr
1070
     0
1070
     1
  0
ATTDEF
  5
26D1
330
26CD
100
AcDbEntity
  8
SOLBET_Wymiary_Opisy
100
AcDbText
 10
-0.000000150103233
 20
4.262595413219882
 30
0.0
 40
0.5444803754078297
  1
Bloczek
  7
Solbet_1
100
AcDbAttributeDefinition
  3
Nazwa
  2
NAZWA
 70
    11
1001
AcDbAttr
1070
     0
1070
     1
  0
ATTDEF
  5
26D2
330
26CD
100
AcDbEntity
  8
SOLBET_Wymiary_Opisy
100
AcDbText
 10
-0.000000150103233
 20
3.417269806407621
 30
0.0
 40
0.5444803754078297
  1
SOLBET Optimal
  7
Solbet_1
100
AcDbAttributeDefinition
  3

  2
SYSTEM
 70
    11
1001
AcDbAttr
1070
     0
1070
     1
  0
ATTDEF
  5
26D3
330
26CD
100
AcDbEntity
  8
SOLBET_Wymiary_Opisy
100
AcDbText
 10
-0.0000000264364354
 20
0.95799553093567
 30
0.0
 40
0.5444803754078297
  1
Prawo
  7
Solbet_1
100
AcDbAttributeDefinition
  3

  2
WIDOK
 70
    11
1001
AcDbAttr
1070
     0
1070
     1
  0
LINE
  5
26D4
330
26CD
100
AcDbEntity
  8
SOLBET_Bloczki
100
AcDbLine
 10
5.999999849896539
 20
0.0000000056816134
 30
0.0
 11
5.999999849896767
 21
12.00000000568173
 31
0.0
  0
LINE
  5
26D5
330
26CD
100
AcDbEntity
  8
SOLBET_Bloczki
100
AcDbLine
 10
5.999999849896767
 20
12.00000000568173
 30
0.0
 11
-0.000000150103233
 21
12.00000000568173
 31
0.0
  0
LINE
  5
26D6
330
26CD
100
AcDbEntity
  8
SOLBET_Bloczki
100
AcDbLine
 10
-0.000000150103233
 20
12.00000000568173
 30
0.0
 11
-0.000000150103233
 21
0.0000000056818408
 31
0.0
  0
LINE
  5
26D7
330
26CD
100
AcDbEntity
  8
SOLBET_Bloczki
100
AcDbLine
 10
-0.000000150103233
 20
0.0000000056818408
 30
0.0
 11
5.999999849896539
 21
0.0000000056817271
 31
0.0
  0
ENDBLK
  5
26DB
330
26CD
100
AcDbEntity
  8
0
100
AcDbBlockEnd
  0
ENDSEC
  0
SECTION
  2
ENTITIES
  0
LINE
  5
20C6
330
1F
100
AcDbEntity
  8
SOLBET_Beton
100
AcDbLine
 10
33.61903941511628
 20
181.1637066708718
 30
0.0
 11
80.49871738852743
 21
181.1637066708718
 31
0.0
  0
LINE
  5
20C7
330
1F
100
AcDbEntity
  8
SOLBET_Wymiary_Opisy
100
AcDbLine
 10
80.49871738852743
 20
189.3316466226589
 30
0.0
 11
80.49871738852743
 21
165.4362247852951
 31
0.0
  0
LINE
  5
20C8
330
1F
100
AcDbEntity
  8
SOLBET_Wymiary_Opisy
100
AcDbLine
 10
51.87969831101873
 20
210.8793582715535
 30
0.0
 11
62.23805849261771
 21
210.8793582715535
 31
0.0
  0
LINE
  5
20C9
330
1F
100
AcDbEntity
  8
SOLBET_Tynki_Posadzki
100
AcDbLine
 10
61.35495142548098
 20
187.0370135044269
 30
0.0
 11
61.35495142548098
 21
186.5370135044251
 31
0.0
  0
ARC
  5
20CA
330
1F
100
AcDbEntity
  8
SOLBET_Tynki_Posadzki
100
AcDbCircle
 10
60.55688523429489
 20
187.0370135044269
 30
0.0
 40
1.5000521396288
100
AcDbArc
 50
0.0
 51
90.0
  0
LINE
  5
20CC
330
1F
100
AcDbEntity
  8
SOLBET_Izolacja
  6
Continuous
100
AcDbLine
 10
61.05688523429489
 20
186.5370135044251
 30
0.0
 11
60.0568852342949
 21
186.5370135044251
 31
0.0
  0
LINE
  5
20CD
330
1F
100
AcDbEntity
  8
SOLBET_Izolacja
  6
Continuous
100
AcDbLine
 10
60.0568852342949
 20
186.5370135044251
 30
0.0
 11
60.0568852342949
 21
181.1637066708718
 31
0.0
  0
LINE
  5
20CE
330
1F
100
AcDbEntity
  8
SOLBET_Izolacja
  6
Continuous
100
AcDbLine
 10
61.05688523429489
 20
181.1637066708718
 30
0.0
 11
60.0568852342949
 21
181.1637066708718
 31
0.0
  0
LINE
  5
20CF
330
1F
100
AcDbEntity
  8
SOLBET_Tynki_Posadzki
100
AcDbLine
 10
61.35495142548098
 20
187.0370135044269
 30
0.0
 11
80.49871738852743
 21
187.0370135044269
 31
0.0
  0
LINE
  5
20D2
330
1F
100
AcDbEntity
  8
SOLBET_Izolacja
  6
Continuous
100
AcDbLine
 10
61.05688523429489
 20
181.1637066708718
 30
0.0
 11
61.05688523429489
 21
186.5370135044251
 31
0.0
  0
LINE
  5
20D3
330
1F
100
AcDbEntity
  8
SOLBET_Izolacja
  6
Continuous
100
AcDbLine
 10
61.05688523429489
 20
183.6637066708719
 30
0.0
 11
80.49871738852743
 21
183.6637066708719
 31
0.0
  0
LINE
  5
20D4
330
1F
100
AcDbEntity
  8
SOLBET_Tynki_Posadzki
100
AcDbLine
 10
60.55688523429489
 20
186.5370135044251
 30
0.0
 11
60.55688523429489
 21
210.8793582715535
 31
0.0
  0
LINE
  5
20D5
330
1F
100
AcDbEntity
  8
SOLBET_Izolacja
  6
Continuous
100
AcDbLine
 10
60.55688523429489
 20
181.1637066708718
 30
0.0
 11
80.49871738852743
 21
181.1637066708718
 31
0.0
  0
LINE
  5
20D6
330
1F
100
AcDbEntity
  8
SOLBET_Emulsje_Folie
100
AcDbLine
 10
61.17170128396174
 20
186.7870135044269
 30
0.0
 11
61.17170128396174
 21
184.1095459844419
 31
0.0
  0
LINE
  5
20D7
330
1F
100
AcDbEntity
  8
SOLBET_Emulsje_Folie
100
AcDbLine
 10
61.42170128396173
 20
183.8595459844438
 30
0.0
 11
80.49871738852743
 21
183.8595459844438
 31
0.0
  0
ARC
  5
20D8
330
1F
100
AcDbEntity
  8
SOLBET_Emulsje_Folie
100
AcDbCircle
 10
61.42170128396173
 20
184.1095459844419
 30
0.0
 40
0.25
100
AcDbArc
 50
180.0
 51
270.0
  0
LINE
  5
20DF
330
1F
100
AcDbEntity
  8
SOLBET_Wymiary_Opisy
100
AcDbLine
 10
33.61903941511628
 20
189.3316466226589
 30
0.0
 11
33.61903941511628
 21
165.4362247852951
 31
0.0
  0
LINE
  5
20E0
330
1F
100
AcDbEntity
  8
SOLBET_Wymiary_Opisy
100
AcDbLine
 10
51.87969831101873
 20
150.4730834667463
 30
0.0
 11
62.23805849261771
 21
150.4730834667463
 31
0.0
  0
LINE
  5
20E3
330
1F
100
AcDbEntity
  8
SOLBET_Tynki_Posadzki
100
AcDbLine
 10
52.75881904310153
 20
187.0370135044269
 30
0.0
 11
52.75881904310153
 21
186.5370135044251
 31
0.0
  0
ARC
  5
20E4
330
1F
100
AcDbEntity
  8
SOLBET_Tynki_Posadzki
100
AcDbCircle
 10
53.55688523429489
 20
187.0370135044269
 30
0.0
 40
1.5000521396288
100
AcDbArc
 50
90.0
 51
180.0
  0
LINE
  5
20E6
330
1F
100
AcDbEntity
  8
SOLBET_Izolacja
  6
Continuous
100
AcDbLine
 10
53.05688523429489
 20
186.5370135044251
 30
0.0
 11
54.05688523429489
 21
186.5370135044251
 31
0.0
  0
LINE
  5
20E7
330
1F
100
AcDbEntity
  8
SOLBET_Izolacja
  6
Continuous
100
AcDbLine
 10
54.05688523429489
 20
186.5370135044251
 30
0.0
 11
54.05688523429489
 21
181.1637066708718
 31
0.0
  0
LINE
  5
20E8
330
1F
100
AcDbEntity
  8
SOLBET_Izolacja
  6
Continuous
100
AcDbLine
 10
53.05688523429489
 20
181.1637066708718
 30
0.0
 11
54.05688523429489
 21
181.1637066708718
 31
0.0
  0
LINE
  5
20E9
330
1F
100
AcDbEntity
  8
SOLBET_Tynki_Posadzki
100
AcDbLine
 10
52.75881904310153
 20
187.0370135044269
 30
0.0
 11
33.61505308006235
 21
187.0370135044269
 31
0.0
  0
LINE
  5
20EC
330
1F
100
AcDbEntity
  8
SOLBET_Izolacja
  6
Continuous
100
AcDbLine
 10
53.05688523429489
 20
181.1637066708718
 30
0.0
 11
53.05688523429489
 21
186.5370135044251
 31
0.0
  0
LINE
  5
20ED
330
1F
100
AcDbEntity
  8
SOLBET_Izolacja
  6
Continuous
100
AcDbLine
 10
53.05688523429489
 20
183.6637066708719
 30
0.0
 11
33.61505308006235
 21
183.6637066708719
 31
0.0
  0
LINE
  5
20EE
330
1F
100
AcDbEntity
  8
SOLBET_Tynki_Posadzki
100
AcDbLine
 10
53.55688523429489
 20
186.5370135044251
 30
0.0
 11
53.55688523429489
 21
210.8793582715535
 31
0.0
  0
LINE
  5
20EF
330
1F
100
AcDbEntity
  8
SOLBET_Izolacja
  6
Continuous
100
AcDbLine
 10
53.55688523429489
 20
181.1637066708718
 30
0.0
 11
33.61505308006235
 21
181.1637066708718
 31
0.0
  0
LINE
  5
20F0
330
1F
100
AcDbEntity
  8
SOLBET_Emulsje_Folie
100
AcDbLine
 10
52.94206918462805
 20
186.7870135044269
 30
0.0
 11
52.94206918462805
 21
184.1095459844419
 31
0.0
  0
LINE
  5
20F1
330
1F
100
AcDbEntity
  8
SOLBET_Emulsje_Folie
100
AcDbLine
 10
52.69206918462805
 20
183.8595459844438
 30
0.0
 11
33.61505308006235
 21
183.8595459844438
 31
0.0
  0
ARC
  5
20F2
330
1F
100
AcDbEntity
  8
SOLBET_Emulsje_Folie
100
AcDbCircle
 10
52.69206918462805
 20
184.1095459844419
 30
0.0
 40
0.25
100
AcDbArc
 50
270.0
 51
0.0
  0
LWPOLYLINE
  5
20F3
330
1F
100
AcDbEntity
  8
SOLBET_Tynki_Posadzki
100
AcDbPolyline
 90
        5
 70
     1
 43
0.0
 10
52.94206918462805
 20
184.1095459844419
 42
-0.0737237824442244
 10
52.93131600140987
 20
184.0370135044269
 10
33.61505308006235
 20
184.0370135044269
 10
33.61505308006235
 20
186.5370135044251
 10
52.94206918462805
 20
186.5370135044251
1001
ASO_SCHRAFF
1005
0
1070
     1
1002
{
1070
     1
1005
0
1002
}
1002
{
1070
     2
1005
20E1
1002
}
1002
{
1070
     4
1000
AR-CONC
1040
0.01
1040
0.0
1070
     0
1000
T__SCHR
1070
   256
1000
VONLAYER
1040
50.0
1070
     1
1002
}
  0
LINE
  5
20F5
330
1F
100
AcDbEntity
  8
SOLBET_Tynki_Posadzki
100
AcDbLine
 10
53.55688523429489
 20
168.6637066708718
 30
0.0
 11
33.61505308006235
 21
168.6637066708718
 31
0.0
  0
LWPOLYLINE
  5
20FE
330
1F
100
AcDbEntity
  8
SOLBET_Zaprawy
100
AcDbPolyline
 90
        2
 70
     0
 43
0.0
 10
33.61903941511628
 20
169.1637066708719
 10
80.49871738852743
 20
169.1637066708719
1001
ASO_SCHRAFF
1005
0
1070
     1
1002
{
1070
     1
1005
0
1002
}
1002
{
1070
     2
1005
0
1002
}
1002
{
1070
     4
1000
NET
1040
0.1
1040
45.0
1070
     0
1000
T__SCHR
1070
   256
1000
VONLAYER
1040
50.0
1070
     1
1002
}
  0
MTEXT
  5
211C
102
{ACAD_XDICTIONARY
360
211D
102
}
330
1F
100
AcDbEntity
  8
SOLBET_Wymiary_Opisy @ 1
100
AcDbMText
 10
9.299482905410513
 20
286.1243230467724
 30
0.0
 40
5.0
 41
138.0922190303929
 71
     1
 72
     5
  1
{\LDETAL 101}\PPierwsza warstwa murowana na zaprawie cienkowarstwowej lub zwyk\U+0142ej SOLBET
  7
Solbet_5
 73
     1
 44
1.0
1001
AcadAnnotative
1000
AnnotativeData
1002
{
1070
     1
1070
     0
1002
}
1001
ACAD
1000
MTEXTBEGIN
1070
    73
1070
     1
1070
    44
1040
1.0
1070
    74
1070
     0
1000
MTEXTEND
  0
LINE
  5
215C
330
1F
100
AcDbEntity
  8
SOLBET_Bloczki
100
AcDbLine
 10
60.0588782576068
 20
150.4730834667463
 30
0.0
 11
60.05887825760715
 21
155.9137066651888
 31
0.0
  0
LINE
  5
215D
330
1F
100
AcDbEntity
  8
SOLBET_Bloczki
100
AcDbLine
 10
60.05887825760715
 20
155.9137066651888
 30
0.0
 11
54.05887825760714
 21
155.9137066651888
 31
0.0
  0
LINE
  5
215E
330
1F
100
AcDbEntity
  8
SOLBET_Bloczki
100
AcDbLine
 10
54.05887825760714
 20
155.9137066651888
 30
0.0
 11
54.05887840182185
 21
150.4730834667463
 31
0.0
  0
LINE
  5
2166
330
1F
100
AcDbEntity
  8
SOLBET_Bloczki
100
AcDbLine
 10
60.05688508419144
 20
205.6637066765535
 30
0.0
 11
60.05688508419154
 21
210.8793582715535
 31
0.0
  0
LINE
  5
2168
330
1F
100
AcDbEntity
  8
SOLBET_Bloczki
100
AcDbLine
 10
54.05688523429489
 20
210.8793582715535
 30
0.0
 11
54.05688508419166
 21
205.6637066765537
 31
0.0
  0
LINE
  5
2169
330
1F
100
AcDbEntity
  8
SOLBET_Bloczki
100
AcDbLine
 10
54.05688508419166
 20
205.6637066765537
 30
0.0
 11
60.05688508419144
 21
205.6637066765536
 31
0.0
  0
LWPOLYLINE
  5
2170
102
{ACAD_REACTORS
330
2176
102
}
330
1F
100
AcDbEntity
  8
SOLBET_Tynki_Posadzki
100
AcDbPolyline
 90
        5
 70
     1
 43
0.0
 10
80.49871738852743
 20
186.5370135044251
 10
61.17170128396174
 20
186.5370135044251
 10
61.17170128396174
 20
184.1095459844419
 42
0.0737237824442382
 10
61.18245446717503
 20
184.0370135044252
 10
80.49871738852743
 20
184.0370135044269
  0
HATCH
  5
2176
330
1F
100
AcDbEntity
  8
SOLBET_Tynki_Posadzki
100
AcDbHatch
 10
0.0
 20
0.0
 30
0.0
210
0.0
220
0.0
230
1.0
  2
AR-CONC
 70
     0
 71
     1
 91
        1
 92
        1
 93
        5
 72
     1
 10
80.49871738852743
 20
186.5370135044251
 11
61.17170128396174
 21
186.5370135044251
 72
     1
 10
61.17170128396174
 20
186.5370135044251
 11
61.17170128396174
 21
184.1095459844419
 72
     2
 10
61.42170128396099
 20
184.1095459844422
 40
0.2499999999992539
 50
180.0000000000456
 51
196.865734306191
 73
     1
 72
     1
 10
61.18245446717503
 20
184.0370135044252
 11
80.49871738852743
 21
184.0370135044269
 72
     1
 10
80.49871738852743
 20
184.0370135044269
 11
80.49871738852743
 21
186.5370135044251
 97
        1
330
2170
 75
     0
 76
     1
 52
0.0
 41
0.046
 77
     0
 78
    13
 53
50.0
 43
942.3079279771467
 44
6.056573120879818
 45
8.380494773816185
 46
-0.733197934789542
 79
     2
 49
0.8762999999999999
 49
-9.6393
 53
355.0
 43
942.3079279771467
 44
6.056573120879818
 45
-1.621169994880681
 46
8.788605572580278
 79
     2
 49
0.70104
 49
-7.711439999999999
 53
100.451
 43
943.0062999771466
 44
5.995473620879819
 45
6.759355076634125
 46
8.055367639733425
 79
     2
 49
0.7447400000000001
 49
-8.19214
 53
46.1842
 43
942.3079279771467
 44
8.393373120879818
 45
12.46963588103797
 46
-1.933947084905448
 79
     2
 49
1.314449999999999
 49
-14.45895
 53
96.63559999999998
 43
943.3470633771467
 44
8.232212120879818
 45
10.92059478544691
 46
11.38157557094226
 79
     2
 49
1.117109999999998
 49
-12.28820999999999
 53
351.184
 43
942.3079279771467
 44
8.393373120879818
 45
10.92061186744096
 46
11.38155542158749
 79
     2
 49
1.05156
 49
-11.56716
 53
21.0
 43
943.4763279771468
 44
7.809173120879818
 45
6.97428447242763
 46
-4.704213851771075
 79
     2
 49
0.8762999999999999
 49
-9.6393
 53
326.0
 43
943.4763279771468
 44
7.809173120879818
 45
2.842893303991765
 46
8.472646441626686
 79
     2
 49
0.70104
 49
-7.711439999999999
 53
71.45140000000001
 43
944.0575149771467
 44
7.417156520879817
 45
9.817158575425724
 46
3.768451454938642
 79
     2
 49
0.7447400000000001
 49
-8.19214
 53
37.5
 43
942.3079279771467
 44
6.056573120879818
 45
0.1420757495272236
 46
3.889531788165042
 79
     6
 49
0.0
 49
-7.617968
 49
0.0
 49
-7.82828
 49
0.0
 49
-7.74065
 53
7.499999999999999
 43
942.3079279771467
 44
6.056573120879818
 45
3.073704475474064
 46
4.608306441633497
 79
     6
 49
0.0
 49
-4.463287999999999
 49
0.0
 49
-7.442707999999999
 49
0.0
 49
-2.95021
 53
327.5
 43
939.7023959771466
 44
6.056573120879818
 45
6.237167377676083
 46
-0.2635222236629791
 79
     6
 49
0.0
 49
-2.920999999999999
 49
0.0
 49
-9.113519999999999
 49
0.0
 49
-12.09294
 53
317.5
 43
938.5339959771467
 44
6.056573120879818
 45
6.81394234375683
 46
1.169618587533318
 79
     6
 49
0.0
 49
-3.797299999999999
 49
0.0
 49
-6.052311999999999
 49
0.0
 49
-8.58774
 98
        1
 10
942.3079279771467
 20
6.056573120879818
1001
ACAD
1010
0.0
1020
0.0
1030
0.0
  0
HATCH
  5
217A
330
1F
100
AcDbEntity
  8
SOLBET_Tynki_Posadzki
100
AcDbHatch
 10
0.0
 20
0.0
 30
0.0
210
0.0
220
0.0
230
1.0
  2
AR-CONC
 70
     0
 71
     0
 91
        2
 92
        1
 93
        5
 72
     2
 10
52.69206918463206
 20
184.1095459844595
 40
0.2499999999959925
 50
0.0000000040189998
 51
16.86573431016138
 73
     0
 72
     1
 10
52.93131600140987
 20
184.0370135044269
 11
33.61505308006235
 21
184.0370135044269
 72
     1
 10
33.61505308006235
 20
184.0370135044269
 11
33.61505308006235
 21
186.5370135044251
 72
     1
 10
33.61505308006235
 20
186.5370135044251
 11
52.94206918462805
 21
186.5370135044251
 72
     1
 10
52.94206918462805
 20
186.5370135044251
 11
52.94206918462805
 21
184.1095459844419
 97
        0
 92
       49
 93
        1
 72
     1
 10
52.94206918462805
 20
186.5370135044251
 11
33.61505308006235
 21
186.5370135044251
 97
        0
 75
     0
 76
     1
 52
0.0
 41
0.048
 77
     0
 78
    13
 53
50.0
 43
942.3079279771467
 44
6.056573120879818
 45
8.744864111808192
 46
-0.7650761058673483
 79
     2
 49
0.9144000000000001
 49
-10.0584
 53
355.0
 43
942.3079279771467
 44
6.056573120879818
 45
-1.691655646832015
 46
9.170718858344638
 79
     2
 49
0.7315200000000001
 49
-8.046719999999998
 53
100.451
 43
943.0366639771467
 44
5.992817120879818
 45
7.053240079966044
 46
8.40560101537401
 79
     2
 49
0.7771200000000001
 49
-8.54832
 53
46.1842
 43
942.3079279771467
 44
8.494973120879818
 45
13.01179396282223
 46
-2.018031740770902
 79
     2
 49
1.371599999999999
 49
-15.0876
 53
96.63559999999998
 43
943.3922431771467
 44
8.326805120879818
 45
11.39540325437938
 46
11.87642668272236
 79
     2
 49
1.165679999999998
 49
-12.82247999999999
 53
351.184
 43
942.3079279771467
 44
8.494973120879818
 45
11.39542107906883
 46
11.87640565730869
 79
     2
 49
1.09728
 49
-12.07008
 53
21.0
 43
943.5271279771468
 44
7.885373120879818
 45
7.277514232098397
 46
-4.9087448888046
 79
     2
 49
0.9144000000000001
 49
-10.0584
 53
326.0
 43
943.5271279771468
 44
7.885373120879818
 45
2.966497360687059
 46
8.841022373871325
 79
     2
 49
0.7315200000000001
 49
-8.046719999999998
 53
71.45140000000001
 43
944.1335839771467
 44
7.476312320879818
 45
10.24399155696597
 46
3.932297170370757
 79
     2
 49
0.7771200000000001
 49
-8.54832
 53
37.5
 43
942.3079279771467
 44
6.056573120879818
 45
0.1482529560284072
 46
4.058641865911349
 79
     6
 49
0.0
 49
-7.949184
 49
0.0
 49
-8.168639999999999
 49
0.0
 49
-8.077200000000001
 53
7.499999999999999
 43
942.3079279771467
 44
6.056573120879818
 45
3.207343800494675
 46
4.808667591269736
 79
     6
 49
0.0
 49
-4.657343999999999
 49
0.0
 49
-7.766303999999999
 49
0.0
 49
-3.07848
 53
327.5
 43
939.5891119771468
 44
6.056573120879818
 45
6.508348568009827
 46
-0.2749797116483259
 79
     6
 49
0.0
 49
-3.048
 49
0.0
 49
-9.509759999999999
 49
0.0
 49
-12.61872
 53
317.5
 43
938.3699119771467
 44
6.056573120879818
 45
7.110200706528866
 46
1.220471569599984
 79
     6
 49
0.0
 49
-3.9624
 49
0.0
 49
-6.315456
 49
0.0
 49
-8.961119999999999
 98
        1
 10
942.3079279771467
 20
6.056573120879818
1001
ACAD
1010
0.0
1020
0.0
1030
0.0
  0
LINE
  5
218B
330
1F
100
AcDbEntity
  8
SOLBET_Izolacja
100
AcDbLine
 10
33.61505308006235
 20
183.6637066708719
 30
0.0
 11
33.61903941511628
 21
181.1637066708718
 31
0.0
  0
LINE
  5
218C
330
1F
100
AcDbEntity
  8
SOLBET_Izolacja
  6
BATTING
 48
0.12
100
AcDbLine
 10
33.61704624758932
 20
182.4137066708719
 30
0.0
 11
53.05688523429489
 21
182.4137066708719
 31
0.0
  0
LINE
  5
218D
330
1F
100
AcDbEntity
  8
SOLBET_Izolacja
100
AcDbLine
 10
54.05688508419166
 20
186.5370135044251
 30
0.0
 11
54.05688508419155
 21
181.6637066708718
 31
0.0
  0
LINE
  5
218E
330
1F
100
AcDbEntity
  8
SOLBET_Izolacja
  6
BATTING
 48
0.049
100
AcDbLine
 10
53.55688523429489
 20
186.5370135044251
 30
0.0
 11
53.55688523429489
 21
181.1637066708718
 31
0.0
  0
LINE
  5
218F
330
1F
100
AcDbEntity
  8
SOLBET_Izolacja
100
AcDbLine
 10
80.49871738852743
 20
183.6637066708719
 30
0.0
 11
80.49871738852743
 21
181.1637066708718
 31
0.0
  0
LINE
  5
2190
330
1F
100
AcDbEntity
  8
SOLBET_Izolacja
100
AcDbLine
 10
60.05688508419154
 20
186.5370135044251
 30
0.0
 11
60.0568852342949
 21
181.6637066708718
 31
0.0
  0
LINE
  5
2191
330
1F
100
AcDbEntity
  8
SOLBET_Izolacja
  6
BATTING
 48
0.049
100
AcDbLine
 10
60.55688523429489
 20
186.5370135044251
 30
0.0
 11
60.55688523429489
 21
181.1637066708718
 31
0.0
  0
LINE
  5
2192
330
1F
100
AcDbEntity
  8
SOLBET_Izolacja
  6
BATTING
 48
0.12
100
AcDbLine
 10
80.49871738852743
 20
182.4137066708719
 30
0.0
 11
61.05688523429489
 21
182.4137066708719
 31
0.0
  0
LINE
  5
2193
330
1F
100
AcDbEntity
  8
SOLBET_Izolacja
100
AcDbLine
 10
54.05489206676794
 20
169.1637066708719
 30
0.0
 11
54.05887840182185
 21
167.913706670872
 31
0.0
  0
LINE
  5
2194
330
1F
100
AcDbEntity
  8
SOLBET_Izolacja
100
AcDbLine
 10
60.05887840182186
 20
169.1637066708719
 30
0.0
 11
60.05887825760715
 21
167.913706670872
 31
0.0
  0
LINE
  5
2196
330
1F
100
AcDbEntity
  8
SOLBET_Izolacja
  6
BATTING
 48
0.06
100
AcDbLine
 10
54.05688523429489
 20
168.5387066708719
 30
0.0
 11
60.0588783297145
 21
168.5387066708719
 31
0.0
  0
LINE
  5
2197
330
1F
100
AcDbEntity
  8
SOLBET_Izolacja
100
AcDbLine
 10
54.05489206676794
 20
169.1637066708719
 30
0.0
 11
60.05887840182186
 21
169.1637066708719
 31
0.0
  0
LINE
  5
2198
330
1F
100
AcDbEntity
  8
SOLBET_Izolacja
100
AcDbLine
 10
54.05887825760714
 20
167.913706670872
 30
0.0
 11
60.05887825760726
 21
167.9137073487692
 31
0.0
  0
MTEXT
  5
219A
102
{ACAD_XDICTIONARY
360
2758
102
}
330
1F
100
AcDbEntity
  8
SOLBET_Wymiary_Opisy
100
AcDbMText
 10
78.16729576155182
 20
222.6161170873326
 30
0.0
 40
2.5
 41
0.0
 71
     1
 72
     1
  1
\U+015Aciana dzia\U+0142owa z bloczk\U+00F3w SOLBET
  7
Solbet_2_5
 73
     1
 44
1.0
1001
ACAD
1000
MTEXTBEGIN
1070
    73
1070
     1
1070
    44
1040
1.0
1070
    74
1070
     0
1000
MTEXTEND
  0
LEADER
  5
219B
330
1F
100
AcDbEntity
  8
SOLBET_Wymiary_Opisy
100
AcDbLeader
  3
Solbet$7
 73
     0
 74
     0
 75
     1
 40
2.501893939393939
 41
44.0
 76
     3
 10
57.49908017956056
 20
181.374319776077
 30
0.0
 10
79.7179770182754
 20
198.6245651688887
 30
0.0
 10
82.2179770182754
 20
198.6245651688887
 30
0.0
340
219C
213
1.177601578005123
223
-0.1753245211093599
233
0.0
1001
ACAD
1000
DSTYLE
1002
{
1070
   147
1040
0.625
1070
    77
1070
     1
1002
}
  0
MTEXT
  5
219C
102
{ACAD_REACTORS
330
219B
102
}
330
1F
100
AcDbEntity
  8
SOLBET_Wymiary_Opisy
100
AcDbMText
 10
81.66537544027027
 20
201.926783629392
 30
0.0
 40
2.5
 41
0.0
 71
     1
 72
     1
  1
Pierwsza warstwa murowana
  7
Solbet_2_5
 73
     1
 44
1.0
1001
ACAD
1000
MTEXTBEGIN
1070
    73
1070
     1
1070
    44
1040
1.0
1070
    74
1070
     0
1000
MTEXTEND
  0
LEADER
  5
219D
330
1F
100
AcDbEntity
  8
SOLBET_Wymiary_Opisy
100
AcDbLeader
  3
Solbet$7
 73
     0
 74
     0
 75
     1
 40
7.666666666666666
 41
47.0
 76
     3
 10
58.84884594022321
 20
168.5387066708719
 30
0.0
 10
75.34360722450947
 20
138.3216155854219
 30
0.0
 10
77.84360722450947
 20
138.3216155854219
 30
0.0
340
219E
213
1.177601578005123
223
-0.1753245211093599
233
0.0
1001
ACAD
1000
DSTYLE
1002
{
1070
   147
1040
0.625
1070
    77
1070
     1
1002
}
  0
MTEXT
  5
219E
102
{ACAD_XDICTIONARY
360
275A
102
}
102
{ACAD_REACTORS
330
219D
102
}
330
1F
100
AcDbEntity
  8
SOLBET_Wymiary_Opisy
100
AcDbMText
 10
77.29100564650434
 20
146.7886067731979
 30
0.0
 40
2.5
 41
0.0
 71
     1
 72
     1
  1
Wype\U+0142nienie piank\U+0105 monta\U+017Cow\U+0105\P(umo\U+017Cliwia ugi\U+0119cie si\U+0119 stropu)
  7
Solbet_2_5
 73
     1
 44
1.0
1001
ACAD
1000
MTEXTBEGIN
1070
    73
1070
     1
1070
    44
1040
1.0
1070
    74
1070
     0
1000
MTEXTEND
  0
MTEXT
  5
21A0
102
{ACAD_XDICTIONARY
360
275C
102
}
330
1F
100
AcDbEntity
  8
SOLBET_Wymiary_Opisy
100
AcDbMText
 10
7.72384751076936
 20
156.8368004150118
 30
0.0
 40
2.5
 41
0.0
 71
     1
 72
     1
  1
Ci\U+0119cie tynkarskie
  7
Solbet_2_5
 73
     1
 44
1.0
1001
ACAD
1000
MTEXTBEGIN
1070
    73
1070
     1
1070
    44
1040
1.0
1070
    74
1070
     0
1000
MTEXTEND
  0
INSERT
  5
21A1
330
1F
100
AcDbEntity
  8
SOLBET_Wymiary_Opisy
100
AcDbBlockReference
  2
_DotSmall
 10
53.60176981900656
 20
168.7087708966866
 30
0.0
 41
2.5
 42
2.5
 43
2.5
 50
41.95798249707098
1001
ACAD
1000
DSTYLE
1002
{
1070
   147
1040
0.625
1070
    77
1070
     1
1002
}
  0
LINE
  5
21A3
330
1F
100
AcDbEntity
  8
SOLBET_Wymiary_Opisy
100
AcDbLine
 10
53.60176981900656
 20
168.7087708966866
 30
0.0
 11
36.54431003985962
 21
153.3728005405862
 31
0.0
1001
ACAD
1000
DSTYLE
1002
{
1070
   147
1040
0.625
1070
    77
1070
     1
1002
}
  0
LINE
  5
21A4
330
1F
100
AcDbEntity
  8
SOLBET_Wymiary_Opisy
100
AcDbLine
 10
36.54431003985962
 20
153.3728005405862
 30
0.0
 11
6.820838579941664
 21
153.3728005405862
 31
0.0
1001
ACAD
1000
DSTYLE
1002
{
1070
   147
1040
0.625
1070
    77
1070
     1
1002
}
  0
INSERT
  5
21A5
330
1F
100
AcDbEntity
  8
SOLBET_Wymiary_Opisy
100
AcDbBlockReference
  2
_DotSmall
 10
60.47584524312674
 20
168.7450710075469
 30
0.0
 41
2.5
 42
2.5
 43
2.5
 50
41.95798249707098
1001
ACAD
1000
DSTYLE
1002
{
1070
   147
1040
0.625
1070
    77
1070
     1
1002
}
  0
LINE
  5
21A6
330
1F
100
AcDbEntity
  8
SOLBET_Wymiary_Opisy
100
AcDbLine
 10
60.47584524312674
 20
168.7450710075469
 30
0.0
 11
36.54431003985962
 21
153.3728005405862
 31
0.0
1001
ACAD
1000
DSTYLE
1002
{
1070
   147
1040
0.625
1070
    77
1070
     1
1002
}
  0
LINE
  5
2205
330
1F
100
AcDbEntity
  8
SOLBET_Wymiary_Opisy
100
AcDbLine
 10
67.76372254131763
 20
169.1637066708719
 30
0.0
 11
71.57666960023187
 21
169.1637066708719
 31
0.0
  0
LINE
  5
2206
330
1F
100
AcDbEntity
  8
SOLBET_Wymiary_Opisy
100
AcDbLine
 10
60.05887825760725
 20
167.9137075621738
 30
0.0
 11
71.57666960023187
 21
167.9137066708708
 31
0.0
  0
LINE
  5
2207
330
1F
100
AcDbEntity
  8
SOLBET_Wymiary_Opisy
100
AcDbLine
 10
70.32666960023187
 20
171.6637066708718
 30
0.0
 11
70.32666960023187
 21
174.1637066708719
 31
0.0
  0
LINE
  5
2208
330
1F
100
AcDbEntity
  8
SOLBET_Wymiary_Opisy
100
AcDbLine
 10
70.32666960023187
 20
165.4137066708708
 30
0.0
 11
70.32666960023187
 21
153.6637066708708
 31
0.0
  0
LINE
  5
2209
330
1F
100
AcDbEntity
  8
SOLBET_Wymiary_Opisy
100
AcDbLine
 10
70.32666960023187
 20
169.1637066708719
 30
0.0
 11
70.32666960023187
 21
167.9137066708708
 31
0.0
  0
SOLID
  5
220A
330
1F
100
AcDbEntity
  8
SOLBET_Wymiary_Opisy
100
AcDbTrace
 10
69.91000293356524
 20
171.6637066708718
 30
0.0
 11
70.74333626689849
 21
171.6637066708718
 31
0.0
 12
70.32666960023187
 22
169.1637066708719
 32
0.0
 13
70.32666960023187
 23
169.1637066708719
 33
0.0
  0
SOLID
  5
220B
330
1F
100
AcDbEntity
  8
SOLBET_Wymiary_Opisy
100
AcDbTrace
 10
69.91000293356524
 20
165.4137066708708
 30
0.0
 11
70.74333626689849
 21
165.4137066708708
 31
0.0
 12
70.32666960023187
 22
167.9137066708708
 32
0.0
 13
70.32666960023187
 23
167.9137066708708
 33
0.0
  0
MTEXT
  5
220C
330
1F
100
AcDbEntity
  8
SOLBET_Wymiary_Opisy
100
AcDbMText
 10
68.45166960023187
 20
158.2887066708706
 30
0.0
 40
2.5
 41
0.0
 71
     5
 72
     1
  1
30mm
  7
Solbet_2_5
 11
0.0000000000000001
 21
1.0
 31
0.0
 73
     1
 44
1.0
1001
ACAD
1000
MTEXTBEGIN
1070
    73
1070
     1
1070
    44
1040
1.0
1070
    74
1070
     0
1000
MTEXTEND
  0
MTEXT
  5
220D
102
{ACAD_XDICTIONARY
360
269B
102
}
330
1F
100
AcDbEntity
  8
SOLBET_Wymiary_Opisy
100
AcDbMText
 10
38.04713464571262
 20
179.2333771139995
 30
0.0
 40
2.5
 41
34.46489175931356
 71
     1
 72
     1
  1
\pxqc;Dowolny strop nad pomieszczeniem
  7
Solbet_2_5
 73
     1
 44
1.0
1001
ACAD
1000
MTEXTBEGIN
1070
    73
1070
     1
1070
    44
1040
1.0
1070
    74
1070
     0
1000
MTEXTEND
  0
LWPOLYLINE
  5
220E
330
1F
100
AcDbEntity
  8
SOLBET_Ramka_05
100
AcDbPolyline
 90
        4
 70
     1
 43
0.0
 10
0.0
 20
0.0
 10
210.0
 20
0.0
 10
210.0
 20
297.0
 10
0.0
 20
297.0
  0
LINE
  5
220F
330
1F
100
AcDbEntity
  8
SOLBET_Tynki_Posadzki
100
AcDbLine
 10
60.47275500239571
 20
168.6637058007319
 30
0.0
 11
80.49871738852743
 21
168.6637066708718
 31
0.0
  0
MTEXT
  5
22F6
330
1F
100
AcDbEntity
  8
SOLBET_Wymiary_Opisy
100
AcDbMText
 10
134.5009045542369
 20
179.0377998708633
 30
0.0
 40
2.5
 41
0.0
 71
     1
 72
     1
  1
Dowolny strop na gruncie
  7
Solbet_2_5
 73
     1
 44
1.0
1001
ACAD
1000
MTEXTBEGIN
1070
    73
1070
     1
1070
    44
1040
1.0
1070
    74
1070
     0
1000
MTEXTEND
  0
HATCH
  5
23E9
330
1F
100
AcDbEntity
  8
SOLBET_Beton
100
AcDbHatch
 10
0.0
 20
0.0
 30
0.0
210
0.0
220
0.0
230
1.0
  2
ANSI33
 70
     0
 71
     1
 91
        1
 92
        7
 72
     0
 73
     1
 93
        4
 10
177.7422428895409
 20
173.2989707869968
 10
177.7422428895409
 20
180.7989707869968
 10
130.8625649161297
 20
180.7989707869968
 10
130.8625649161297
 20
173.2989707869968
 97
        1
330
23EA
 75
     0
 76
     1
 52
0.0
 41
0.75
 77
     0
 78
     2
 53
45.0
 43
18.43044551930698
 44
53.47289098704078
 45
-3.367596045400931
 46
3.367596045400932
 79
     0
 53
45.0
 43
21.79804301930698
 44
53.47289098704078
 45
-3.367596045400931
 46
3.367596045400932
 79
     2
 49
2.381249999999999
 49
-1.190624999999999
 47
0.0587362888947614
 98
        1
 10
154.5334072679035
 20
176.6259674161791
1001
ACAD
1010
0.0
1020
0.0
1030
0.0
  0
LWPOLYLINE
  5
23EA
102
{ACAD_REACTORS
330
23E9
102
}
330
1F
100
AcDbEntity
  8
SOLBET_Beton
100
AcDbPolyline
 90
        4
 70
     1
 43
0.0
 10
130.8625649161297
 20
180.7989707869968
 10
177.7422428895409
 20
180.7989707869968
 10
177.7422428895409
 20
173.2989707869968
 10
130.8625649161297
 20
173.2989707869968
  0
MLINE
  5
23F2
330
1F
100
AcDbEntity
  8
SOLBET_Emulsje_Folie
100
AcDbMline
  2
SOLBET_IZOLACJA
340
7E9
 40
20.0
 70
     0
 71
     1
 72
     2
 73
     2
 10
162.8636472602344
 20
180.7989707869968
 30
0.0
210
0.0
220
0.0
230
1.0
 11
162.8636472602344
 21
180.7989707869968
 31
0.0
 12
-1.0
 22
0.0
 32
0.0
 13
-2.220446049250313E-16
 23
-1.0
 33
0.0
 74
     2
 41
0.0
 41
0.0
 75
     0
 74
     2
 41
-0.32
 41
0.0
 75
     0
 11
145.5100184464225
 21
180.7989707869968
 31
0.0
 12
-1.0
 22
0.0
 32
0.0
 13
-2.220446049250313E-16
 23
-1.0
 33
0.0
 74
     2
 41
0.0
 41
0.0
 75
     0
 74
     2
 41
-0.32
 41
0.0
 75
     0
  0
LINE
  5
23F3
330
1F
100
AcDbEntity
  8
SOLBET_Emulsje_Folie
  6
DASHED2
370
    30
100
AcDbLine
 10
145.5100184464225
 20
180.9589707869968
 30
0.0
 11
162.8636472602344
 21
180.9589707869968
 31
0.0
  0
HATCH
  5
23F4
330
1F
100
AcDbEntity
  8
SOLBET_Grunt
100
AcDbHatch
 10
0.0
 20
0.0
 30
0.0
210
0.0
220
0.0
230
1.0
  2
DOTS
 70
     0
 71
     0
 91
        1
 92
        1
 93
        4
 72
     1
 10
130.8625649161297
 20
165.4362247852951
 11
177.7136472039513
 21
165.4362247852951
 72
     1
 10
177.7136472039513
 20
165.4362247852951
 11
177.7136472039513
 21
173.2989707869968
 72
     1
 10
177.7136472039513
 20
173.2989707869968
 11
130.8625649161297
 21
173.2989707869968
 72
     1
 10
130.8625649161297
 20
173.2989707869968
 11
130.8625649161297
 21
165.4362247852951
 97
        0
 75
     0
 76
     1
 52
15.0
 41
2.0
 77
     0
 78
     1
 53
15.0
 43
18.43044551930698
 44
53.47289098704078
 45
0.7116567810333926
 46
3.477689732568043
 79
     2
 49
0.0
 49
-3.174999999999999
 98
        1
 10
170.4047711703607
 20
163.6349197176458
1001
ACAD
1010
0.0
1020
0.0
1030
0.0
  0
LINE
  5
2458
330
1F
100
AcDbEntity
  8
SOLBET_Tynki_Posadzki
100
AcDbLine
 10
158.5984769264944
 20
187.0370135044269
 30
0.0
 11
158.5984769264944
 21
186.5370135044251
 31
0.0
  0
ARC
  5
2459
330
1F
100
AcDbEntity
  8
SOLBET_Tynki_Posadzki
100
AcDbCircle
 10
157.8004107353083
 20
187.0370135044269
 30
0.0
 40
1.5000521396288
100
AcDbArc
 50
0.0
 51
90.0
  0
LINE
  5
245A
330
1F
100
AcDbEntity
  8
SOLBET_Izolacja
  6
Continuous
100
AcDbLine
 10
158.3004107353083
 20
186.5370135044251
 30
0.0
 11
157.3004107353083
 21
186.5370135044251
 31
0.0
  0
LINE
  5
245B
330
1F
100
AcDbEntity
  8
SOLBET_Izolacja
  6
Continuous
100
AcDbLine
 10
157.3004107353083
 20
186.5370135044251
 30
0.0
 11
157.3004107353083
 21
181.1637066708718
 31
0.0
  0
LINE
  5
245C
330
1F
100
AcDbEntity
  8
SOLBET_Izolacja
  6
Continuous
100
AcDbLine
 10
158.3004107353083
 20
181.1637066708718
 30
0.0
 11
157.3004107353083
 21
181.1637066708718
 31
0.0
  0
LINE
  5
245D
330
1F
100
AcDbEntity
  8
SOLBET_Tynki_Posadzki
100
AcDbLine
 10
158.5984769264944
 20
187.0370135044269
 30
0.0
 11
177.7422428895409
 21
187.0370135044269
 31
0.0
  0
LINE
  5
245E
330
1F
100
AcDbEntity
  8
SOLBET_Izolacja
  6
Continuous
100
AcDbLine
 10
158.3004107353083
 20
181.1637066708718
 30
0.0
 11
158.3004107353083
 21
186.5370135044251
 31
0.0
  0
LINE
  5
245F
330
1F
100
AcDbEntity
  8
SOLBET_Izolacja
  6
Continuous
100
AcDbLine
 10
158.3004107353083
 20
183.6637066708719
 30
0.0
 11
177.7422428895409
 21
183.6637066708719
 31
0.0
  0
LINE
  5
2460
330
1F
100
AcDbEntity
  8
SOLBET_Tynki_Posadzki
100
AcDbLine
 10
157.8004107353083
 20
186.5370135044251
 30
0.0
 11
157.8004104981846
 21
210.8793582715536
 31
0.0
  0
LINE
  5
2461
330
1F
100
AcDbEntity
  8
SOLBET_Izolacja
  6
Continuous
100
AcDbLine
 10
157.8004107353083
 20
181.1637066708718
 30
0.0
 11
177.7422428895409
 21
181.1637066708718
 31
0.0
  0
LINE
  5
2462
330
1F
100
AcDbEntity
  8
SOLBET_Emulsje_Folie
100
AcDbLine
 10
158.4152267849751
 20
186.7870135044269
 30
0.0
 11
158.4152267849751
 21
184.1095459844419
 31
0.0
  0
LINE
  5
2463
330
1F
100
AcDbEntity
  8
SOLBET_Emulsje_Folie
100
AcDbLine
 10
158.6652267849752
 20
183.8595459844438
 30
0.0
 11
177.7422428895409
 21
183.8595459844438
 31
0.0
  0
LINE
  5
2464
330
1F
100
AcDbEntity
  8
SOLBET_Tynki_Posadzki
100
AcDbLine
 10
150.002344544115
 20
187.0370135044269
 30
0.0
 11
150.002344544115
 21
186.5370135044251
 31
0.0
  0
ARC
  5
2465
330
1F
100
AcDbEntity
  8
SOLBET_Tynki_Posadzki
100
AcDbCircle
 10
150.8004107353083
 20
187.0370135044269
 30
0.0
 40
1.5000521396288
100
AcDbArc
 50
90.0
 51
180.0
  0
LINE
  5
2466
330
1F
100
AcDbEntity
  8
SOLBET_Izolacja
  6
Continuous
100
AcDbLine
 10
150.3004107353083
 20
186.5370135044251
 30
0.0
 11
151.3004107353083
 21
186.5370135044251
 31
0.0
  0
LINE
  5
2467
330
1F
100
AcDbEntity
  8
SOLBET_Izolacja
  6
Continuous
100
AcDbLine
 10
151.3004105157825
 20
186.5370135044251
 30
0.0
 11
151.3004107353083
 21
181.1637066708718
 31
0.0
  0
LINE
  5
2468
330
1F
100
AcDbEntity
  8
SOLBET_Izolacja
  6
Continuous
100
AcDbLine
 10
150.3004107353083
 20
181.1637066708718
 30
0.0
 11
151.3004107353083
 21
181.1637066708718
 31
0.0
  0
LINE
  5
2469
330
1F
100
AcDbEntity
  8
SOLBET_Tynki_Posadzki
100
AcDbLine
 10
150.002344544115
 20
187.0370135044269
 30
0.0
 11
130.8585785810758
 21
187.0370135044269
 31
0.0
  0
HATCH
  5
246A
330
1F
100
AcDbEntity
  8
SOLBET_Tynki_Posadzki
100
AcDbHatch
 10
0.0
 20
0.0
 30
0.0
210
0.0
220
0.0
230
1.0
  2
AR-CONC
 70
     0
 71
     0
 91
        2
 92
        1
 93
        5
 72
     2
 10
149.9355946856455
 20
184.1095459844595
 40
0.2499999999959925
 50
0.0000000040189998
 51
16.86573431016138
 73
     0
 72
     1
 10
150.1748415024233
 20
184.0370135044269
 11
130.8585785810758
 21
184.0370135044269
 72
     1
 10
130.8585785810758
 20
184.0370135044269
 11
130.8585785810758
 21
186.5370135044251
 72
     1
 10
130.8585785810758
 20
186.5370135044251
 11
150.1855946856415
 21
186.5370135044251
 72
     1
 10
150.1855946856415
 20
186.5370135044251
 11
150.1855946856415
 21
184.1095459844419
 97
        0
 92
       49
 93
        1
 72
     1
 10
150.1855946856415
 20
186.5370135044251
 11
130.8585785810758
 21
186.5370135044251
 97
        0
 75
     0
 76
     1
 52
0.0
 41
0.048
 77
     0
 78
    13
 53
50.0
 43
1039.55145347816
 44
6.056573120879818
 45
8.744864111808192
 46
-0.7650761058673483
 79
     2
 49
0.9144000000000001
 49
-10.0584
 53
355.0
 43
1039.55145347816
 44
6.056573120879818
 45
-1.691655646832015
 46
9.170718858344638
 79
     2
 49
0.7315200000000001
 49
-8.046719999999998
 53
100.451
 43
1040.28018947816
 44
5.99281712087982
 45
7.053240079966044
 46
8.40560101537401
 79
     2
 49
0.7771200000000001
 49
-8.54832
 53
46.1842
 43
1039.55145347816
 44
8.494973120879819
 45
13.01179396282223
 46
-2.018031740770902
 79
     2
 49
1.371599999999999
 49
-15.0876
 53
96.63559999999998
 43
1040.63576867816
 44
8.326805120879811
 45
11.39540325437938
 46
11.87642668272236
 79
     2
 49
1.165679999999998
 49
-12.82247999999998
 53
351.184
 43
1039.55145347816
 44
8.494973120879819
 45
11.39542107906883
 46
11.87640565730869
 79
     2
 49
1.09728
 49
-12.07008
 53
21.0
 43
1040.77065347816
 44
7.885373120879819
 45
7.277514232098397
 46
-4.9087448888046
 79
     2
 49
0.9144000000000001
 49
-10.0584
 53
326.0
 43
1040.77065347816
 44
7.885373120879819
 45
2.966497360687059
 46
8.841022373871325
 79
     2
 49
0.7315200000000001
 49
-8.046719999999998
 53
71.45140000000001
 43
1041.37710947816
 44
7.476312320879813
 45
10.24399155696597
 46
3.932297170370757
 79
     2
 49
0.7771200000000001
 49
-8.54832
 53
37.5
 43
1039.55145347816
 44
6.056573120879818
 45
0.1482529560284072
 46
4.058641865911349
 79
     6
 49
0.0
 49
-7.949184
 49
0.0
 49
-8.168639999999999
 49
0.0
 49
-8.077200000000001
 53
7.499999999999999
 43
1039.55145347816
 44
6.056573120879818
 45
3.207343800494675
 46
4.808667591269736
 79
     6
 49
0.0
 49
-4.657343999999999
 49
0.0
 49
-7.766303999999999
 49
0.0
 49
-3.07848
 53
327.5
 43
1036.83263747816
 44
6.056573120879818
 45
6.508348568009827
 46
-0.2749797116483259
 79
     6
 49
0.0
 49
-3.048
 49
0.0
 49
-9.509759999999999
 49
0.0
 49
-12.61872
 53
317.5
 43
1035.61343747816
 44
6.056573120879818
 45
7.110200706528866
 46
1.220471569599984
 79
     6
 49
0.0
 49
-3.9624
 49
0.0
 49
-6.315456
 49
0.0
 49
-8.961119999999999
 98
        1
 10
1039.55145347816
 20
6.056573120879818
1001
ACAD
1010
0.0
1020
0.0
1030
0.0
  0
LINE
  5
246B
330
1F
100
AcDbEntity
  8
SOLBET_Izolacja
  6
Continuous
100
AcDbLine
 10
150.3004107353083
 20
181.1637066708718
 30
0.0
 11
150.3004107353083
 21
186.5370135044251
 31
0.0
  0
LINE
  5
246C
330
1F
100
AcDbEntity
  8
SOLBET_Izolacja
  6
Continuous
100
AcDbLine
 10
150.3004107353083
 20
183.6637066708719
 30
0.0
 11
130.8585785810758
 21
183.6637066708719
 31
0.0
  0
LINE
  5
246D
330
1F
100
AcDbEntity
  8
SOLBET_Izolacja
  6
Continuous
100
AcDbLine
 10
150.8004107353083
 20
181.1637066708718
 30
0.0
 11
130.8585785810758
 21
181.1637066708718
 31
0.0
  0
LINE
  5
246E
330
1F
100
AcDbEntity
  8
SOLBET_Emulsje_Folie
100
AcDbLine
 10
150.1855946856415
 20
186.7870135044269
 30
0.0
 11
150.1855946856415
 21
184.1095459844419
 31
0.0
  0
LINE
  5
246F
330
1F
100
AcDbEntity
  8
SOLBET_Emulsje_Folie
100
AcDbLine
 10
149.9355946856415
 20
183.8595459844438
 30
0.0
 11
130.8585785810758
 21
183.8595459844438
 31
0.0
  0
ARC
  5
2470
330
1F
100
AcDbEntity
  8
SOLBET_Emulsje_Folie
100
AcDbCircle
 10
149.9355946856415
 20
184.1095459844419
 30
0.0
 40
0.25
100
AcDbArc
 50
270.0
 51
0.0
  0
LWPOLYLINE
  5
2471
330
1F
100
AcDbEntity
  8
SOLBET_Tynki_Posadzki
100
AcDbPolyline
 90
        5
 70
     1
 43
0.0
 10
150.1855946856415
 20
184.1095459844419
 42
-0.0737237824442244
 10
150.1748415024233
 20
184.0370135044269
 10
130.8585785810758
 20
184.0370135044269
 10
130.8585785810758
 20
186.5370135044251
 10
150.1855946856415
 20
186.5370135044251
1001
ASO_SCHRAFF
1005
0
1070
     1
1002
{
1070
     1
1005
0
1002
}
1002
{
1070
     2
1005
20E1
1002
}
1002
{
1070
     4
1000
AR-CONC
1040
0.01
1040
0.0
1070
     0
1000
T__SCHR
1070
   256
1000
VONLAYER
1040
50.0
1070
     1
1002
}
  0
HATCH
  5
2472
330
1F
100
AcDbEntity
  8
SOLBET_Tynki_Posadzki
100
AcDbHatch
 10
0.0
 20
0.0
 30
0.0
210
0.0
220
0.0
230
1.0
  2
AR-CONC
 70
     0
 71
     1
 91
        1
 92
        1
 93
        5
 72
     1
 10
177.7422428895409
 20
186.5370135044251
 11
158.4152267849751
 21
186.5370135044251
 72
     1
 10
158.4152267849751
 20
186.5370135044251
 11
158.4152267849751
 21
184.1095459844419
 72
     2
 10
158.6652267849744
 20
184.1095459844422
 40
0.249999999999261
 50
180.0000000000456
 51
196.8657343061905
 73
     1
 72
     1
 10
158.4259799681885
 20
184.0370135044252
 11
177.7422428895409
 21
184.0370135044269
 72
     1
 10
177.7422428895409
 20
184.0370135044269
 11
177.7422428895409
 21
186.5370135044251
 97
        1
330
2473
 75
     0
 76
     1
 52
0.0
 41
0.046
 77
     0
 78
    13
 53
50.0
 43
1039.55145347816
 44
6.056573120879818
 45
8.380494773816185
 46
-0.733197934789542
 79
     2
 49
0.8762999999999999
 49
-9.6393
 53
355.0
 43
1039.55145347816
 44
6.056573120879818
 45
-1.621169994880681
 46
8.788605572580278
 79
     2
 49
0.70104
 49
-7.711439999999999
 53
100.451
 43
1040.24982547816
 44
5.99547362087982
 45
6.759355076634125
 46
8.055367639733425
 79
     2
 49
0.7447400000000001
 49
-8.19214
 53
46.1842
 43
1039.55145347816
 44
8.393373120879815
 45
12.46963588103797
 46
-1.933947084905448
 79
     2
 49
1.314449999999999
 49
-14.45895
 53
96.63559999999998
 43
1040.59058887816
 44
8.232212120879822
 45
10.92059478544691
 46
11.38157557094226
 79
     2
 49
1.117109999999998
 49
-12.28820999999998
 53
351.184
 43
1039.55145347816
 44
8.393373120879815
 45
10.92061186744096
 46
11.38155542158749
 79
     2
 49
1.05156
 49
-11.56716
 53
21.0
 43
1040.71985347816
 44
7.809173120879819
 45
6.97428447242763
 46
-4.704213851771075
 79
     2
 49
0.8762999999999999
 49
-9.6393
 53
326.0
 43
1040.71985347816
 44
7.809173120879819
 45
2.842893303991765
 46
8.472646441626686
 79
     2
 49
0.70104
 49
-7.711439999999999
 53
71.45140000000001
 43
1041.30104047816
 44
7.417156520879814
 45
9.817158575425724
 46
3.768451454938642
 79
     2
 49
0.7447400000000001
 49
-8.19214
 53
37.5
 43
1039.55145347816
 44
6.056573120879818
 45
0.1420757495272236
 46
3.889531788165042
 79
     6
 49
0.0
 49
-7.617968
 49
0.0
 49
-7.82828
 49
0.0
 49
-7.74065
 53
7.499999999999999
 43
1039.55145347816
 44
6.056573120879818
 45
3.073704475474064
 46
4.608306441633497
 79
     6
 49
0.0
 49
-4.463287999999999
 49
0.0
 49
-7.442707999999999
 49
0.0
 49
-2.95021
 53
327.5
 43
1036.94592147816
 44
6.056573120879818
 45
6.237167377676083
 46
-0.2635222236629791
 79
     6
 49
0.0
 49
-2.920999999999999
 49
0.0
 49
-9.113519999999999
 49
0.0
 49
-12.09294
 53
317.5
 43
1035.77752147816
 44
6.056573120879818
 45
6.81394234375683
 46
1.169618587533318
 79
     6
 49
0.0
 49
-3.797299999999999
 49
0.0
 49
-6.052311999999999
 49
0.0
 49
-8.58774
 98
        1
 10
1039.55145347816
 20
6.056573120879818
1001
ACAD
1010
0.0
1020
0.0
1030
0.0
  0
LWPOLYLINE
  5
2473
102
{ACAD_REACTORS
330
2472
102
}
330
1F
100
AcDbEntity
  8
SOLBET_Tynki_Posadzki
100
AcDbPolyline
 90
        5
 70
     1
 43
0.0
 10
177.7422428895409
 20
186.5370135044251
 10
158.4152267849751
 20
186.5370135044251
 10
158.4152267849751
 20
184.1095459844419
 42
0.0737237824442382
 10
158.4259799681885
 20
184.0370135044252
 10
177.7422428895409
 20
184.0370135044269
  0
LINE
  5
2474
330
1F
100
AcDbEntity
  8
SOLBET_Izolacja
100
AcDbLine
 10
130.8585785810758
 20
183.6637066708719
 30
0.0
 11
130.8625649161297
 21
181.1637066708718
 31
0.0
  0
LINE
  5
2475
330
1F
100
AcDbEntity
  8
SOLBET_Izolacja
  6
BATTING
 48
0.12
100
AcDbLine
 10
130.8605717486027
 20
182.4137066708719
 30
0.0
 11
150.3004107353083
 21
182.4137066708719
 31
0.0
  0
LINE
  5
2476
330
1F
100
AcDbEntity
  8
SOLBET_Izolacja
  6
BATTING
 48
0.049
100
AcDbLine
 10
150.8004107353083
 20
186.5370135044251
 30
0.0
 11
150.8004107353083
 21
181.1637066708718
 31
0.0
  0
LINE
  5
2477
330
1F
100
AcDbEntity
  8
SOLBET_Izolacja
100
AcDbLine
 10
177.7422428895409
 20
183.6637066708719
 30
0.0
 11
177.7422428895409
 21
181.1637066708718
 31
0.0
  0
LINE
  5
2478
330
1F
100
AcDbEntity
  8
SOLBET_Izolacja
  6
BATTING
 48
0.049
100
AcDbLine
 10
157.8004107353083
 20
186.5370135044251
 30
0.0
 11
157.8004107353083
 21
181.1637066708718
 31
0.0
  0
LINE
  5
2479
330
1F
100
AcDbEntity
  8
SOLBET_Izolacja
  6
BATTING
 48
0.12
100
AcDbLine
 10
177.7422428895409
 20
182.4137066708719
 30
0.0
 11
158.3004107353083
 21
182.4137066708719
 31
0.0
  0
LINE
  5
247B
330
1F
100
AcDbEntity
  8
SOLBET_Wymiary_Opisy
100
AcDbLine
 10
177.7422428895409
 20
189.3316466226589
 30
0.0
 11
177.7422428895409
 21
164.492021783946
 31
0.0
  0
LINE
  5
247C
330
1F
100
AcDbEntity
  8
SOLBET_Tynki_Posadzki
100
AcDbLine
 10
150.8004107353083
 20
186.5370135044251
 30
0.0
 11
150.8004107353084
 21
210.8793582715536
 31
0.0
  0
LINE
  5
24A3
330
1F
100
AcDbEntity
  8
SOLBET_Wymiary_Opisy
100
AcDbLine
 10
130.8625649161297
 20
189.3316466226589
 30
0.0
 11
130.8625649161297
 21
164.492021783946
 31
0.0
  0
LINE
  5
2566
330
1F
100
AcDbEntity
  8
SOLBET_Bloczki
100
AcDbLine
 10
157.3004105157823
 20
205.6637066765535
 30
0.0
 11
157.3004105157824
 21
210.8793582715535
 31
0.0
  0
LINE
  5
2567
330
1F
100
AcDbEntity
  8
SOLBET_Bloczki
100
AcDbLine
 10
151.3004106658858
 20
210.8793582715535
 30
0.0
 11
151.3004105157825
 21
205.6637066765537
 31
0.0
  0
LINE
  5
2568
330
1F
100
AcDbEntity
  8
SOLBET_Bloczki
100
AcDbLine
 10
151.3004105157825
 20
205.6637066765537
 30
0.0
 11
157.3004105157823
 21
205.6637066765536
 31
0.0
  0
LINE
  5
2570
330
1F
100
AcDbEntity
  8
SOLBET_Wymiary_Opisy
100
AcDbLine
 10
149.1232237426096
 20
210.8793582715535
 30
0.0
 11
159.4815839242086
 21
210.8793582715535
 31
0.0
  0
INSERT
  5
2572
330
1F
100
AcDbEntity
  8
SOLBET_Wymiary_Opisy
100
AcDbBlockReference
  2
_DotSmall
 10
57.49908017956056
 20
201.7344670504351
 30
0.0
 41
2.499999999999999
 42
2.5
 43
2.5
 50
221.5285743261123
1001
ACAD
1000
DSTYLE
1002
{
1070
   147
1040
0.625
1070
    77
1070
     1
1002
}
  0
LINE
  5
2574
330
1F
100
AcDbEntity
  8
SOLBET_Wymiary_Opisy
100
AcDbLine
 10
57.49908017956056
 20
201.7344670504351
 30
0.0
 11
76.21989733955695
 21
218.3138986268293
 31
0.0
1001
ACAD
1000
DSTYLE
1002
{
1070
   147
1040
0.625
1070
    77
1070
     1
1002
}
  0
LINE
  5
2575
330
1F
100
AcDbEntity
  8
SOLBET_Wymiary_Opisy
100
AcDbLine
 10
76.21989733955695
 20
218.3138986268293
 30
0.0
 11
134.8448973395569
 21
218.3138986268293
 31
0.0
1001
ACAD
1000
DSTYLE
1002
{
1070
   147
1040
0.625
1070
    77
1070
     1
1002
}
  0
INSERT
  5
2576
330
1F
100
AcDbEntity
  8
SOLBET_Wymiary_Opisy
100
AcDbBlockReference
  2
_DotSmall
 10
153.4846858298274
 20
201.7344670504351
 30
0.0
 41
2.500000000000005
 42
2.5
 43
2.5
 50
221.5285743261122
1001
ACAD
1000
DSTYLE
1002
{
1070
   147
1040
0.625
1070
    77
1070
     1
1002
}
  0
LINE
  5
2577
330
1F
100
AcDbEntity
  8
SOLBET_Wymiary_Opisy
100
AcDbLine
 10
153.4846858298274
 20
201.7344670504351
 30
0.0
 11
134.8448973395569
 21
218.3138986268293
 31
0.0
1001
ACAD
1000
DSTYLE
1002
{
1070
   147
1040
0.625
1070
    77
1070
     1
1002
}
  0
INSERT
  5
2578
330
1F
100
AcDbEntity
  8
SOLBET_Wymiary_Opisy
100
AcDbBlockReference
  2
_DotSmall
 10
154.0226988091987
 20
181.4317772161187
 30
0.0
 41
2.500000000000006
 42
2.5
 43
2.5
 50
221.5285743261122
1001
ACAD
1000
DSTYLE
1002
{
1070
   147
1040
0.625
1070
    77
1070
     1
1002
}
  0
LINE
  5
2579
330
1F
100
AcDbEntity
  8
SOLBET_Wymiary_Opisy
100
AcDbLine
 10
154.0226988091987
 20
181.4317772161187
 30
0.0
 11
126.8429770182754
 21
198.6245651688887
 31
0.0
1001
ACAD
1000
DSTYLE
1002
{
1070
   147
1040
0.625
1070
    77
1070
     1
1002
}
  0
LINE
  5
257A
330
1F
100
AcDbEntity
  8
SOLBET_Wymiary_Opisy
100
AcDbLine
 10
130.8625649161297
 20
166.0736781128902
 30
0.0
 11
177.7422428895409
 21
166.0736781128902
 31
0.0
  0
INSERT
  5
2583
330
1F
100
AcDbEntity
  8
SOLBET_Wymiary_Opisy
100
AcDbBlockReference
  2
_DotSmall
 10
147.2728045576673
 20
180.9589707869968
 30
0.0
 41
2.5
 42
2.5
 43
2.5
 50
41.95798249707098
1001
ACAD
1000
DSTYLE
1002
{
1070
   147
1040
0.625
1070
    77
1070
     1
1002
}
  0
LINE
  5
2584
330
1F
100
AcDbEntity
  8
SOLBET_Wymiary_Opisy
100
AcDbLine
 10
147.2728045576673
 20
180.9589707869968
 30
0.0
 11
126.8429770182754
 21
167.2312511473253
 31
0.0
1001
ACAD
1000
DSTYLE
1002
{
1070
   147
1040
0.625
1070
    77
1070
     1
1002
}
  0
LINE
  5
2585
330
1F
100
AcDbEntity
  8
SOLBET_Wymiary_Opisy
100
AcDbLine
 10
126.8429770182754
 20
167.2312511473253
 30
0.0
 11
99.29214868342661
 21
167.2312511473253
 31
0.0
1001
ACAD
1000
DSTYLE
1002
{
1070
   147
1040
0.625
1070
    77
1070
     1
1002
}
  0
MTEXT
  5
2586
330
1F
100
AcDbEntity
  8
SOLBET_Wymiary_Opisy
100
AcDbMText
 10
99.29214868342661
 20
170.4812511473253
 30
0.0
 40
2.5
 41
0.0
 71
     1
 72
     1
  1
Izolacja z folii
  7
Solbet_2_5
 73
     1
 44
1.0
1001
ACAD
1000
MTEXTBEGIN
1070
    73
1070
     1
1070
    44
1040
1.0
1070
    74
1070
     0
1000
MTEXTEND
  0
POINT
  5
2624
330
1F
100
AcDbEntity
  8
SOLBET_Ramka_05
100
AcDbPoint
 10
30.4859316477025
 20
0.1114297788899421
 30
0.0
  0
INSERT
  5
26DC
330
1F
100
AcDbEntity
  8
SOLBET_Bloczki
100
AcDbBlockReference
  2
SOLBET_Bloczek_Optimal_120x240x590_G_KG700_PRA
 10
54.05887825760714
 20
155.9137066651888
 30
0.0
  0
INSERT
  5
26DE
330
1F
100
AcDbEntity
  8
SOLBET_Bloczki
100
AcDbBlockReference
  2
SOLBET_Bloczek_Optimal_120x240x590_G_KG700_PRA
 10
151.3004106658858
 20
193.6637066708719
 30
0.0
  0
INSERT
  5
26DF
330
1F
100
AcDbEntity
  8
SOLBET_Bloczki
100
AcDbBlockReference
  2
SOLBET_Bloczek_Optimal_120x240x590_G_KG700_PRA
 10
151.3004106658858
 20
181.6637066708721
 30
0.0
  0
INSERT
  5
26E0
330
1F
100
AcDbEntity
  8
SOLBET_Bloczki
100
AcDbBlockReference
  2
SOLBET_Bloczek_Optimal_120x240x590_G_KG700_PRA
 10
54.05688523429489
 20
193.6637066708719
 30
0.0
  0
INSERT
  5
26E1
330
1F
100
AcDbEntity
  8
SOLBET_Bloczki
100
AcDbBlockReference
  2
SOLBET_Bloczek_Optimal_120x240x590_G_KG700_PRA
 10
54.05688523429489
 20
181.6637066708721
 30
0.0
  0
MTEXT
  5
271B
102
{ACAD_XDICTIONARY
360
271C
102
}
330
1F
100
AcDbEntity
  8
SOLBET_Wymiary_Opisy
100
AcDbMText
 10
176.9024892334916
 20
7.273150535415538
 30
0.0
 40
5.0
 41
0.0
 71
     1
 72
     5
  1
Skala 1:20
  7
Solbet_5
 73
     1
 44
1.0
1001
ACAD
1000
MTEXTBEGIN
1070
    73
1070
     1
1070
    44
1040
1.0
1070
    74
1070
     0
1000
MTEXTEND
1000
ACAD_MTEXT_DEFINED_HEIGHT_BEGIN
1070
    46
1040
5.395147572682731
1000
ACAD_MTEXT_DEFINED_HEIGHT_END
  0
LWPOLYLINE
  5
271E
330
1F
100
AcDbEntity
  8
SOLBET_Ramka_05
100
AcDbPolyline
 90
        4
 70
     1
 43
0.0
 10
173.8838231125778
 20
9.804221198935465
 10
210.0
 20
9.804221198935465
 10
210.0
 20
0.0
 10
173.8838231125779
 20
0.0
  0
ENDSEC
  0
SECTION
  2
OBJECTS
  0
DICTIONARY
  5
C
330
0
100
AcDbDictionary
281
     1
  3
ACAD_COLOR
350
6B
  3
ACAD_GROUP
350
D
  3
ACAD_LAYOUT
350
1A
  3
ACAD_MATERIAL
350
6A
  3
ACAD_MLEADERSTYLE
350
12D
  3
ACAD_MLINESTYLE
350
17
  3
ACAD_PLOTSETTINGS
350
19
  3
ACAD_PLOTSTYLENAME
350
E
  3
ACAD_SCALELIST
350
10C
  3
ACAD_TABLESTYLE
350
7E
  3
ACAD_VISUALSTYLE
350
EF
  3
ACDB_RECOMPOSE_DATA
350
15D
  3
AcDbVariableDictionary
350
5E
  3
DWGPROPS
350
274A
  0
DICTIONARY
  5
443
330
8
100
AcDbDictionary
280
     1
281
     1
  0
DICTIONARY
  5
3E5
330
2
100
AcDbDictionary
280
     1
281
     1
  3
ACAD_LAYERFILTERS
360
1883
  3
ACLYDICTIONARY
360
1882
  0
DICTIONARY
  5
13C
330
10
100
AcDbDictionary
280
     1
281
     1
  3
ADSK_XREC_LAYER_RECONCILED
360
3F4
  0
DICTIONARY
  5
403
330
3DD
100
AcDbDictionary
280
     1
281
     1
  3
ADSK_XREC_LAYER_RECONCILED
360
404
  0
DICTIONARY
  5
405
330
3DF
100
AcDbDictionary
280
     1
281
     1
  3
ADSK_XREC_LAYER_RECONCILED
360
406
  0
DICTIONARY
  5
407
330
3E0
100
AcDbDictionary
280
     1
281
     1
  3
ADSK_XREC_LAYER_RECONCILED
360
408
  0
DICTIONARY
  5
409
330
3E1
100
AcDbDictionary
280
     1
281
     1
  3
ADSK_XREC_LAYER_RECONCILED
360
40A
  0
DICTIONARY
  5
40F
330
3E4
100
AcDbDictionary
280
     1
281
     1
  3
ADSK_XREC_LAYER_RECONCILED
360
410
  0
DICTIONARY
  5
411
330
3E8
100
AcDbDictionary
280
     1
281
     1
  3
ADSK_XREC_LAYER_RECONCILED
360
412
  0
DICTIONARY
  5
2699
330
2698
100
AcDbDictionary
280
     1
281
     1
  3
ASDK_XREC_ANNO_SCALE_INFO
360
269A
  0
DICTIONARY
  5
4A3
330
1F
100
AcDbDictionary
280
     1
281
     1
  3
ACAD_SORTENTS
360
4A4
  0
DICTIONARY
  5
2140
330
2135
100
AcDbDictionary
280
     1
281
     1
  3
ACAD_SORTENTS
360
2141
  0
DICTIONARY
  5
2308
330
2307
100
AcDbDictionary
280
     1
281
     1
  3
ACAD_SORTENTS
360
2309
  0
DICTIONARY
  5
26D8
330
26CD
100
AcDbDictionary
280
     1
281
     1
  3
ACAD_SORTENTS
360
26D9
  0
DICTIONARY
  5
211D
330
211C
100
AcDbDictionary
280
     1
281
     1
  3
ACAD_MTEXT_RT
360
2757
  3
AcDbContextDataManager
360
211E
  0
DICTIONARY
  5
2758
330
219A
100
AcDbDictionary
280
     1
281
     1
  3
ACAD_MTEXT_RT
360
2759
  0
DICTIONARY
  5
275A
330
219E
100
AcDbDictionary
280
     1
281
     1
  3
ACAD_MTEXT_RT
360
275B
  0
DICTIONARY
  5
275C
330
21A0
100
AcDbDictionary
280
     1
281
     1
  3
ACAD_MTEXT_RT
360
275D
  0
DICTIONARY
  5
269B
330
220D
100
AcDbDictionary
280
     1
281
     1
  3
ACAD_MTEXT_2008_RT
360
269C
  0
DICTIONARY
  5
271C
330
271B
100
AcDbDictionary
280
     1
281
     1
  3
ACAD_MTEXT_2008_RT
360
271D
  0
DICTIONARY
  5
6B
102
{ACAD_REACTORS
330
C
102
}
330
C
100
AcDbDictionary
281
     1
  0
DICTIONARY
  5
D
102
{ACAD_REACTORS
330
C
102
}
330
C
100
AcDbDictionary
281
     1
  0
DICTIONARY
  5
1A
102
{ACAD_REACTORS
330
C
102
}
330
C
100
AcDbDictionary
281
     1
  3
Arkusz1
350
D3
  3
Arkusz2
350
D7
  3
Model
350
22
  0
DICTIONARY
  5
6A
102
{ACAD_REACTORS
330
C
102
}
330
C
100
AcDbDictionary
281
     1
  3
ByBlock
350
ED
  3
ByLayer
350
EC
  3
Global
350
EE
  0
DICTIONARY
  5
12D
102
{ACAD_REACTORS
330
C
102
}
330
C
100
AcDbDictionary
281
     1
  3
Standard
350
12E
  0
DICTIONARY
  5
17
102
{ACAD_REACTORS
330
C
102
}
330
C
100
AcDbDictionary
281
     1
  3
SOLBET_IZOLACJA
350
7E9
  3
Standard
350
18
  0
DICTIONARY
  5
19
102
{ACAD_REACTORS
330
C
102
}
330
C
100
AcDbDictionary
281
     1
  0
ACDBDICTIONARYWDFLT
  5
E
102
{ACAD_REACTORS
330
C
102
}
330
C
100
AcDbDictionary
281
     1
  3
Normal
350
F
100
AcDbDictionaryWithDefault
340
F
  0
DICTIONARY
  5
10C
102
{ACAD_REACTORS
330
C
102
}
330
C
100
AcDbDictionary
281
     1
  3
A0
350
10D
  3
A1
350
188
  3
A2
350
189
  3
A3
350
18A
  3
A4
350
18B
  3
A5
350
18C
  3
A6
350
18D
  3
A7
350
18E
  3
A8
350
18F
  3
A9
350
190
  3
B0
350
191
  3
B1
350
192
  3
B2
350
193
  3
B3
350
194
  3
B4
350
195
  3
B5
350
196
  3
B6
350
197
  3
B7
350
198
  3
B8
350
199
  3
B9
350
19A
  3
C0
350
19B
  3
C1
350
19C
  3
C2
350
19D
  3
C3
350
19E
  3
C4
350
19F
  3
C5
350
1A0
  3
C6
350
1A1
  3
C7
350
1A2
  3
C8
350
1A3
  3
C9
350
1A4
  3
D0
350
1A5
  3
D1
350
1A6
  3
D2
350
1A7
  0
DICTIONARY
  5
7E
102
{ACAD_REACTORS
330
C
102
}
330
C
100
AcDbDictionary
281
     1
  3
Standard
350
7F
  0
DICTIONARY
  5
EF
102
{ACAD_REACTORS
330
C
102
}
330
C
100
AcDbDictionary
281
     1
  3
2dWireframe
350
F5
  3
3D Hidden
350
F7
  3
3dWireframe
350
F6
  3
Basic
350
F4
  3
Brighten
350
FB
  3
ColorChange
350
FF
  3
Conceptual
350
F8
  3
Dim
350
FA
  3
Facepattern
350
FE
  3
Flat
350
F0
  3
FlatWithEdges
350
F1
  3
Gouraud
350
F2
  3
GouraudWithEdges
350
F3
  3
Linepattern
350
FD
  3
Realistic
350
F9
  3
Thicken
350
FC
  0
XRECORD
  5
15D
102
{ACAD_REACTORS
330
C
102
}
330
C
100
AcDbXrecord
280
     1
 90
        1
330
7F
330
211C
330
220D
  0
DICTIONARY
  5
5E
102
{ACAD_REACTORS
330
C
102
}
330
C
100
AcDbDictionary
281
     1
  3
CANNOSCALE
350
146
  3
CMLEADERSTYLE
350
145
  3
CTABLESTYLE
350
84
  3
DIMASSOC
350
5F
  3
HIDETEXT
350
63
  3
INDEXCTL
350
466
  3
LIGHTINGUNITS
350
464
  3
MSLTSCALE
350
463
  3
PSOLHEIGHT
350
2749
  3
PSOLWIDTH
350
2748
  3
SORTENTS
350
465
  0
XRECORD
  5
274A
102
{ACAD_REACTORS
330
C
102
}
330
C
100
AcDbXrecord
280
     1
  1
DWGPROPS COOKIE
  2

  3

  4

  6

  7

  8
Olus
  9

300
=
301
=
302
=
303
=
304
=
305
=
306
=
307
=
308
=
309
=
 40
0.4835689236111111
 41
2454690.075573148
 42
2454848.89000316
  1

 90
        0
  0
DICTIONARY
  5
1883
102
{ACAD_REACTORS
330
3E5
102
}
330
3E5
100
AcDbDictionary
281
     1
  0
DICTIONARY
  5
1882
102
{ACAD_REACTORS
330
3E5
102
}
330
3E5
100
AcDbDictionary
281
     1
1001
ACAD
1000
<All
  0
XRECORD
  5
3F4
102
{ACAD_REACTORS
330
13C
102
}
330
13C
100
AcDbXrecord
280
     1
290
     1
  0
XRECORD
  5
404
102
{ACAD_REACTORS
330
403
102
}
330
403
100
AcDbXrecord
280
     1
290
     1
  0
XRECORD
  5
406
102
{ACAD_REACTORS
330
405
102
}
330
405
100
AcDbXrecord
280
     1
290
     1
  0
XRECORD
  5
408
102
{ACAD_REACTORS
330
407
102
}
330
407
100
AcDbXrecord
280
     1
290
     1
  0
XRECORD
  5
40A
102
{ACAD_REACTORS
330
409
102
}
330
409
100
AcDbXrecord
280
     1
290
     1
  0
XRECORD
  5
410
102
{ACAD_REACTORS
330
40F
102
}
330
40F
100
AcDbXrecord
280
     1
290
     1
  0
XRECORD
  5
412
102
{ACAD_REACTORS
330
411
102
}
330
411
100
AcDbXrecord
280
     1
290
     1
  0
XRECORD
  5
269A
102
{ACAD_REACTORS
330
2699
102
}
330
2699
100
AcDbXrecord
280
     1
 70
     1
340
10D
340
3DF
 70
    -1
  0
SORTENTSTABLE
  5
4A4
102
{ACAD_REACTORS
330
4A3
102
}
330
4A3
100
AcDbSortentsTable
330
1F
331
20E9
  5
20E7
331
20F1
  5
20F8
331
2168
  5
2170
331
2207
  5
220B
331
220D
  5
23F2
331
23F4
  5
2468
331
245C
  5
246D
331
2464
  5
2476
331
246C
  5
2486
331
2170
  5
2166
331
20CA
  5
20C9
331
20D2
  5
20D1
331
2190
  5
217A
331
2474
  5
2498
331
247C
  5
2569
331
2198
  5
2191
331
20F2
  5
20FE
331
21A0
  5
2206
331
2169
  5
2171
331
220E
  5
23F3
331
245D
  5
246F
331
2574
  5
219D
331
22F6
  5
23F4
331
2465
  5
2477
331
246D
  5
248C
331
20D3
  5
20D2
331
2191
  5
218B
331
20E3
  5
20DF
331
2475
  5
2499
331
20F3
  5
2100
331
21A1
  5
21A6
331
220F
  5
20C6
331
245E
  5
2470
331
2575
  5
219E
331
2466
  5
2478
331
246E
  5
2491
331
20CC
  5
20CA
331
217A
  5
20ED
331
20D4
  5
20D3
331
2192
  5
218C
331
20E4
  5
20E0
331
2476
  5
249B
331
219A
  5
21A0
331
20EC
  5
20EE
331
2208
  5
220D
331
2566
  5
256C
331
245F
  5
2471
331
2467
  5
2479
331
246F
  5
2493
331
211C
  5
2167
331
20CD
  5
20CC
331
20D5
  5
20D4
331
218B
  5
2175
331
2193
  5
218D
331
2477
  5
249C
331
219B
  5
21A2
331
20ED
  5
20EF
331
21A3
  5
21F9
331
215C
  5
2172
331
20F5
  5
2103
331
20C6
  5
20C7
331
2209
  5
220E
331
2567
  5
2570
331
2458
  5
2469
331
2460
  5
2472
331
2468
  5
247A
331
20CE
  5
20CD
331
20D6
  5
20D5
331
218C
  5
2176
331
2194
  5
218E
331
20E6
  5
20E3
331
2470
  5
2494
331
2478
  5
249D
331
23E9
  5
245C
331
219C
  5
21A3
331
20EE
  5
20F0
331
21A4
  5
2205
331
215D
  5
2173
331
20FE
  5
2199
331
20C7
  5
2194
331
220A
  5
220F
331
2568
  5
2572
331
2459
  5
246A
331
2461
  5
2473
331
2570
  5
2575
331
2469
  5
247B
331
20CF
  5
20D0
331
20D7
  5
20D6
331
218D
  5
2177
331
20DF
  5
2193
331
20E7
  5
20E4
331
2471
  5
2495
331
2479
  5
2566
331
23EA
  5
2465
331
219D
  5
21A4
331
20EF
  5
20F1
331
21A5
  5
2207
331
215E
  5
2174
331
2205
  5
2209
331
2166
  5
2168
331
220B
  5
23E9
331
23F2
  5
2466
331
245A
  5
246B
331
2462
  5
2474
331
246A
  5
247C
331
20C8
  5
2192
331
2176
  5
2104
331
20D8
  5
20DD
331
218E
  5
2178
331
20E0
  5
20DE
331
2196
  5
218F
331
2472
  5
2496
331
20E8
  5
20E6
331
219E
  5
21A5
331
20F0
  5
20F2
331
21A6
  5
2208
331
2206
  5
220A
331
220C
  5
23EA
331
23F3
  5
2467
331
245B
  5
246C
331
2572
  5
219B
331
2463
  5
2475
331
246B
  5
2485
331
20C9
  5
20C8
331
218F
  5
2179
331
2197
  5
2190
331
2473
  5
2497
331
247B
  5
2568
331
24A3
  5
2567
  0
SORTENTSTABLE
  5
2141
102
{ACAD_REACTORS
330
2140
102
}
330
2140
100
AcDbSortentsTable
330
2135
  0
SORTENTSTABLE
  5
2309
102
{ACAD_REACTORS
330
2308
102
}
330
2308
100
AcDbSortentsTable
330
2307
  0
SORTENTSTABLE
  5
26D9
102
{ACAD_REACTORS
330
26D8
102
}
330
26D8
100
AcDbSortentsTable
330
26CD
  0
XRECORD
  5
2757
102
{ACAD_REACTORS
330
211D
102
}
330
211D
100
AcDbXrecord
280
     1
 40
404255.0
  1
{\LDETAL 101}\PPierwsza warstwa murowana na zaprawie cienkowarstwowej lub zwykłej SOLBET
  0
DICTIONARY
  5
211E
102
{ACAD_REACTORS
330
211D
102
}
330
211D
100
AcDbDictionary
281
     1
  3
ACDB_ANNOTATIONSCALES
350
211F
  0
XRECORD
  5
2759
102
{ACAD_REACTORS
330
2758
102
}
330
2758
100
AcDbXrecord
280
     1
 40
103952.0
  1
Ściana działowa z bloczków SOLBET
  0
XRECORD
  5
275B
102
{ACAD_REACTORS
330
275A
102
}
330
275A
100
AcDbXrecord
280
     1
 40
416468.0
  1
Wypełnienie pianką montażową\P(umożliwia ugięcie się stropu)
  0
XRECORD
  5
275D
102
{ACAD_REACTORS
330
275C
102
}
330
275C
100
AcDbXrecord
280
     1
 40
26527.0
  1
Cięcie tynkarskie
  0
XRECORD
  5
269C
102
{ACAD_REACTORS
330
269B
102
}
330
269B
100
AcDbXrecord
280
     1
 40
136811.0
  1
\pxqc;Dowolny strop nad pomieszczeniem
  0
XRECORD
  5
271D
102
{ACAD_REACTORS
330
271C
102
}
330
271C
100
AcDbXrecord
280
     1
 40
24748.0
  1
\pxqc;C\P(5 : 1)
  0
LAYOUT
  5
D3
102
{ACAD_XDICTIONARY
360
274E
102
}
102
{ACAD_REACTORS
330
1A
102
}
330
1A
100
AcDbPlotSettings
  1

  2
C:\Documents and Settings\basas\Application Data\Autodesk\AutoCAD 2005\R16.1\enu\plotters\Default Windows System Printer.pc3
  4

  6

 40
0.0
 41
0.0
 42
0.0
 43
0.0
 44
0.0
 45
0.0
 46
0.0
 47
0.0
 48
0.0
 49
0.0
140
0.0
141
0.0
142
1.0
143
1.0
 70
   688
 72
     0
 73
     0
 74
     5
  7

 75
    16
147
1.0
148
0.0
149
0.0
100
AcDbLayout
  1
Arkusz1
 70
     1
 71
     1
 10
0.0
 20
0.0
 11
12.0
 21
9.0
 12
0.0
 22
0.0
 32
0.0
 14
0.0
 24
0.0
 34
0.0
 15
0.0
 25
0.0
 35
0.0
146
0.0
 13
0.0
 23
0.0
 33
0.0
 16
1.0
 26
0.0
 36
0.0
 17
0.0
 27
1.0
 37
0.0
 76
     0
330
D2
  0
LAYOUT
  5
D7
102
{ACAD_XDICTIONARY
360
2750
102
}
102
{ACAD_REACTORS
330
1A
102
}
330
1A
100
AcDbPlotSettings
  1

  2
C:\Documents and Settings\basas\Application Data\Autodesk\AutoCAD 2005\R16.1\enu\plotters\Default Windows System Printer.pc3
  4

  6

 40
0.0
 41
0.0
 42
0.0
 43
0.0
 44
0.0
 45
0.0
 46
0.0
 47
0.0
 48
0.0
 49
0.0
140
0.0
141
0.0
142
1.0
143
1.0
 70
   688
 72
     0
 73
     0
 74
     5
  7

 75
    16
147
1.0
148
0.0
149
0.0
100
AcDbLayout
  1
Arkusz2
 70
     1
 71
     2
 10
0.0
 20
0.0
 11
12.0
 21
9.0
 12
0.0
 22
0.0
 32
0.0
 14
0.0
 24
0.0
 34
0.0
 15
0.0
 25
0.0
 35
0.0
146
0.0
 13
0.0
 23
0.0
 33
0.0
 16
1.0
 26
0.0
 36
0.0
 17
0.0
 27
1.0
 37
0.0
 76
     0
330
D6
  0
LAYOUT
  5
22
102
{ACAD_XDICTIONARY
360
274B
102
}
102
{ACAD_REACTORS
330
1A
102
}
330
1A
100
AcDbPlotSettings
  1

  2
none_device
  4
Letter_(8.50_x_11.00_Inches)
  6

 40
6.349999904632568
 41
6.349999904632568
 42
6.350006103515625
 43
6.350006103515625
 44
215.8999938964844
 45
279.3999938964844
 46
11.54999923706054
 47
-13.65000009536743
 48
0.0
 49
0.0
140
210.0
141
297.0
142
1.0
143
1.0
 70
 11936
 72
     1
 73
     0
 74
     4
  7

 75
     0
147
0.9999999999999998
148
0.0
149
0.0
100
AcDbLayout
  1
Model
 70
     1
 71
     0
 10
0.0
 20
0.0
 11
12.0
 21
9.0
 12
0.0
 22
0.0
 32
0.0
 14
0.0
 24
0.0
 34
0.0
 15
0.0
 25
0.0
 35
0.0
146
0.0
 13
0.0
 23
0.0
 33
0.0
 16
1.0
 26
0.0
 36
0.0
 17
0.0
 27
1.0
 37
0.0
 76
     0
330
1F
331
EA
1001
ACAD_PSEXT
1000
Brak
1000
Brak
1000
Nie można zastosować.
1000
Arkusz nie zostanie wydrukowany dopóki nie wybrano konfiguracji plotera.
1070
     0
  0
MATERIAL
  5
ED
102
{ACAD_XDICTIONARY
360
2754
102
}
102
{ACAD_REACTORS
330
6A
102
}
330
6A
100
AcDbMaterial
  1
ByBlock
 73
     2
 78
     2
172
     2
176
     2
270
     2
274
     2
  0
MATERIAL
  5
EC
102
{ACAD_XDICTIONARY
360
2752
102
}
102
{ACAD_REACTORS
330
6A
102
}
330
6A
100
AcDbMaterial
  1
ByLayer
 73
     2
 78
     2
172
     2
176
     2
270
     2
274
     2
  0
MATERIAL
  5
EE
102
{ACAD_XDICTIONARY
360
173
102
}
102
{ACAD_REACTORS
330
6A
102
}
330
6A
100
AcDbMaterial
  1
Global
 73
     2
 43
0.0007999999797903
 43
0.0
 43
0.0
 43
0.0
 43
0.0
 43
0.0007999999797903
 43
0.0
 43
0.0
 43
0.0
 43
0.0
 43
1.0
 43
0.0
 43
0.0
 43
0.0
 43
0.0
 43
1.0
 78
     2
172
     2
 49
0.0007999999797903
 49
0.0
 49
0.0
 49
0.0
 49
0.0
 49
0.0007999999797903
 49
0.0
 49
0.0
 49
0.0
 49
0.0
 49
1.0
 49
0.0
 49
0.0
 49
0.0
 49
0.0
 49
1.0
176
     2
142
0.0007999999797903
142
0.0
142
0.0
142
0.0
142
0.0
142
0.0007999999797903
142
0.0
142
0.0
142
0.0
142
0.0
142
1.0
142
0.0
142
0.0
142
0.0
142
0.0
142
1.0
270
     2
144
0.0007999999797903
144
0.0
144
0.0
144
0.0
144
0.0
144
0.0007999999797903
144
0.0
144
0.0
144
0.0
144
0.0
144
1.0
144
0.0
144
0.0
144
0.0
144
0.0
144
1.0
274
     2
1001
ACAD
1070
    -1
1070
     3
1070
     0
1000

1071
        0
1070
     0
  0
ACAD_PROXY_OBJECT
  5
12E
102
{ACAD_REACTORS
330
12D
102
}
330
12D
100
AcDbProxyObject
 90
      499
 91
      508
 95
       23
 70
     0
 93
      618
310
40901902A4063FBFFFFFE0000000000000020400000000000020404254DD185B99185C99000000000000000104090140501A0000000000000410000000000000004102576400000000000003903F
340
14
340
0
340
11
340
0
 94
        0
1001
ACAD_MLEADERVER
1070
     2
1001
ACAD
1000
AcRTDxfName
1000
MLEADERSTYLE
1000
AcRTDxfName
1000
MLEADERSTYLE
  0
MLINESTYLE
  5
7E9
102
{ACAD_REACTORS
330
17
102
}
330
17
100
AcDbMlineStyle
  2
SOLBET_IZOLACJA
 70
   272
  3

 62
   256
 51
90.0
 52
90.0
 71
     2
 49
0.008
 62
   256
  6
BYLAYER
 49
-0.008
 62
   256
  6
BYLAYER
  0
MLINESTYLE
  5
18
102
{ACAD_REACTORS
330
17
102
}
330
17
100
AcDbMlineStyle
  2
STANDARD
 70
     0
  3

 62
   256
 51
90.0
 52
90.0
 71
     2
 49
0.5
 62
   256
  6
BYLAYER
 49
-0.5
 62
   256
  6
BYLAYER
  0
ACDBPLACEHOLDER
  5
F
102
{ACAD_REACTORS
330
E
102
}
330
E
  0
ACAD_PROXY_OBJECT
  5
10D
102
{ACAD_REACTORS
330
10C
102
}
330
10C
100
AcDbProxyObject
 90
      499
 91
      507
 95
       23
 70
     0
 93
       49
310
904313A31005FF
 94
        0
1001
ACAD
1000
AcRTDxfName
1000
SCALE
1000
AcRTDxfName
1000
SCALE
  0
ACAD_PROXY_OBJECT
  5
188
102
{ACAD_REACTORS
330
10C
102
}
330
10C
100
AcDbProxyObject
 90
      499
 91
      507
 95
       23
 70
     0
 93
      113
310
904313A3200400000000000000407F
 94
        0
1001
ACAD
1000
AcRTDxfName
1000
SCALE
1000
AcRTDxfName
1000
SCALE
  0
ACAD_PROXY_OBJECT
  5
189
102
{ACAD_REACTORS
330
10C
102
}
330
10C
100
AcDbProxyObject
 90
      499
 91
      507
 95
       23
 70
     0
 93
      113
310
904313A3400400000000000010407F
 94
        0
1001
ACAD
1000
AcRTDxfName
1000
SCALE
1000
AcRTDxfName
1000
SCALE
  0
ACAD_PROXY_OBJECT
  5
18A
102
{ACAD_REACTORS
330
10C
102
}
330
10C
100
AcDbProxyObject
 90
      499
 91
      507
 95
       23
 70
     0
 93
      113
310
904313A3500400000000000014407F
 94
        0
1001
ACAD
1000
AcRTDxfName
1000
SCALE
1000
AcRTDxfName
1000
SCALE
  0
ACAD_PROXY_OBJECT
  5
18B
102
{ACAD_REACTORS
330
10C
102
}
330
10C
100
AcDbProxyObject
 90
      499
 91
      507
 95
       23
 70
     0
 93
      113
310
904313A3800400000000000020407F
 94
        0
1001
ACAD
1000
AcRTDxfName
1000
SCALE
1000
AcRTDxfName
1000
SCALE
  0
ACAD_PROXY_OBJECT
  5
18C
102
{ACAD_REACTORS
330
10C
102
}
330
10C
100
AcDbProxyObject
 90
      499
 91
      507
 95
       23
 70
     0
 93
      121
310
905313A313000400000000000024407F
 94
        0
1001
ACAD
1000
AcRTDxfName
1000
SCALE
1000
AcRTDxfName
1000
SCALE
  0
ACAD_PROXY_OBJECT
  5
18D
102
{ACAD_REACTORS
330
10C
102
}
330
10C
100
AcDbProxyObject
 90
      499
 91
      507
 95
       23
 70
     0
 93
      121
310
905313A313600400000000000030407F
 94
        0
1001
ACAD
1000
AcRTDxfName
1000
SCALE
1000
AcRTDxfName
1000
SCALE
  0
ACAD_PROXY_OBJECT
  5
18E
102
{ACAD_REACTORS
330
10C
102
}
330
10C
100
AcDbProxyObject
 90
      499
 91
      507
 95
       23
 70
     0
 93
      121
310
905313A323000400000000000034407F
 94
        0
1001
ACAD
1000
AcRTDxfName
1000
SCALE
1000
AcRTDxfName
1000
SCALE
  0
ACAD_PROXY_OBJECT
  5
18F
102
{ACAD_REACTORS
330
10C
102
}
330
10C
100
AcDbProxyObject
 90
      499
 91
      507
 95
       23
 70
     0
 93
      121
310
905313A33300040000000000003E407F
 94
        0
1001
ACAD
1000
AcRTDxfName
1000
SCALE
1000
AcRTDxfName
1000
SCALE
  0
ACAD_PROXY_OBJECT
  5
190
102
{ACAD_REACTORS
330
10C
102
}
330
10C
100
AcDbProxyObject
 90
      499
 91
      507
 95
       23
 70
     0
 93
      121
310
905313A343000400000000000044407F
 94
        0
1001
ACAD
1000
AcRTDxfName
1000
SCALE
1000
AcRTDxfName
1000
SCALE
  0
ACAD_PROXY_OBJECT
  5
191
102
{ACAD_REACTORS
330
10C
102
}
330
10C
100
AcDbProxyObject
 90
      499
 91
      507
 95
       23
 70
     0
 93
      121
310
905313A353000400000000000049407F
 94
        0
1001
ACAD
1000
AcRTDxfName
1000
SCALE
1000
AcRTDxfName
1000
SCALE
  0
ACAD_PROXY_OBJECT
  5
192
102
{ACAD_REACTORS
330
10C
102
}
330
10C
100
AcDbProxyObject
 90
      499
 91
      507
 95
       23
 70
     0
 93
      129
310
906313A31303000400000000000059407F
 94
        0
1001
ACAD
1000
AcRTDxfName
1000
SCALE
1000
AcRTDxfName
1000
SCALE
  0
ACAD_PROXY_OBJECT
  5
193
102
{ACAD_REACTORS
330
10C
102
}
330
10C
100
AcDbProxyObject
 90
      499
 91
      507
 95
       23
 70
     0
 93
      113
310
904323A3100000000000000001017F
 94
        0
1001
ACAD
1000
AcRTDxfName
1000
SCALE
1000
AcRTDxfName
1000
SCALE
  0
ACAD_PROXY_OBJECT
  5
194
102
{ACAD_REACTORS
330
10C
102
}
330
10C
100
AcDbProxyObject
 90
      499
 91
      507
 95
       23
 70
     0
 93
      113
310
904343A3100000000000000041017F
 94
        0
1001
ACAD
1000
AcRTDxfName
1000
SCALE
1000
AcRTDxfName
1000
SCALE
  0
ACAD_PROXY_OBJECT
  5
195
102
{ACAD_REACTORS
330
10C
102
}
330
10C
100
AcDbProxyObject
 90
      499
 91
      507
 95
       23
 70
     0
 93
      113
310
904383A3100000000000000081017F
 94
        0
1001
ACAD
1000
AcRTDxfName
1000
SCALE
1000
AcRTDxfName
1000
SCALE
  0
ACAD_PROXY_OBJECT
  5
196
102
{ACAD_REACTORS
330
10C
102
}
330
10C
100
AcDbProxyObject
 90
      499
 91
      507
 95
       23
 70
     0
 93
      121
310
90531303A3100000000000000091017F
 94
        0
1001
ACAD
1000
AcRTDxfName
1000
SCALE
1000
AcRTDxfName
1000
SCALE
  0
ACAD_PROXY_OBJECT
  5
197
102
{ACAD_REACTORS
330
10C
102
}
330
10C
100
AcDbProxyObject
 90
      499
 91
      507
 95
       23
 70
     0
 93
      129
310
9063130303A3100000000000000165017F
 94
        0
1001
ACAD
1000
AcRTDxfName
1000
SCALE
1000
AcRTDxfName
1000
SCALE
  0
ACAD_PROXY_OBJECT
  5
198
102
{ACAD_REACTORS
330
10C
102
}
330
10C
100
AcDbProxyObject
 90
      499
 91
      507
 95
       23
 70
     0
 93
      265
310
90F312F31323822203D2031272D302200000000000000200FC00000000000028407F
 94
        0
1001
ACAD
1000
AcRTDxfName
1000
SCALE
1000
AcRTDxfName
1000
SCALE
  0
ACAD_PROXY_OBJECT
  5
199
102
{ACAD_REACTORS
330
10C
102
}
330
10C
100
AcDbProxyObject
 90
      499
 91
      507
 95
       23
 70
     0
 93
      257
310
90E312F363422203D2031272D302200000000000000240FC00000000000028407F
 94
        0
1001
ACAD
1000
AcRTDxfName
1000
SCALE
1000
AcRTDxfName
1000
SCALE
  0
ACAD_PROXY_OBJECT
  5
19A
102
{ACAD_REACTORS
330
10C
102
}
330
10C
100
AcDbProxyObject
 90
      499
 91
      507
 95
       23
 70
     0
 93
      257
310
90E312F333222203D2031272D302200000000000000280FC00000000000028407F
 94
        0
1001
ACAD
1000
AcRTDxfName
1000
SCALE
1000
AcRTDxfName
1000
SCALE
  0
ACAD_PROXY_OBJECT
  5
19B
102
{ACAD_REACTORS
330
10C
102
}
330
10C
100
AcDbProxyObject
 90
      499
 91
      507
 95
       23
 70
     0
 93
      257
310
90E312F313622203D2031272D3022000000000000002C0FC00000000000028407F
 94
        0
1001
ACAD
1000
AcRTDxfName
1000
SCALE
1000
AcRTDxfName
1000
SCALE
  0
ACAD_PROXY_OBJECT
  5
19C
102
{ACAD_REACTORS
330
10C
102
}
330
10C
100
AcDbProxyObject
 90
      499
 91
      507
 95
       23
 70
     0
 93
      257
310
90E332F333222203D2031272D3022000000000000002E0FC00000000000028407F
 94
        0
1001
ACAD
1000
AcRTDxfName
1000
SCALE
1000
AcRTDxfName
1000
SCALE
  0
ACAD_PROXY_OBJECT
  5
19D
102
{ACAD_REACTORS
330
10C
102
}
330
10C
100
AcDbProxyObject
 90
      499
 91
      507
 95
       23
 70
     0
 93
      249
310
90D312F3822203D2031272D302200000000000000300FC00000000000028407F
 94
        0
1001
ACAD
1000
AcRTDxfName
1000
SCALE
1000
AcRTDxfName
1000
SCALE
  0
ACAD_PROXY_OBJECT
  5
19E
102
{ACAD_REACTORS
330
10C
102
}
330
10C
100
AcDbProxyObject
 90
      499
 91
      507
 95
       23
 70
     0
 93
      257
310
90E332F313622203D2031272D302200000000000000320FC00000000000028407F
 94
        0
1001
ACAD
1000
AcRTDxfName
1000
SCALE
1000
AcRTDxfName
1000
SCALE
  0
ACAD_PROXY_OBJECT
  5
19F
102
{ACAD_REACTORS
330
10C
102
}
330
10C
100
AcDbProxyObject
 90
      499
 91
      507
 95
       23
 70
     0
 93
      249
310
90D312F3422203D2031272D302200000000000000340FC00000000000028407F
 94
        0
1001
ACAD
1000
AcRTDxfName
1000
SCALE
1000
AcRTDxfName
1000
SCALE
  0
ACAD_PROXY_OBJECT
  5
1A0
102
{ACAD_REACTORS
330
10C
102
}
330
10C
100
AcDbProxyObject
 90
      499
 91
      507
 95
       23
 70
     0
 93
      249
310
90D332F3822203D2031272D302200000000000000360FC00000000000028407F
 94
        0
1001
ACAD
1000
AcRTDxfName
1000
SCALE
1000
AcRTDxfName
1000
SCALE
  0
ACAD_PROXY_OBJECT
  5
1A1
102
{ACAD_REACTORS
330
10C
102
}
330
10C
100
AcDbProxyObject
 90
      499
 91
      507
 95
       23
 70
     0
 93
      249
310
90D312F3222203D2031272D302200000000000000380FC00000000000028407F
 94
        0
1001
ACAD
1000
AcRTDxfName
1000
SCALE
1000
AcRTDxfName
1000
SCALE
  0
ACAD_PROXY_OBJECT
  5
1A2
102
{ACAD_REACTORS
330
10C
102
}
330
10C
100
AcDbProxyObject
 90
      499
 91
      507
 95
       23
 70
     0
 93
      249
310
90D332F3422203D2031272D3022000000000000003A0FC00000000000028407F
 94
        0
1001
ACAD
1000
AcRTDxfName
1000
SCALE
1000
AcRTDxfName
1000
SCALE
  0
ACAD_PROXY_OBJECT
  5
1A3
102
{ACAD_REACTORS
330
10C
102
}
330
10C
100
AcDbProxyObject
 90
      499
 91
      507
 95
       23
 70
     0
 93
      169
310
90B3122203D2031272D302200400000000000028407F
 94
        0
1001
ACAD
1000
AcRTDxfName
1000
SCALE
1000
AcRTDxfName
1000
SCALE
  0
ACAD_PROXY_OBJECT
  5
1A4
102
{ACAD_REACTORS
330
10C
102
}
330
10C
100
AcDbProxyObject
 90
      499
 91
      507
 95
       23
 70
     0
 93
      265
310
90F312D312F3222203D2031272D3022000000000000003E0FC00000000000028407F
 94
        0
1001
ACAD
1000
AcRTDxfName
1000
SCALE
1000
AcRTDxfName
1000
SCALE
  0
ACAD_PROXY_OBJECT
  5
1A5
102
{ACAD_REACTORS
330
10C
102
}
330
10C
100
AcDbProxyObject
 90
      499
 91
      507
 95
       23
 70
     0
 93
      233
310
90B3322203D2031272D3022000000000000000210000000000000028407F
 94
        0
1001
ACAD
1000
AcRTDxfName
1000
SCALE
1000
AcRTDxfName
1000
SCALE
  0
ACAD_PROXY_OBJECT
  5
1A6
102
{ACAD_REACTORS
330
10C
102
}
330
10C
100
AcDbProxyObject
 90
      499
 91
      507
 95
       23
 70
     0
 93
      233
310
90B3622203D2031272D3022000000000000000610000000000000028407F
 94
        0
1001
ACAD
1000
AcRTDxfName
1000
SCALE
1000
AcRTDxfName
1000
SCALE
  0
ACAD_PROXY_OBJECT
  5
1A7
102
{ACAD_REACTORS
330
10C
102
}
330
10C
100
AcDbProxyObject
 90
      499
 91
      507
 95
       23
 70
     0
 93
      257
310
90E31272D3022203D2031272D3022000000000000000A10000000000000028407F
 94
        0
1001
ACAD
1000
AcRTDxfName
1000
SCALE
1000
AcRTDxfName
1000
SCALE
  0
TABLESTYLE
  5
7F
102
{ACAD_XDICTIONARY
360
162
102
}
102
{ACAD_REACTORS
330
7E
102
}
330
7E
100
AcDbTableStyle
  3
Standard
 70
     0
 71
     0
 40
1.5
 41
1.5
280
     0
281
     0
  7
Standard
140
4.5
170
     2
 62
     0
 63
     7
283
     0
274
    -2
284
     1
 64
     0
275
    -2
285
     1
 65
     0
276
    -2
286
     1
 66
     0
277
    -2
287
     1
 67
     0
278
    -2
288
     1
 68
     0
279
    -2
289
     1
 69
     0
  7
Standard
140
6.0
170
     5
 62
     0
 63
     7
283
     0
274
    -2
284
     1
 64
     0
275
    -2
285
     1
 65
     0
276
    -2
286
     1
 66
     0
277
    -2
287
     1
 67
     0
278
    -2
288
     1
 68
     0
279
    -2
289
     1
 69
     0
  7
Standard
140
4.5
170
     5
 62
     0
 63
     7
283
     0
274
    -2
284
     1
 64
     0
275
    -2
285
     1
 65
     0
276
    -2
286
     1
 66
     0
277
    -2
287
     1
 67
     0
278
    -2
288
     1
 68
     0
279
    -2
289
     1
 69
     0
  0
VISUALSTYLE
  5
F5
102
{ACAD_REACTORS
330
EF
102
}
330
EF
100
AcDbVisualStyle
  2
2dWireframe
 70
     4
 71
     0
 72
     2
 73
     1
 90
        0
 40
-0.6
 41
-30.0
 62
     5
 63
     7
 74
     1
 91
        4
 64
     7
 65
   257
 75
     1
175
     1
 42
1.0
 92
        0
 66
   257
 43
1.0
 76
     1
 77
     6
 78
     2
 67
     7
 79
     5
170
     0
171
     0
290
     0
174
     0
 93
        1
 44
0.0
173
     0
291
     0
 45
0.0
1001
ACAD
1000
AcDbSavedByObjectVersion
1070
     0
  0
VISUALSTYLE
  5
F7
102
{ACAD_REACTORS
330
EF
102
}
330
EF
100
AcDbVisualStyle
  2
3D Hidden
 70
     6
 71
     1
 72
     2
 73
     2
 90
        0
 40
-0.6
 41
-30.0
 62
     5
 63
     7
 74
     2
 91
        2
 64
     7
 65
   257
 75
     2
175
     1
 42
40.0
 92
        0
 66
   257
 43
1.0
 76
     1
 77
     6
 78
     2
 67
     7
 79
     3
170
     0
171
     0
290
     0
174
     0
 93
        1
 44
0.0
173
     0
291
     0
 45
0.0
1001
ACAD
1000
AcDbSavedByObjectVersion
1070
     0
  0
VISUALSTYLE
  5
F6
102
{ACAD_REACTORS
330
EF
102
}
330
EF
100
AcDbVisualStyle
  2
3dWireframe
 70
     5
 71
     0
 72
     2
 73
     1
 90
        0
 40
-0.6
 41
-30.0
 62
     5
 63
     7
 74
     1
 91
        4
 64
     7
 65
   257
 75
     1
175
     1
 42
1.0
 92
        0
 66
   257
 43
1.0
 76
     1
 77
     6
 78
     2
 67
     7
 79
     5
170
     0
171
     0
290
     0
174
     0
 93
        1
 44
0.0
173
     0
291
     0
 45
0.0
1001
ACAD
1000
AcDbSavedByObjectVersion
1070
     0
  0
VISUALSTYLE
  5
F4
102
{ACAD_REACTORS
330
EF
102
}
330
EF
100
AcDbVisualStyle
  2
Basic
 70
     7
 71
     1
 72
     0
 73
     1
 90
        0
 40
-0.6
 41
-30.0
 62
     5
 63
     7
 74
     0
 91
        4
 64
     7
 65
   257
 75
     1
175
     1
 42
1.0
 92
        8
 66
     7
 43
1.0
 76
     1
 77
     6
 78
     2
 67
     7
 79
     5
170
     0
171
     0
290
     0
174
     0
 93
        1
 44
0.0
173
     0
291
     1
 45
0.0
1001
ACAD
1000
AcDbSavedByObjectVersion
1070
     0
  0
VISUALSTYLE
  5
FB
102
{ACAD_REACTORS
330
EF
102
}
330
EF
100
AcDbVisualStyle
  2
Brighten
 70
    12
 71
     2
 72
     2
 73
     1
 90
        0
 40
-0.6
 41
-30.0
 62
     5
 63
     7
 74
     1
 91
        4
 64
     7
 65
   257
 75
     1
175
     1
 42
1.0
 92
        8
 66
     7
 43
1.0
 76
     1
 77
     6
 78
     2
 67
     7
 79
     5
170
     0
171
     0
290
     0
174
     0
 93
        1
 44
50.0
173
     0
291
     1
 45
0.0
1001
ACAD
1000
AcDbSavedByObjectVersion
1070
     0
  0
VISUALSTYLE
  5
FF
102
{ACAD_REACTORS
330
EF
102
}
330
EF
100
AcDbVisualStyle
  2
ColorChange
 70
    16
 71
     2
 72
     2
 73
     3
 90
        0
 40
-0.6
 41
-30.0
 62
     5
 63
     8
 74
     1
 91
        4
 64
     7
 65
   257
 75
     1
175
     1
 42
1.0
 92
        8
 66
     8
 43
1.0
 76
     1
 77
     6
 78
     2
 67
     7
 79
     5
170
     0
171
     0
290
     0
174
     0
 93
        1
 44
0.0
173
     0
291
     1
 45
0.0
1001
ACAD
1000
AcDbSavedByObjectVersion
1070
     0
  0
VISUALSTYLE
  5
F8
102
{ACAD_REACTORS
330
EF
102
}
330
EF
100
AcDbVisualStyle
  2
Conceptual
 70
     9
 71
     3
 72
     2
 73
     1
 90
        0
 40
-0.6
 41
-30.0
 62
     5
 63
     7
 74
     2
 91
        2
 64
     7
 65
   257
 75
     1
175
     1
 42
40.0
 92
        8
 66
     7
 43
1.0
 76
     1
 77
     6
 78
     2
 67
     7
 79
     3
170
     0
171
     0
290
     0
174
     0
 93
        1
 44
0.0
173
     0
291
     0
 45
0.0
1001
ACAD
1000
AcDbSavedByObjectVersion
1070
     0
  0
VISUALSTYLE
  5
FA
102
{ACAD_REACTORS
330
EF
102
}
330
EF
100
AcDbVisualStyle
  2
Dim
 70
    11
 71
     2
 72
     2
 73
     1
 90
        0
 40
-0.6
 41
-30.0
 62
     5
 63
     7
 74
     1
 91
        4
 64
     7
 65
   257
 75
     1
175
     1
 42
1.0
 92
        8
 66
     7
 43
1.0
 76
     1
 77
     6
 78
     2
 67
     7
 79
     5
170
     0
171
     0
290
     0
174
     0
 93
        1
 44
-50.0
173
     0
291
     1
 45
0.0
1001
ACAD
1000
AcDbSavedByObjectVersion
1070
     0
  0
VISUALSTYLE
  5
FE
102
{ACAD_REACTORS
330
EF
102
}
330
EF
100
AcDbVisualStyle
  2
Facepattern
 70
    15
 71
     2
 72
     2
 73
     1
 90
        0
 40
-0.6
 41
-30.0
 62
     5
 63
     7
 74
     1
 91
        4
 64
     7
 65
   257
 75
     1
175
     1
 42
1.0
 92
        8
 66
     7
 43
1.0
 76
     1
 77
     6
 78
     2
 67
     7
 79
     5
170
     0
171
     0
290
     0
174
     0
 93
        1
 44
0.0
173
     0
291
     1
 45
0.0
1001
ACAD
1000
AcDbSavedByObjectVersion
1070
     0
  0
VISUALSTYLE
  5
F0
102
{ACAD_REACTORS
330
EF
102
}
330
EF
100
AcDbVisualStyle
  2
Flat
 70
     0
 71
     2
 72
     1
 73
     1
 90
        2
 40
-0.6
 41
30.0
 62
     5
 63
     7
 74
     0
 91
        4
 64
     7
 65
   257
 75
     1
175
     1
 42
1.0
 92
        8
 66
     7
 43
1.0
 76
     1
 77
     6
 78
     2
 67
     7
 79
     5
170
     0
171
     0
290
     0
174
     0
 93
        1
 44
0.0
173
     0
291
     1
 45
0.0
1001
ACAD
1000
AcDbSavedByObjectVersion
1070
     0
  0
VISUALSTYLE
  5
F1
102
{ACAD_REACTORS
330
EF
102
}
330
EF
100
AcDbVisualStyle
  2
FlatWithEdges
 70
     1
 71
     2
 72
     1
 73
     1
 90
        2
 40
-0.6
 41
30.0
 62
     5
 63
     7
 74
     1
 91
        4
 64
     7
 65
   257
 75
     1
175
     1
 42
1.0
 92
        0
 66
   257
 43
1.0
 76
     1
 77
     6
 78
     2
 67
     7
 79
     5
170
     0
171
     0
290
     0
174
     0
 93
        1
 44
0.0
173
     0
291
     1
 45
0.0
1001
ACAD
1000
AcDbSavedByObjectVersion
1070
     0
  0
VISUALSTYLE
  5
F2
102
{ACAD_REACTORS
330
EF
102
}
330
EF
100
AcDbVisualStyle
  2
Gouraud
 70
     2
 71
     2
 72
     2
 73
     1
 90
        2
 40
-0.6
 41
30.0
 62
     5
 63
     7
 74
     0
 91
        4
 64
     7
 65
   257
 75
     1
175
     1
 42
1.0
 92
        0
 66
     7
 43
1.0
 76
     1
 77
     6
 78
     2
 67
     7
 79
     5
170
     0
171
     0
290
     0
174
     0
 93
        1
 44
0.0
173
     0
291
     1
 45
0.0
1001
ACAD
1000
AcDbSavedByObjectVersion
1070
     0
  0
VISUALSTYLE
  5
F3
102
{ACAD_REACTORS
330
EF
102
}
330
EF
100
AcDbVisualStyle
  2
GouraudWithEdges
 70
     3
 71
     2
 72
     2
 73
     1
 90
        2
 40
-0.6
 41
30.0
 62
     5
 63
     7
 74
     1
 91
        4
 64
     7
 65
   257
 75
     1
175
     1
 42
1.0
 92
        0
 66
   257
 43
1.0
 76
     1
 77
     6
 78
     2
 67
     7
 79
     5
170
     0
171
     0
290
     0
174
     0
 93
        1
 44
0.0
173
     0
291
     1
 45
0.0
1001
ACAD
1000
AcDbSavedByObjectVersion
1070
     0
  0
VISUALSTYLE
  5
FD
102
{ACAD_REACTORS
330
EF
102
}
330
EF
100
AcDbVisualStyle
  2
Linepattern
 70
    14
 71
     2
 72
     2
 73
     1
 90
        0
 40
-0.6
 41
-30.0
 62
     5
 63
     7
 74
     1
 91
        4
 64
     7
 65
   257
 75
     7
175
     7
 42
1.0
 92
        8
 66
     7
 43
1.0
 76
     1
 77
     6
 78
     2
 67
     7
 79
     5
170
     0
171
     0
290
     0
174
     0
 93
        1
 44
0.0
173
     0
291
     1
 45
0.0
1001
ACAD
1000
AcDbSavedByObjectVersion
1070
     0
  0
VISUALSTYLE
  5
F9
102
{ACAD_REACTORS
330
EF
102
}
330
EF
100
AcDbVisualStyle
  2
Realistic
 70
     8
 71
     2
 72
     2
 73
     1
 90
        0
 40
-0.6
 41
-30.0
 62
     5
 63
     7
 74
     1
 91
        0
 64
     7
 65
   257
 75
     1
175
     1
 42
1.0
 92
        8
 66
     8
 43
1.0
 76
     1
 77
     6
 78
     2
 67
     7
 79
     5
170
     0
171
     0
290
     0
174
     0
 93
       13
 44
0.0
173
     0
291
     0
 45
0.0
1001
ACAD
1000
AcDbSavedByObjectVersion
1070
     0
  0
VISUALSTYLE
  5
FC
102
{ACAD_REACTORS
330
EF
102
}
330
EF
100
AcDbVisualStyle
  2
Thicken
 70
    13
 71
     2
 72
     2
 73
     1
 90
        0
 40
-0.6
 41
-30.0
 62
     5
 63
     7
 74
     1
 91
        4
 64
     7
 65
   257
 75
     1
175
     1
 42
1.0
 92
       12
 66
     7
 43
1.0
 76
     1
 77
     6
 78
     2
 67
     7
 79
     5
170
     0
171
     0
290
     0
174
     0
 93
        1
 44
0.0
173
     0
291
     1
 45
0.0
1001
ACAD
1000
AcDbSavedByObjectVersion
1070
     0
  0
DICTIONARYVAR
  5
146
102
{ACAD_REACTORS
330
5E
102
}
330
5E
100
DictionaryVariables
280
     0
  1
1:1
  0
DICTIONARYVAR
  5
145
102
{ACAD_REACTORS
330
5E
102
}
330
5E
100
DictionaryVariables
280
     0
  1
STANDARD
  0
DICTIONARYVAR
  5
84
102
{ACAD_REACTORS
330
5E
102
}
330
5E
100
DictionaryVariables
280
     0
  1
STANDARD
  0
DICTIONARYVAR
  5
5F
102
{ACAD_REACTORS
330
5E
102
}
330
5E
100
DictionaryVariables
280
     0
  1
2
  0
DICTIONARYVAR
  5
63
102
{ACAD_REACTORS
330
5E
102
}
330
5E
100
DictionaryVariables
280
     0
  1
1
  0
DICTIONARYVAR
  5
466
102
{ACAD_REACTORS
330
5E
102
}
330
5E
100
DictionaryVariables
280
     0
  1
0
  0
DICTIONARYVAR
  5
464
102
{ACAD_REACTORS
330
5E
102
}
330
5E
100
DictionaryVariables
280
     0
  1
2
  0
DICTIONARYVAR
  5
463
102
{ACAD_REACTORS
330
5E
102
}
330
5E
100
DictionaryVariables
280
     0
  1
1
  0
DICTIONARYVAR
  5
2749
102
{ACAD_REACTORS
330
5E
102
}
330
5E
100
DictionaryVariables
280
     0
  1
80.000000
  0
DICTIONARYVAR
  5
2748
102
{ACAD_REACTORS
330
5E
102
}
330
5E
100
DictionaryVariables
280
     0
  1
5.000000
  0
DICTIONARYVAR
  5
465
102
{ACAD_REACTORS
330
5E
102
}
330
5E
100
DictionaryVariables
280
     0
  1
127
  0
DICTIONARY
  5
211F
102
{ACAD_REACTORS
330
211E
102
}
330
211E
100
AcDbDictionary
281
     1
  0
DICTIONARY
  5
274E
330
D3
100
AcDbDictionary
280
     1
281
     1
  3
ACAD_XREC_ROUNDTRIP
360
274F
  0
DICTIONARY
  5
2750
330
D7
100
AcDbDictionary
280
     1
281
     1
  3
ACAD_XREC_ROUNDTRIP
360
2751
  0
DICTIONARY
  5
274B
330
22
100
AcDbDictionary
280
     1
281
     1
  3
ACAD_XREC_ROUNDTRIP
360
274C
  0
DICTIONARY
  5
2754
330
ED
100
AcDbDictionary
280
     1
281
     1
  3
ACAD_XREC_ROUNDTRIP
360
2755
  0
DICTIONARY
  5
2752
330
EC
100
AcDbDictionary
280
     1
281
     1
  3
ACAD_XREC_ROUNDTRIP
360
2753
  0
DICTIONARY
  5
173
330
EE
100
AcDbDictionary
280
     1
281
     1
  3
ACAD_XREC_ROUNDTRIP
360
2756
  3
BUMPTILE
360
175
  3
DIFFUSETILE
360
174
  3
OPACITYTILE
360
176
  3
REFLECTIONTILE
360
177
  0
DICTIONARY
  5
162
330
7F
100
AcDbDictionary
280
     1
281
     1
  3
ACAD_ROUNDTRIP_2008_TABLESTYLE_CELLSTYLEMAP
360
2697
  3
ACAD_XREC_ROUNDTRIP
360
274D
  0
XRECORD
  5
274F
102
{ACAD_REACTORS
330
274E
102
}
330
274E
100
AcDbXrecord
280
     1
102
SHADEPLOT
 70
     0
102
SHADEPLOTRESLEVEL
 70
     2
102
SHADEPLOTCUSTOMDPI
 70
   300
  0
XRECORD
  5
2751
102
{ACAD_REACTORS
330
2750
102
}
330
2750
100
AcDbXrecord
280
     1
102
SHADEPLOT
 70
     0
102
SHADEPLOTRESLEVEL
 70
     2
102
SHADEPLOTCUSTOMDPI
 70
   300
  0
XRECORD
  5
274C
102
{ACAD_REACTORS
330
274B
102
}
330
274B
100
AcDbXrecord
280
     1
102
SHADEPLOT
 70
     0
102
SHADEPLOTRESLEVEL
 70
     2
102
SHADEPLOTCUSTOMDPI
 70
   300
  0
XRECORD
  5
2755
102
{ACAD_REACTORS
330
2754
102
}
330
2754
100
AcDbXrecord
280
     1
102
MATERIAL
148
0.0
149
0.0
149
0.0
 93
        0
 94
       63
282
     0
 72
     1
 77
     1
171
     1
175
     1
179
     1
273
     0
  0
XRECORD
  5
2753
102
{ACAD_REACTORS
330
2752
102
}
330
2752
100
AcDbXrecord
280
     1
102
MATERIAL
148
0.0
149
0.0
149
0.0
 93
        0
 94
       63
282
     0
 72
     1
 77
     1
171
     1
175
     1
179
     1
273
     0
  0
XRECORD
  5
2756
102
{ACAD_REACTORS
330
173
102
}
330
173
100
AcDbXrecord
280
     1
102
MATERIAL
148
0.0
149
0.0
149
0.0
 93
        0
 94
       63
282
     0
 72
     1
 77
     1
171
     1
175
     1
179
     1
273
     0
  0
XRECORD
  5
175
102
{ACAD_REACTORS
330
173
102
}
330
173
100
AcDbXrecord
280
     1
270
     1
271
     1
  0
XRECORD
  5
174
102
{ACAD_REACTORS
330
173
102
}
330
173
100
AcDbXrecord
280
     1
270
     1
271
     1
  0
XRECORD
  5
176
102
{ACAD_REACTORS
330
173
102
}
330
173
100
AcDbXrecord
280
     1
270
     1
271
     1
  0
XRECORD
  5
177
102
{ACAD_REACTORS
330
173
102
}
330
173
100
AcDbXrecord
280
     1
270
     1
271
     1
  0
ACAD_PROXY_OBJECT
  5
2697
102
{ACAD_REACTORS
330
162
102
}
330
162
100
AcDbProxyObject
 90
      499
 91
      509
 95
       23
 70
     0
 93
     5304
310
40D054060020000020000003200101A000080002A5058000000C10000000000000006101010000000000003E0FC000000000000F83F0000000000003E0FC000000000000F83F000000000000049000000000000001240419019018000000C1003FBFFFFFE0000000000003C8FD029018000000C1003FBFFFFFE00000000000
310
03C8FD049018000000C1003FBFFFFFE0000000000003C8FD089018000000C1003FBFFFFFE0000000000003C8FD109018000000C1003FBFFFFFE0000000000003C8FD209018000000C1003FBFFFFFE0000000000003C8FD01405075F5449544C450041501A8000000C800406800020000A94160000003040000000000000012
310
40404000000000000F83F0000000000003E0FC000000000000F83F0000000000003E0FC0000000000001240000000000000049010640640600000030400FEFFFFFF8000000000000F23F40A40600000030400FEFFFFFF8000000000000F23F41240600000030400FEFFFFFF8000000000000F23F42240600000030400FEFFF
310
FFF8000000000000F23F44240600000030400FEFFFFFF8000000000000F23F48240600000030400FEFFFFFF8000000000000F23F409014217D2115051115480105406A0000003200101A000080002A5028000000C10000000000000004901010000000000003E0FC000000000000F83F0000000000003E0FC000000000000F
310
83F000000000000049000000000000001240419019018000000C1003FBFFFFFE0000000000003C8FD029018000000C1003FBFFFFFE0000000000003C8FD049018000000C1003FBFFFFFE0000000000003C8FD089018000000C1003FBFFFFFE0000000000003C8FD109018000000C1003FBFFFFFE0000000000003C8FD20901
310
8000000C1003FBFFFFFE0000000000003C8FD03409065F444154410000
340
11
340
14
340
14
340
14
340
14
340
14
340
14
340
11
340
14
340
14
340
14
340
14
340
14
340
14
340
11
340
14
340
14
340
14
340
14
340
14
340
14
 94
        0
1001
ACAD
1000
AcRTDxfName
1000
CELLSTYLEMAP
1000
AcRTDxfName
1000
CELLSTYLEMAP
  0
XRECORD
  5
274D
102
{ACAD_REACTORS
330
162
102
}
330
162
100
AcDbXrecord
280
     1
102
ACAD_ROUNDTRIP_PRE2007_TABLESTYLE
 90
      512
 91
        0
  1

 92
      512
 93
        0
  2

 94
      512
 95
        0
  3

  0
ENDSEC
  0
EOF
