  0
SECTION
  2
HEADER
  9
$ACADVER
  1
AC1015
  9
$ACADMAINTVER
 70
    20
  9
$DWGCODEPAGE
  3
ANSI_1250
  9
$INSBASE
 10
0.0
 20
0.0
 30
0.0
  9
$EXTMIN
 10
-0.0050982220222977
 20
-0.004528679247187
 30
-0.0000000000112498
  9
$EXTMAX
 10
334.3568769852378
 20
297.0045328285427
 30
0.0000000000002956
  9
$LIMMIN
 10
0.0
 20
0.0
  9
$LIMMAX
 10
334.35177409209
 20
297.0
  9
$ORTHOMODE
 70
     1
  9
$REGENMODE
 70
     1
  9
$FILLMODE
 70
     1
  9
$QTEXTMODE
 70
     0
  9
$MIRRTEXT
 70
     0
  9
$LTSCALE
 40
1.0
  9
$ATTMODE
 70
     2
  9
$TEXTSIZE
 40
5.0
  9
$TRACEWID
 40
1.0
  9
$TEXTSTYLE
  7
Solbet_5
  9
$CLAYER
  8
SOLBET_Bloczki
  9
$CELTYPE
  6
ByLayer
  9
$CECOLOR
 62
   256
  9
$CELTSCALE
 40
1.0
  9
$DISPSILH
 70
     0
  9
$DIMSCALE
 40
1.0
  9
$DIMASZ
 40
2.5
  9
$DIMEXO
 40
0.0
  9
$DIMDLI
 40
3.75
  9
$DIMRND
 40
0.0
  9
$DIMDLE
 40
0.0
  9
$DIMEXE
 40
1.25
  9
$DIMTP
 40
0.0
  9
$DIMTM
 40
0.0
  9
$DIMTXT
 40
2.5
  9
$DIMCEN
 40
2.5
  9
$DIMTSZ
 40
0.0
  9
$DIMTOL
 70
     0
  9
$DIMLIM
 70
     0
  9
$DIMTIH
 70
     0
  9
$DIMTOH
 70
     0
  9
$DIMSE1
 70
     0
  9
$DIMSE2
 70
     0
  9
$DIMTAD
 70
     1
  9
$DIMZIN
 70
     8
  9
$DIMBLK
  1

  9
$DIMASO
 70
     1
  9
$DIMSHO
 70
     1
  9
$DIMPOST
  1

  9
$DIMAPOST
  1

  9
$DIMALT
 70
     0
  9
$DIMALTD
 70
     3
  9
$DIMALTF
 40
0.03937007874016
  9
$DIMLFAC
 40
1.0
  9
$DIMTOFL
 70
     1
  9
$DIMTVP
 40
0.0
  9
$DIMTIX
 70
     0
  9
$DIMSOXD
 70
     0
  9
$DIMSAH
 70
     0
  9
$DIMBLK1
  1

  9
$DIMBLK2
  1

  9
$DIMSTYLE
  2
Solbet
  9
$DIMCLRD
 70
     0
  9
$DIMCLRE
 70
     0
  9
$DIMCLRT
 70
     0
  9
$DIMTFAC
 40
1.0
  9
$DIMGAP
 40
0.625
  9
$DIMJUST
 70
     0
  9
$DIMSD1
 70
     0
  9
$DIMSD2
 70
     0
  9
$DIMTOLJ
 70
     0
  9
$DIMTZIN
 70
     8
  9
$DIMALTZ
 70
     0
  9
$DIMALTTZ
 70
     0
  9
$DIMUPT
 70
     0
  9
$DIMDEC
 70
     2
  9
$DIMTDEC
 70
     2
  9
$DIMALTU
 70
     2
  9
$DIMALTTD
 70
     3
  9
$DIMTXSTY
  7
Solbet_2_5
  9
$DIMAUNIT
 70
     0
  9
$DIMADEC
 70
     0
  9
$DIMALTRND
 40
0.0
  9
$DIMAZIN
 70
     0
  9
$DIMDSEP
 70
    44
  9
$DIMATFIT
 70
     3
  9
$DIMFRAC
 70
     0
  9
$DIMLDRBLK
  1

  9
$DIMLUNIT
 70
     2
  9
$DIMLWD
 70
    -2
  9
$DIMLWE
 70
    -2
  9
$DIMTMOVE
 70
     0
  9
$LUNITS
 70
     2
  9
$LUPREC
 70
     4
  9
$SKETCHINC
 40
1.0
  9
$FILLETRAD
 40
0.0
  9
$AUNITS
 70
     0
  9
$AUPREC
 70
     0
  9
$MENU
  1
.
  9
$ELEVATION
 40
0.0
  9
$PELEVATION
 40
0.0
  9
$THICKNESS
 40
0.0
  9
$LIMCHECK
 70
     0
  9
$CHAMFERA
 40
0.0
  9
$CHAMFERB
 40
0.0
  9
$CHAMFERC
 40
0.0
  9
$CHAMFERD
 40
0.0
  9
$SKPOLY
 70
     0
  9
$TDCREATE
 40
2454690.075573148
  9
$TDUCREATE
 40
2454690.033906482
  9
$TDUPDATE
 40
2454848.861589167
  9
$TDUUPDATE
 40
2454848.819922500
  9
$TDINDWG
 40
0.5709360069
  9
$TDUSRTIMER
 40
0.5709314815
  9
$USRTIMER
 70
     1
  9
$ANGBASE
 50
0.0
  9
$ANGDIR
 70
     0
  9
$PDMODE
 70
     0
  9
$PDSIZE
 40
0.0
  9
$PLINEWID
 40
0.0
  9
$SPLFRAME
 70
     0
  9
$SPLINETYPE
 70
     6
  9
$SPLINESEGS
 70
     8
  9
$HANDSEED
  5
2BF4
  9
$SURFTAB1
 70
     6
  9
$SURFTAB2
 70
     6
  9
$SURFTYPE
 70
     6
  9
$SURFU
 70
     6
  9
$SURFV
 70
     6
  9
$UCSBASE
  2

  9
$UCSNAME
  2

  9
$UCSORG
 10
0.0
 20
0.0
 30
0.0
  9
$UCSXDIR
 10
1.0
 20
0.0
 30
0.0
  9
$UCSYDIR
 10
0.0
 20
1.0
 30
0.0
  9
$UCSORTHOREF
  2

  9
$UCSORTHOVIEW
 70
     0
  9
$UCSORGTOP
 10
0.0
 20
0.0
 30
0.0
  9
$UCSORGBOTTOM
 10
0.0
 20
0.0
 30
0.0
  9
$UCSORGLEFT
 10
0.0
 20
0.0
 30
0.0
  9
$UCSORGRIGHT
 10
0.0
 20
0.0
 30
0.0
  9
$UCSORGFRONT
 10
0.0
 20
0.0
 30
0.0
  9
$UCSORGBACK
 10
0.0
 20
0.0
 30
0.0
  9
$PUCSBASE
  2

  9
$PUCSNAME
  2

  9
$PUCSORG
 10
0.0
 20
0.0
 30
0.0
  9
$PUCSXDIR
 10
1.0
 20
0.0
 30
0.0
  9
$PUCSYDIR
 10
0.0
 20
1.0
 30
0.0
  9
$PUCSORTHOREF
  2

  9
$PUCSORTHOVIEW
 70
     0
  9
$PUCSORGTOP
 10
0.0
 20
0.0
 30
0.0
  9
$PUCSORGBOTTOM
 10
0.0
 20
0.0
 30
0.0
  9
$PUCSORGLEFT
 10
0.0
 20
0.0
 30
0.0
  9
$PUCSORGRIGHT
 10
0.0
 20
0.0
 30
0.0
  9
$PUCSORGFRONT
 10
0.0
 20
0.0
 30
0.0
  9
$PUCSORGBACK
 10
0.0
 20
0.0
 30
0.0
  9
$USERI1
 70
     0
  9
$USERI2
 70
     0
  9
$USERI3
 70
     0
  9
$USERI4
 70
     0
  9
$USERI5
 70
     0
  9
$USERR1
 40
0.0
  9
$USERR2
 40
0.0
  9
$USERR3
 40
0.0
  9
$USERR4
 40
0.0
  9
$USERR5
 40
0.0
  9
$WORLDVIEW
 70
     1
  9
$SHADEDGE
 70
     3
  9
$SHADEDIF
 70
    70
  9
$TILEMODE
 70
     1
  9
$MAXACTVP
 70
    64
  9
$PINSBASE
 10
0.0
 20
0.0
 30
0.0
  9
$PLIMCHECK
 70
     0
  9
$PEXTMIN
 10
0.0
 20
0.0
 30
0.0
  9
$PEXTMAX
 10
0.0
 20
0.0
 30
0.0
  9
$PLIMMIN
 10
0.0
 20
0.0
  9
$PLIMMAX
 10
12.0
 20
9.0
  9
$UNITMODE
 70
     0
  9
$VISRETAIN
 70
     1
  9
$PLINEGEN
 70
     0
  9
$PSLTSCALE
 70
     1
  9
$TREEDEPTH
 70
  3020
  9
$CMLSTYLE
  2
SOLBET_IZOLACJA
  9
$CMLJUST
 70
     0
  9
$CMLSCALE
 40
20.0
  9
$PROXYGRAPHICS
 70
     1
  9
$MEASUREMENT
 70
     1
  9
$CELWEIGHT
370
    -1
  9
$ENDCAPS
280
     0
  9
$JOINSTYLE
280
     0
  9
$LWDISPLAY
290
     1
  9
$INSUNITS
 70
     4
  9
$HYPERLINKBASE
  1

  9
$STYLESHEET
  1

  9
$XEDIT
290
     1
  9
$CEPSNTYPE
380
     0
  9
$PSTYLEMODE
290
     1
  9
$FINGERPRINTGUID
  2
{6B12AB33-8E39-428E-8E85-461C8D99A3CB}
  9
$VERSIONGUID
  2
{166012C2-55BB-44C2-8BAC-AA39822EB44F}
  9
$EXTNAMES
290
     1
  9
$PSVPSCALE
 40
0.0
  9
$OLESTARTUP
290
     0
  0
ENDSEC
  0
SECTION
  2
CLASSES
  0
CLASS
  1
ACDBDICTIONARYWDFLT
  2
AcDbDictionaryWithDefault
  3
ObjectDBX Classes
 90
        0
280
     0
281
     0
  0
CLASS
  1
ACDBPLACEHOLDER
  2
AcDbPlaceHolder
  3
ObjectDBX Classes
 90
        0
280
     0
281
     0
  0
CLASS
  1
LAYOUT
  2
AcDbLayout
  3
ObjectDBX Classes
 90
        0
280
     0
281
     0
  0
CLASS
  1
DICTIONARYVAR
  2
AcDbDictionaryVar
  3
ObjectDBX Classes
 90
        0
280
     0
281
     0
  0
CLASS
  1
TABLESTYLE
  2
AcDbTableStyle
  3
ObjectDBX Classes
 90
     4095
280
     0
281
     0
  0
CLASS
  1
MATERIAL
  2
AcDbMaterial
  3
ObjectDBX Classes
 90
     1024
280
     0
281
     0
  0
CLASS
  1
VISUALSTYLE
  2
AcDbVisualStyle
  3
ObjectDBX Classes
 90
     4095
280
     0
281
     0
  0
CLASS
  1
SCALE
  2
AcDbScale
  3
ObjectDBX Classes
 90
     1153
280
     0
281
     0
  0
CLASS
  1
MLEADERSTYLE
  2
AcDbMLeaderStyle
  3
ACDB_MLEADERSTYLE_CLASS
 90
     4095
280
     0
281
     0
  0
CLASS
  1
CELLSTYLEMAP
  2
AcDbCellStyleMap
  3
ObjectDBX Classes
 90
     1152
280
     0
281
     0
  0
CLASS
  1
DIMASSOC
  2
AcDbDimAssoc
  3
"AcDbDimAssoc|Product Desc:     AcDim ARX App For Dimension|Company:          Autodesk, Inc.|WEB Address:      www.autodesk.com"
 90
    32768
280
     0
281
     0
  0
CLASS
  1
SORTENTSTABLE
  2
AcDbSortentsTable
  3
ObjectDBX Classes
 90
        0
280
     0
281
     0
  0
CLASS
  1
MULTILEADER
  2
AcDbMLeader
  3
ACDB_MLEADER_CLASS
 90
    33793
280
     0
281
     1
  0
CLASS
  1
ACDB_MTEXTOBJECTCONTEXTDATA_CLASS
  2
AcDbMTextObjectContextData
  3
ObjectDBX Classes
 90
    33921
280
     0
281
     0
  0
ENDSEC
  0
SECTION
  2
TABLES
  0
TABLE
  2
VPORT
  5
8
102
{ACAD_XDICTIONARY
360
443
102
}
330
0
100
AcDbSymbolTable
 70
     1
  0
VPORT
  5
EA
330
8
100
AcDbSymbolTableRecord
100
AcDbViewportTableRecord
  2
*Active
 70
     0
 10
0.0
 20
0.0
 11
1.0
 21
1.0
 12
167.1758893816077
 22
148.5000020746477
 13
0.0
 23
0.0
 14
10.0
 24
10.0
 15
10.0
 25
10.0
 16
0.0
 26
0.0
 36
1.0
 17
0.0
 27
0.0
 37
0.0
 40
300.3091621912098
 41
1.74582560296846
 42
50.0
 43
0.0
 44
0.0
 50
0.0
 51
0.0
 71
     0
 72
  1000
 73
     1
 74
     3
 75
     0
 76
     0
 77
     0
 78
     0
281
     0
 65
     1
110
0.0
120
0.0
130
0.0
111
1.0
121
0.0
131
0.0
112
0.0
122
1.0
132
0.0
 79
     0
146
0.0
  0
ENDTAB
  0
TABLE
  2
LTYPE
  5
5
330
0
100
AcDbSymbolTable
 70
     3
  0
LTYPE
  5
14
330
5
100
AcDbSymbolTableRecord
100
AcDbLinetypeTableRecord
  2
ByBlock
 70
     0
  3

 72
    65
 73
     0
 40
0.0
  0
LTYPE
  5
15
330
5
100
AcDbSymbolTableRecord
100
AcDbLinetypeTableRecord
  2
ByLayer
 70
     0
  3

 72
    65
 73
     0
 40
0.0
  0
LTYPE
  5
16
330
5
100
AcDbSymbolTableRecord
100
AcDbLinetypeTableRecord
  2
Continuous
 70
     0
  3
Solid line
 72
    65
 73
     0
 40
0.0
  0
LTYPE
  5
2B9
330
5
100
AcDbSymbolTableRecord
100
AcDbLinetypeTableRecord
  2
VERDECKT
 70
     0
  3
__ __ __ __ __ __ __ __ __ __ __ __ __ __ __ __
 72
    65
 73
     2
 40
0.375
 49
0.25
 74
     0
 49
-0.125
 74
     0
  0
LTYPE
  5
982
330
5
100
AcDbSymbolTableRecord
100
AcDbLinetypeTableRecord
  2
BATTING
 70
     0
  3
Batting SSSSSSSSSSSSSSSSSSSSSSSSSSSSSSSSSSSSSSSSSSSSSSS
 72
    65
 73
     4
 40
10.16254
 49
0.00254
 74
     0
 49
-2.54
 74
     4
 75
   134
340
7E7
 46
2.54
 50
0.0
 44
-2.54
 45
0.0
 49
-5.08
 74
     4
 75
   134
340
7E7
 46
2.54
 50
180.0
 44
2.54
 45
0.0
 49
-2.54
 74
     0
  0
ENDTAB
  0
TABLE
  2
LAYER
  5
2
102
{ACAD_XDICTIONARY
360
3E5
102
}
330
0
100
AcDbSymbolTable
 70
    13
  0
LAYER
  5
10
102
{ACAD_XDICTIONARY
360
13C
102
}
330
2
100
AcDbSymbolTableRecord
100
AcDbLayerTableRecord
  2
0
 70
     0
 62
     7
  6
Continuous
370
    -3
390
F
  0
LAYER
  5
2BB
330
2
100
AcDbSymbolTableRecord
100
AcDbLayerTableRecord
  2
DEFPOINTS
 70
     0
 62
     7
  6
Continuous
290
     0
370
    -3
390
F
  0
LAYER
  5
3DD
102
{ACAD_XDICTIONARY
360
403
102
}
330
2
100
AcDbSymbolTableRecord
100
AcDbLayerTableRecord
  2
SOLBET_Bloczki
 70
     0
 62
   140
  6
Continuous
370
    -3
390
F
1001
AcAecLayerStandard
1000

1000

  0
LAYER
  5
3DF
102
{ACAD_XDICTIONARY
360
405
102
}
330
2
100
AcDbSymbolTableRecord
100
AcDbLayerTableRecord
  2
SOLBET_Wymiary_Opisy
 70
     0
 62
     1
  6
Continuous
370
    -3
390
F
1001
AcAecLayerStandard
1000

1000

  0
LAYER
  5
3E0
102
{ACAD_XDICTIONARY
360
407
102
}
330
2
100
AcDbSymbolTableRecord
100
AcDbLayerTableRecord
  2
SOLBET_Beton
 70
     0
 62
     9
  6
Continuous
370
    -3
390
F
1001
AcAecLayerStandard
1000

1000

  0
LAYER
  5
3E1
102
{ACAD_XDICTIONARY
360
409
102
}
330
2
100
AcDbSymbolTableRecord
100
AcDbLayerTableRecord
  2
SOLBET_Izolacja
 70
     0
 62
    40
  6
Continuous
370
    -3
390
F
1001
AcAecLayerStandard
1000

1000

  0
LAYER
  5
3E2
102
{ACAD_XDICTIONARY
360
40B
102
}
330
2
100
AcDbSymbolTableRecord
100
AcDbLayerTableRecord
  2
SOLBET_Zbrojenie_Konstrukcja
 70
     0
 62
     7
  6
Continuous
370
    -3
390
F
1001
AcAecLayerStandard
1000

1000

  0
LAYER
  5
3E4
102
{ACAD_XDICTIONARY
360
40F
102
}
330
2
100
AcDbSymbolTableRecord
100
AcDbLayerTableRecord
  2
SOLBET_Tynki_Posadzki
 70
     0
 62
     3
  6
Continuous
370
    -3
390
F
1001
AcAecLayerStandard
1000

1000

  0
LAYER
  5
3E8
102
{ACAD_XDICTIONARY
360
411
102
}
330
2
100
AcDbSymbolTableRecord
100
AcDbLayerTableRecord
  2
SOLBET_Ramka_05
 70
     0
 62
     2
  6
Continuous
370
    -3
390
F
1001
AcAecLayerStandard
1000

1000

  0
LAYER
  5
472
330
2
100
AcDbSymbolTableRecord
100
AcDbLayerTableRecord
  2
SOLBET_Zaprawy
 70
     0
 62
     4
  6
Continuous
370
    -3
390
F
1001
AcAecLayerStandard
1000

1000

  0
LAYER
  5
4E2
330
2
100
AcDbSymbolTableRecord
100
AcDbLayerTableRecord
  2
SOLBET_Emulsje_Folie
 70
     0
 62
     6
  6
Continuous
370
    -3
390
F
1001
AcAecLayerStandard
1000

1000

  0
LAYER
  5
27AC
330
2
100
AcDbSymbolTableRecord
100
AcDbLayerTableRecord
  2
SOLBET_Stolarka_Okna
 70
     0
 62
     2
  6
Continuous
370
    -3
390
F
1001
AcAecLayerStandard
1000

1000

  0
LAYER
  5
2A8A
102
{ACAD_XDICTIONARY
360
2A8B
102
}
330
2
100
AcDbSymbolTableRecord
100
AcDbLayerTableRecord
  2
SOLBET_Wymiary_Opisy @ 1
 70
     0
 62
     1
  6
Continuous
370
    -3
390
F
1001
AcAecLayerStandard
1000

1000

1001
AcadAnnotativeDecomposition
1000
AnnotativeData
1002
{
1070
     1
1070
     1
1002
}
  0
ENDTAB
  0
TABLE
  2
STYLE
  5
3
330
0
100
AcDbSymbolTable
 70
     5
  0
STYLE
  5
11
330
3
100
AcDbSymbolTableRecord
100
AcDbTextStyleTableRecord
  2
Standard
 70
     0
 40
0.0
 41
1.0
 50
0.0
 71
     0
 42
2.5
  3
txt.shx
  4

  0
STYLE
  5
7D7
330
3
100
AcDbSymbolTableRecord
100
AcDbTextStyleTableRecord
  2
Solbet_5
 70
     0
 40
5.0
 41
1.0
 50
0.0
 71
     0
 42
5.0
  3
isocpeur.ttf
  4

1001
ACAD
1000
ISOCPEUR
1071
       34
  0
STYLE
  5
7D9
330
3
100
AcDbSymbolTableRecord
100
AcDbTextStyleTableRecord
  2
Solbet_2_5
 70
     0
 40
2.5
 41
1.0
 50
0.0
 71
     0
 42
2.5
  3
isocpeur.ttf
  4

1001
ACAD
1000
ISOCPEUR
1071
       34
  0
STYLE
  5
7E7
330
3
100
AcDbSymbolTableRecord
100
AcDbTextStyleTableRecord
  2

 70
     1
 40
0.0
 41
1.0
 50
0.0
 71
     0
 42
2.5
  3
ltypeshp.shx
  4

  0
STYLE
  5
231A
330
3
100
AcDbSymbolTableRecord
100
AcDbTextStyleTableRecord
  2
Solbet_1
 70
     0
 40
1.0
 41
1.0
 50
0.0
 71
     0
 42
2.5
  3
isocpeur.ttf
  4

1001
ACAD
1000
ISOCPEUR
1071
       34
  0
ENDTAB
  0
TABLE
  2
VIEW
  5
6
330
0
100
AcDbSymbolTable
 70
     0
  0
ENDTAB
  0
TABLE
  2
UCS
  5
7
330
0
100
AcDbSymbolTable
 70
     0
  0
ENDTAB
  0
TABLE
  2
APPID
  5
9
330
0
100
AcDbSymbolTable
 70
    13
  0
APPID
  5
12
330
9
100
AcDbSymbolTableRecord
100
AcDbRegAppTableRecord
  2
ACAD
 70
     0
  0
APPID
  5
9E
330
9
100
AcDbSymbolTableRecord
100
AcDbRegAppTableRecord
  2
ACAD_PSEXT
 70
     0
  0
APPID
  5
133
330
9
100
AcDbSymbolTableRecord
100
AcDbRegAppTableRecord
  2
AcadAnnoPO
 70
     0
  0
APPID
  5
134
330
9
100
AcDbSymbolTableRecord
100
AcDbRegAppTableRecord
  2
AcadAnnotative
 70
     0
  0
APPID
  5
135
330
9
100
AcDbSymbolTableRecord
100
AcDbRegAppTableRecord
  2
ACAD_DSTYLE_DIMJAG
 70
     0
  0
APPID
  5
136
330
9
100
AcDbSymbolTableRecord
100
AcDbRegAppTableRecord
  2
ACAD_DSTYLE_DIMTALN
 70
     0
  0
APPID
  5
165
330
9
100
AcDbSymbolTableRecord
100
AcDbRegAppTableRecord
  2
ACAD_MLEADERVER
 70
     0
  0
APPID
  5
2C4
330
9
100
AcDbSymbolTableRecord
100
AcDbRegAppTableRecord
  2
ASO_SCHRAFF
 70
     0
  0
APPID
  5
3DE
330
9
100
AcDbSymbolTableRecord
100
AcDbRegAppTableRecord
  2
AcAecLayerStandard
 70
     0
  0
APPID
  5
7DE
330
9
100
AcDbSymbolTableRecord
100
AcDbRegAppTableRecord
  2
ACAD_EXEMPT_FROM_CAD_STANDARDS
 70
     0
  0
APPID
  5
948
330
9
100
AcDbSymbolTableRecord
100
AcDbRegAppTableRecord
  2
ACAD_DSTYLE_DIMBREAK
 70
     0
  0
APPID
  5
1D0A
330
9
100
AcDbSymbolTableRecord
100
AcDbRegAppTableRecord
  2
AcadAnnotativeDecomposition
 70
     0
  0
APPID
  5
231B
330
9
100
AcDbSymbolTableRecord
100
AcDbRegAppTableRecord
  2
AcDbAttr
 70
     0
  0
ENDTAB
  0
TABLE
  2
DIMSTYLE
  5
A
330
0
100
AcDbSymbolTable
 70
     2
100
AcDbDimStyleTable
 71
     1
340
949
  0
DIMSTYLE
105
949
330
A
100
AcDbSymbolTableRecord
100
AcDbDimStyleTableRecord
  2
Solbet
 70
     0
 41
2.5
 42
0.0
 43
3.75
 44
1.25
 73
     0
 74
     0
 77
     1
 78
     8
140
2.5
141
2.5
143
0.03937007874016
147
0.625
171
     3
172
     1
271
     2
272
     2
274
     3
278
    44
283
     0
284
     8
340
7D9
1001
ACAD_DSTYLE_DIMBREAK
1070
   391
1040
3.75
1001
ACAD_DSTYLE_DIMJAG
1070
   388
1040
1.5
1001
ACAD_DSTYLE_DIMTALN
1070
   392
1070
     0
  0
DIMSTYLE
105
954
330
A
100
AcDbSymbolTableRecord
100
AcDbDimStyleTableRecord
  2
Solbet$7
 70
     0
 41
2.5
 42
0.0
 43
3.75
 44
1.25
 73
     0
 74
     0
 77
     1
 78
     8
140
2.5
141
2.5
143
0.03937007874016
147
0.625
171
     3
172
     1
271
     2
272
     2
274
     3
278
    44
283
     0
284
     8
340
7D9
341
958
1001
ACAD_DSTYLE_DIMBREAK
1070
   391
1040
3.75
1001
ACAD_DSTYLE_DIMJAG
1070
   388
1040
1.5
1001
ACAD_DSTYLE_DIMTALN
1070
   392
1070
     0
  0
ENDTAB
  0
TABLE
  2
BLOCK_RECORD
  5
1
330
0
100
AcDbSymbolTable
 70
    15
  0
BLOCK_RECORD
  5
1F
102
{ACAD_XDICTIONARY
360
4A3
102
}
330
1
100
AcDbSymbolTableRecord
100
AcDbBlockTableRecord
  2
*Model_Space
340
22
  0
BLOCK_RECORD
  5
D2
330
1
100
AcDbSymbolTableRecord
100
AcDbBlockTableRecord
  2
*Paper_Space
340
D3
  0
BLOCK_RECORD
  5
D6
330
1
100
AcDbSymbolTableRecord
100
AcDbBlockTableRecord
  2
*Paper_Space0
340
D7
  0
BLOCK_RECORD
  5
1C2
330
1
100
AcDbSymbolTableRecord
100
AcDbBlockTableRecord
  2
ASOWDBLK
340
0
102
{BLKREFS
331
247E
331
247F
331
2480
331
2481
331
2482
331
2483
331
2484
331
2485
331
2486
331
2487
331
2488
331
2489
331
248A
331
248B
331
248C
331
248D
331
248E
331
248F
102
}
  0
BLOCK_RECORD
  5
958
330
1
100
AcDbSymbolTableRecord
100
AcDbBlockTableRecord
  2
_DotSmall
340
0
102
{BLKREFS
331
24CE
102
}
  0
BLOCK_RECORD
  5
2064
330
1
100
AcDbSymbolTableRecord
100
AcDbBlockTableRecord
  2
*X3
340
0
102
{BLKREFS
331
2414
102
}
  0
BLOCK_RECORD
  5
20E5
330
1
100
AcDbSymbolTableRecord
100
AcDbBlockTableRecord
  2
*U4
340
0
102
{BLKREFS
331
2246
331
2249
331
2809
331
280A
102
}
  0
BLOCK_RECORD
  5
210F
330
1
100
AcDbSymbolTableRecord
100
AcDbBlockTableRecord
  2
*U5
340
0
102
{BLKREFS
331
229B
102
}
  0
BLOCK_RECORD
  5
2114
330
1
100
AcDbSymbolTableRecord
100
AcDbBlockTableRecord
  2
*U6
340
0
102
{BLKREFS
331
229C
102
}
  0
BLOCK_RECORD
  5
2120
330
1
100
AcDbSymbolTableRecord
100
AcDbBlockTableRecord
  2
*U7
340
0
102
{BLKREFS
331
229D
102
}
  0
BLOCK_RECORD
  5
2167
330
1
100
AcDbSymbolTableRecord
100
AcDbBlockTableRecord
  2
*U8
340
0
102
{BLKREFS
331
22D5
102
}
  0
BLOCK_RECORD
  5
231C
102
{ACAD_XDICTIONARY
360
2328
102
}
330
1
100
AcDbSymbolTableRecord
100
AcDbBlockTableRecord
  2
SOLBET_Bloczek_OPTIMAL_240x240x590_P+W_PRA
340
0
1001
ACAD
1000
DesignCenter Data
1002
{
1070
     1
1070
     4
1002
}
  0
BLOCK_RECORD
  5
23B1
102
{ACAD_XDICTIONARY
360
23BB
102
}
330
1
100
AcDbSymbolTableRecord
100
AcDbBlockTableRecord
  2
SOLBET_Nadproze_140_12_1400x240x120_PRA
340
0
1001
ACAD
1000
DesignCenter Data
1002
{
1070
     1
1070
     4
1002
}
  0
BLOCK_RECORD
  5
2606
330
1
100
AcDbSymbolTableRecord
100
AcDbBlockTableRecord
  2
_None
340
0
102
{BLKREFS
331
27F7
102
}
  0
BLOCK_RECORD
  5
2AFD
102
{ACAD_XDICTIONARY
360
2B0E
102
}
330
1
100
AcDbSymbolTableRecord
100
AcDbBlockTableRecord
  2
SOLBET_Nadproze_120x240x1400_zz_PRA
340
0
102
{BLKREFS
331
2B12
331
2B13
102
}
1001
ACAD
1000
DesignCenter Data
1002
{
1070
     1
1070
     4
1002
}
  0
BLOCK_RECORD
  5
2B14
102
{ACAD_XDICTIONARY
360
2B20
102
}
330
1
100
AcDbSymbolTableRecord
100
AcDbBlockTableRecord
  2
SOLBET_Bloczek_Optimal_240x240x590_P+W_KG500_PRA
340
0
102
{BLKREFS
331
2B24
331
2B25
331
2B26
331
2B27
331
2B28
331
2B29
102
}
1001
ACAD
1000
DesignCenter Data
1002
{
1070
     1
1070
     4
1002
}
  0
ENDTAB
  0
ENDSEC
  0
SECTION
  2
BLOCKS
  0
BLOCK
  5
20
330
1F
100
AcDbEntity
  8
0
100
AcDbBlockBegin
  2
*Model_Space
 70
     0
 10
0.0
 20
0.0
 30
0.0
  3
*Model_Space
  1

  0
ENDBLK
  5
21
330
1F
100
AcDbEntity
  8
0
100
AcDbBlockEnd
  0
BLOCK
  5
D4
330
D2
100
AcDbEntity
 67
     1
  8
0
100
AcDbBlockBegin
  2
*Paper_Space
 70
     0
 10
0.0
 20
0.0
 30
0.0
  3
*Paper_Space
  1

  0
ENDBLK
  5
D5
330
D2
100
AcDbEntity
 67
     1
  8
0
100
AcDbBlockEnd
  0
BLOCK
  5
D8
330
D6
100
AcDbEntity
 67
     1
  8
0
100
AcDbBlockBegin
  2
*Paper_Space0
 70
     0
 10
0.0
 20
0.0
 30
0.0
  3
*Paper_Space0
  1

  0
ENDBLK
  5
D9
330
D6
100
AcDbEntity
 67
     1
  8
0
100
AcDbBlockEnd
  0
BLOCK
  5
1C3
330
1C2
100
AcDbEntity
  8
0
100
AcDbBlockBegin
  2
ASOWDBLK
 70
     0
 10
0.0
 20
0.0
 30
0.0
  3
ASOWDBLK
  1
ASOWDBLK
  0
ARC
  5
1C4
330
1C2
100
AcDbEntity
  8
0
  6
Continuous
 62
     0
100
AcDbCircle
 10
0.0
 20
0.25
 30
0.0
 40
0.25
100
AcDbArc
 50
270.0000011238745
 51
36.86989141244799
  0
ARC
  5
1C5
330
1C2
100
AcDbEntity
  8
0
  6
Continuous
 62
     0
100
AcDbCircle
 10
0.25
 20
0.75
 30
0.0
 40
0.25
100
AcDbArc
 50
323.1300909874582
 51
216.8699112602908
  0
LINE
  5
1C6
330
1C2
100
AcDbEntity
  8
0
  6
Continuous
 62
     0
100
AcDbLine
 10
0.05
 20
0.6
 30
0.0
 11
0.2
 21
0.4
 31
0.0
  0
ARC
  5
1C7
330
1C2
100
AcDbEntity
  8
0
  6
Continuous
 62
     0
100
AcDbCircle
 10
0.5
 20
0.25
 30
0.0
 40
0.25
100
AcDbArc
 50
143.1301284353948
 51
270.0000011238745
  0
LINE
  5
1C8
330
1C2
100
AcDbEntity
  8
0
  6
Continuous
 62
     0
100
AcDbLine
 10
0.45
 20
0.6
 30
0.0
 11
0.3
 21
0.4
 31
0.0
  0
ENDBLK
  5
1C9
330
1C2
100
AcDbEntity
  8
0
100
AcDbBlockEnd
  0
BLOCK
  5
95A
330
958
100
AcDbEntity
  8
0
100
AcDbBlockBegin
  2
_DotSmall
 70
     0
 10
0.0
 20
0.0
 30
0.0
  3
_DotSmall
  1

  0
LWPOLYLINE
  5
959
330
958
100
AcDbEntity
  8
0
  6
ByBlock
 62
     0
100
AcDbPolyline
 90
        2
 70
     1
 43
0.5
 10
-0.0625
 20
0.0
 42
1.0
 10
0.0625
 20
0.0
 42
1.0
  0
ENDBLK
  5
95B
330
958
100
AcDbEntity
  8
0
100
AcDbBlockEnd
  0
BLOCK
  5
2065
330
2064
100
AcDbEntity
  8
0
100
AcDbBlockBegin
  2
*X3
 70
     1
 10
0.0
 20
0.0
 30
0.0
  3
*X3
  1
ASOWDBLK
  0
LINE
  5
2066
330
2064
100
AcDbEntity
  8
0
 62
     0
100
AcDbLine
 10
11.99304811965889
 20
9.120426821088543
 30
0.0
 11
12.03304811965889
 21
9.16042682108854
 31
0.0
  0
LINE
  5
2067
330
2064
100
AcDbEntity
  8
0
 62
     0
100
AcDbLine
 10
11.94885394583473
 20
9.120426821088543
 30
0.0
 11
11.98885394583473
 21
9.16042682108854
 31
0.0
  0
LINE
  5
2068
330
2064
100
AcDbEntity
  8
0
 62
     0
100
AcDbLine
 10
11.90465977201057
 20
9.120426821088543
 30
0.0
 11
11.94465977201057
 21
9.16042682108854
 31
0.0
  0
LINE
  5
2069
330
2064
100
AcDbEntity
  8
0
 62
     0
100
AcDbLine
 10
11.86046559818641
 20
9.120426821088543
 30
0.0
 11
11.90046559818641
 21
9.16042682108854
 31
0.0
  0
LINE
  5
206A
330
2064
100
AcDbEntity
  8
0
 62
     0
100
AcDbLine
 10
11.81627142436225
 20
9.120426821088543
 30
0.0
 11
11.85627142436225
 21
9.16042682108854
 31
0.0
  0
LINE
  5
206B
330
2064
100
AcDbEntity
  8
0
 62
     0
100
AcDbLine
 10
11.77207725053809
 20
9.120426821088543
 30
0.0
 11
11.81207725053809
 21
9.16042682108854
 31
0.0
  0
LINE
  5
206C
330
2064
100
AcDbEntity
  8
0
 62
     0
100
AcDbLine
 10
11.72788307671393
 20
9.120426821088543
 30
0.0
 11
11.76788307671393
 21
9.16042682108854
 31
0.0
  0
LINE
  5
206D
330
2064
100
AcDbEntity
  8
0
 62
     0
100
AcDbLine
 10
11.68368890288977
 20
9.120426821088543
 30
0.0
 11
11.72368890288977
 21
9.16042682108854
 31
0.0
  0
LINE
  5
206E
330
2064
100
AcDbEntity
  8
0
 62
     0
100
AcDbLine
 10
11.63949472906562
 20
9.120426821088543
 30
0.0
 11
11.67949472906562
 21
9.16042682108854
 31
0.0
  0
LINE
  5
206F
330
2064
100
AcDbEntity
  8
0
 62
     0
100
AcDbLine
 10
11.59530055524146
 20
9.120426821088543
 30
0.0
 11
11.63530055524145
 21
9.16042682108854
 31
0.0
  0
LINE
  5
2070
330
2064
100
AcDbEntity
  8
0
 62
     0
100
AcDbLine
 10
11.5511063814173
 20
9.120426821088543
 30
0.0
 11
11.59110638141729
 21
9.16042682108854
 31
0.0
  0
LINE
  5
2071
330
2064
100
AcDbEntity
  8
0
 62
     0
100
AcDbLine
 10
11.50691220759314
 20
9.120426821088543
 30
0.0
 11
11.54691220759314
 21
9.16042682108854
 31
0.0
  0
LINE
  5
2072
330
2064
100
AcDbEntity
  8
0
 62
     0
100
AcDbLine
 10
11.46271803376898
 20
9.120426821088543
 30
0.0
 11
11.50271803376898
 21
9.16042682108854
 31
0.0
  0
LINE
  5
2073
330
2064
100
AcDbEntity
  8
0
 62
     0
100
AcDbLine
 10
11.41852385994482
 20
9.120426821088543
 30
0.0
 11
11.45852385994482
 21
9.16042682108854
 31
0.0
  0
LINE
  5
2074
330
2064
100
AcDbEntity
  8
0
 62
     0
100
AcDbLine
 10
11.39401831761913
 20
9.140115452587011
 30
0.0
 11
11.41432968612066
 21
9.16042682108854
 31
0.0
  0
LINE
  5
2075
330
2064
100
AcDbEntity
  8
0
 62
     0
100
AcDbLine
 10
12.03724229348305
 20
9.120426821088543
 30
0.0
 11
12.07724229348305
 21
9.16042682108854
 31
0.0
  0
LINE
  5
2076
330
2064
100
AcDbEntity
  8
0
 62
     0
100
AcDbLine
 10
12.08143646730721
 20
9.120426821088543
 30
0.0
 11
12.12143646730721
 21
9.16042682108854
 31
0.0
  0
LINE
  5
2077
330
2064
100
AcDbEntity
  8
0
 62
     0
100
AcDbLine
 10
12.12563064113137
 20
9.120426821088543
 30
0.0
 11
12.16563064113137
 21
9.16042682108854
 31
0.0
  0
LINE
  5
2078
330
2064
100
AcDbEntity
  8
0
 62
     0
100
AcDbLine
 10
12.16982481495553
 20
9.120426821088543
 30
0.0
 11
12.20982481495552
 21
9.16042682108854
 31
0.0
  0
LINE
  5
2079
330
2064
100
AcDbEntity
  8
0
 62
     0
100
AcDbLine
 10
12.21401898877969
 20
9.120426821088543
 30
0.0
 11
12.25401898877968
 21
9.16042682108854
 31
0.0
  0
LINE
  5
207A
330
2064
100
AcDbEntity
  8
0
 62
     0
100
AcDbLine
 10
12.25821316260385
 20
9.120426821088543
 30
0.0
 11
12.29821316260384
 21
9.16042682108854
 31
0.0
  0
LINE
  5
207B
330
2064
100
AcDbEntity
  8
0
 62
     0
100
AcDbLine
 10
12.302407336428
 20
9.120426821088543
 30
0.0
 11
12.342407336428
 21
9.16042682108854
 31
0.0
  0
LINE
  5
207C
330
2064
100
AcDbEntity
  8
0
 62
     0
100
AcDbLine
 10
12.34660151025216
 20
9.120426821088543
 30
0.0
 11
12.38660151025216
 21
9.16042682108854
 31
0.0
  0
LINE
  5
207D
330
2064
100
AcDbEntity
  8
0
 62
     0
100
AcDbLine
 10
12.39079568407632
 20
9.120426821088543
 30
0.0
 11
12.43079568407632
 21
9.16042682108854
 31
0.0
  0
LINE
  5
207E
330
2064
100
AcDbEntity
  8
0
 62
     0
100
AcDbLine
 10
12.43498985790048
 20
9.120426821088543
 30
0.0
 11
12.47498985790048
 21
9.16042682108854
 31
0.0
  0
LINE
  5
207F
330
2064
100
AcDbEntity
  8
0
 62
     0
100
AcDbLine
 10
12.47918403172464
 20
9.120426821088543
 30
0.0
 11
12.51918403172464
 21
9.16042682108854
 31
0.0
  0
LINE
  5
2080
330
2064
100
AcDbEntity
  8
0
 62
     0
100
AcDbLine
 10
12.5233782055488
 20
9.120426821088543
 30
0.0
 11
12.5633782055488
 21
9.16042682108854
 31
0.0
  0
LINE
  5
2081
330
2064
100
AcDbEntity
  8
0
 62
     0
100
AcDbLine
 10
12.56757237937296
 20
9.120426821088543
 30
0.0
 11
12.60757237937296
 21
9.16042682108854
 31
0.0
  0
LINE
  5
2082
330
2064
100
AcDbEntity
  8
0
 62
     0
100
AcDbLine
 10
12.61176655319712
 20
9.120426821088543
 30
0.0
 11
12.65176655319712
 21
9.16042682108854
 31
0.0
  0
LINE
  5
2083
330
2064
100
AcDbEntity
  8
0
 62
     0
100
AcDbLine
 10
12.65596072702128
 20
9.120426821088543
 30
0.0
 11
12.68399674713724
 21
9.1484628412045
 31
0.0
  0
LINE
  5
2084
330
2064
100
AcDbEntity
  8
0
 62
     0
100
AcDbLine
 10
12.04858244068372
 20
9.120426821088543
 30
0.0
 11
12.00858244068372
 21
9.16042682108854
 31
0.0
  0
LINE
  5
2085
330
2064
100
AcDbEntity
  8
0
 62
     0
100
AcDbLine
 10
12.00438826685956
 20
9.120426821088543
 30
0.0
 11
11.96438826685956
 21
9.16042682108854
 31
0.0
  0
LINE
  5
2086
330
2064
100
AcDbEntity
  8
0
 62
     0
100
AcDbLine
 10
11.9601940930354
 20
9.120426821088543
 30
0.0
 11
11.9201940930354
 21
9.16042682108854
 31
0.0
  0
LINE
  5
2087
330
2064
100
AcDbEntity
  8
0
 62
     0
100
AcDbLine
 10
11.91599991921124
 20
9.120426821088543
 30
0.0
 11
11.87599991921124
 21
9.16042682108854
 31
0.0
  0
LINE
  5
2088
330
2064
100
AcDbEntity
  8
0
 62
     0
100
AcDbLine
 10
11.87180574538708
 20
9.120426821088543
 30
0.0
 11
11.83180574538708
 21
9.16042682108854
 31
0.0
  0
LINE
  5
2089
330
2064
100
AcDbEntity
  8
0
 62
     0
100
AcDbLine
 10
11.82761157156292
 20
9.120426821088543
 30
0.0
 11
11.78761157156293
 21
9.16042682108854
 31
0.0
  0
LINE
  5
208A
330
2064
100
AcDbEntity
  8
0
 62
     0
100
AcDbLine
 10
11.78341739773876
 20
9.120426821088543
 30
0.0
 11
11.74341739773877
 21
9.16042682108854
 31
0.0
  0
LINE
  5
208B
330
2064
100
AcDbEntity
  8
0
 62
     0
100
AcDbLine
 10
11.7392232239146
 20
9.120426821088543
 30
0.0
 11
11.69922322391461
 21
9.16042682108854
 31
0.0
  0
LINE
  5
208C
330
2064
100
AcDbEntity
  8
0
 62
     0
100
AcDbLine
 10
11.69502905009045
 20
9.120426821088543
 30
0.0
 11
11.65502905009045
 21
9.16042682108854
 31
0.0
  0
LINE
  5
208D
330
2064
100
AcDbEntity
  8
0
 62
     0
100
AcDbLine
 10
11.65083487626629
 20
9.120426821088543
 30
0.0
 11
11.61083487626629
 21
9.16042682108854
 31
0.0
  0
LINE
  5
208E
330
2064
100
AcDbEntity
  8
0
 62
     0
100
AcDbLine
 10
11.60664070244213
 20
9.120426821088543
 30
0.0
 11
11.56664070244213
 21
9.16042682108854
 31
0.0
  0
LINE
  5
208F
330
2064
100
AcDbEntity
  8
0
 62
     0
100
AcDbLine
 10
11.56244652861797
 20
9.120426821088543
 30
0.0
 11
11.52244652861797
 21
9.16042682108854
 31
0.0
  0
LINE
  5
2090
330
2064
100
AcDbEntity
  8
0
 62
     0
100
AcDbLine
 10
11.51825235479381
 20
9.120426821088543
 30
0.0
 11
11.47825235479381
 21
9.16042682108854
 31
0.0
  0
LINE
  5
2091
330
2064
100
AcDbEntity
  8
0
 62
     0
100
AcDbLine
 10
11.47405818096965
 20
9.120426821088543
 30
0.0
 11
11.43405818096965
 21
9.16042682108854
 31
0.0
  0
LINE
  5
2092
330
2064
100
AcDbEntity
  8
0
 62
     0
100
AcDbLine
 10
11.42986400714549
 20
9.120426821088543
 30
0.0
 11
11.39401831761913
 21
9.156272510614906
 31
0.0
  0
LINE
  5
2093
330
2064
100
AcDbEntity
  8
0
 62
     0
100
AcDbLine
 10
12.09277661450788
 20
9.120426821088543
 30
0.0
 11
12.05277661450788
 21
9.16042682108854
 31
0.0
  0
LINE
  5
2094
330
2064
100
AcDbEntity
  8
0
 62
     0
100
AcDbLine
 10
12.13697078833203
 20
9.120426821088543
 30
0.0
 11
12.09697078833204
 21
9.16042682108854
 31
0.0
  0
LINE
  5
2095
330
2064
100
AcDbEntity
  8
0
 62
     0
100
AcDbLine
 10
12.1811649621562
 20
9.120426821088543
 30
0.0
 11
12.1411649621562
 21
9.16042682108854
 31
0.0
  0
LINE
  5
2096
330
2064
100
AcDbEntity
  8
0
 62
     0
100
AcDbLine
 10
12.22535913598036
 20
9.120426821088543
 30
0.0
 11
12.18535913598036
 21
9.16042682108854
 31
0.0
  0
LINE
  5
2097
330
2064
100
AcDbEntity
  8
0
 62
     0
100
AcDbLine
 10
12.26955330980451
 20
9.120426821088543
 30
0.0
 11
12.22955330980451
 21
9.16042682108854
 31
0.0
  0
LINE
  5
2098
330
2064
100
AcDbEntity
  8
0
 62
     0
100
AcDbLine
 10
12.31374748362867
 20
9.120426821088543
 30
0.0
 11
12.27374748362868
 21
9.16042682108854
 31
0.0
  0
LINE
  5
2099
330
2064
100
AcDbEntity
  8
0
 62
     0
100
AcDbLine
 10
12.35794165745283
 20
9.120426821088543
 30
0.0
 11
12.31794165745283
 21
9.16042682108854
 31
0.0
  0
LINE
  5
209A
330
2064
100
AcDbEntity
  8
0
 62
     0
100
AcDbLine
 10
12.40213583127699
 20
9.120426821088543
 30
0.0
 11
12.36213583127699
 21
9.16042682108854
 31
0.0
  0
LINE
  5
209B
330
2064
100
AcDbEntity
  8
0
 62
     0
100
AcDbLine
 10
12.44633000510115
 20
9.120426821088543
 30
0.0
 11
12.40633000510115
 21
9.16042682108854
 31
0.0
  0
LINE
  5
209C
330
2064
100
AcDbEntity
  8
0
 62
     0
100
AcDbLine
 10
12.49052417892531
 20
9.120426821088543
 30
0.0
 11
12.45052417892531
 21
9.16042682108854
 31
0.0
  0
LINE
  5
209D
330
2064
100
AcDbEntity
  8
0
 62
     0
100
AcDbLine
 10
12.53471835274947
 20
9.120426821088543
 30
0.0
 11
12.49471835274947
 21
9.16042682108854
 31
0.0
  0
LINE
  5
209E
330
2064
100
AcDbEntity
  8
0
 62
     0
100
AcDbLine
 10
12.57891252657363
 20
9.120426821088543
 30
0.0
 11
12.53891252657363
 21
9.16042682108854
 31
0.0
  0
LINE
  5
209F
330
2064
100
AcDbEntity
  8
0
 62
     0
100
AcDbLine
 10
12.62310670039779
 20
9.120426821088543
 30
0.0
 11
12.58310670039779
 21
9.16042682108854
 31
0.0
  0
LINE
  5
20A0
330
2064
100
AcDbEntity
  8
0
 62
     0
100
AcDbLine
 10
12.66730087422195
 20
9.120426821088543
 30
0.0
 11
12.62730087422195
 21
9.16042682108854
 31
0.0
  0
LINE
  5
20A1
330
2064
100
AcDbEntity
  8
0
 62
     0
100
AcDbLine
 10
12.68399674713724
 20
9.147925121997415
 30
0.0
 11
12.67149504804611
 21
9.16042682108854
 31
0.0
  0
ENDBLK
  5
20A2
330
2064
100
AcDbEntity
  8
0
100
AcDbBlockEnd
  0
BLOCK
  5
20E6
330
20E5
100
AcDbEntity
  8
0
100
AcDbBlockBegin
  2
*U4
 70
     1
 10
0.0
 20
0.0
 30
0.0
  3
*U4
  1
*ANON
  0
SOLID
  5
20E7
330
20E5
100
AcDbEntity
  8
0
 62
     0
100
AcDbTrace
 10
8.138963202893219
 20
4.153110275044026
 30
0.0
 11
8.139143255728106
 21
4.152782880701087
 31
0.0
 12
8.138963202893224
 22
4.152372156093623
 32
0.0
 13
8.138963202893224
 23
4.152372156093623
 33
0.0
  0
SOLID
  5
20E8
330
20E5
100
AcDbEntity
  8
0
 62
     0
100
AcDbTrace
 10
8.138963202893224
 20
4.152372156093623
 30
0.0
 11
8.138028867975624
 21
4.151884078297518
 31
0.0
 12
8.136896703462809
 22
4.151631537884072
 32
0.0
 13
8.136896703462809
 23
4.151631537884072
 33
0.0
  0
SOLID
  5
20E9
330
20E5
100
AcDbEntity
  8
0
 62
     0
100
AcDbTrace
 10
8.138963202893224
 20
4.152372156093623
 30
0.0
 11
8.136896703462809
 21
4.151631537884072
 31
0.0
 12
8.135333985407216
 22
4.151529040414927
 32
0.0
 13
8.135333985407216
 23
4.151529040414927
 33
0.0
  0
SOLID
  5
20EA
330
20E5
100
AcDbEntity
  8
0
 62
     0
100
AcDbTrace
 10
8.138963202893224
 20
4.152372156093623
 30
0.0
 11
8.135333985407216
 21
4.151529040414927
 31
0.0
 12
8.133771267351626
 22
4.151631537884071
 32
0.0
 13
8.133771267351626
 23
4.151631537884071
 33
0.0
  0
SOLID
  5
20EB
330
20E5
100
AcDbEntity
  8
0
 62
     0
100
AcDbTrace
 10
8.138963202893224
 20
4.152372156093623
 30
0.0
 11
8.133771267351626
 21
4.151631537884071
 31
0.0
 12
8.132639102838806
 22
4.15188407829752
 32
0.0
 13
8.132639102838806
 23
4.15188407829752
 33
0.0
  0
SOLID
  5
20EC
330
20E5
100
AcDbEntity
  8
0
 62
     0
100
AcDbTrace
 10
8.138963202893224
 20
4.152372156093623
 30
0.0
 11
8.132639102838806
 21
4.15188407829752
 31
0.0
 12
8.131704767921211
 22
4.152372156093618
 32
0.0
 13
8.131704767921211
 23
4.152372156093618
 33
0.0
  0
SOLID
  5
20ED
330
20E5
100
AcDbEntity
  8
0
 62
     0
100
AcDbTrace
 10
8.138963202893224
 20
4.152372156093623
 30
0.0
 11
8.131704767921211
 21
4.152372156093618
 31
0.0
 12
8.131522845929975
 22
4.152741215568822
 32
0.0
 13
8.131522845929975
 23
4.152741215568822
 33
0.0
  0
SOLID
  5
20EE
330
20E5
100
AcDbEntity
  8
0
 62
     0
100
AcDbTrace
 10
8.138963202893224
 20
4.152372156093623
 30
0.0
 11
8.131522845929975
 21
4.152741215568822
 31
0.0
 12
8.13170476792121
 22
4.153110275044022
 32
0.0
 13
8.13170476792121
 23
4.153110275044022
 33
0.0
  0
SOLID
  5
20EF
330
20E5
100
AcDbEntity
  8
0
 62
     0
100
AcDbTrace
 10
8.138963202893224
 20
4.152372156093623
 30
0.0
 11
8.13170476792121
 21
4.153110275044022
 31
0.0
 12
8.132639102838815
 22
4.153598352840128
 32
0.0
 13
8.132639102838815
 23
4.153598352840128
 33
0.0
  0
SOLID
  5
20F0
330
20E5
100
AcDbEntity
  8
0
 62
     0
100
AcDbTrace
 10
8.138963202893224
 20
4.152372156093623
 30
0.0
 11
8.132639102838815
 21
4.153598352840128
 31
0.0
 12
8.133771267351617
 22
4.153850893253571
 32
0.0
 13
8.133771267351617
 23
4.153850893253571
 33
0.0
  0
SOLID
  5
20F1
330
20E5
100
AcDbEntity
  8
0
 62
     0
100
AcDbTrace
 10
8.138963202893224
 20
4.152372156093623
 30
0.0
 11
8.133771267351617
 21
4.153850893253571
 31
0.0
 12
8.135333985407216
 22
4.153953390722717
 32
0.0
 13
8.135333985407216
 23
4.153953390722717
 33
0.0
  0
SOLID
  5
20F2
330
20E5
100
AcDbEntity
  8
0
 62
     0
100
AcDbTrace
 10
8.138963202893224
 20
4.152372156093623
 30
0.0
 11
8.135333985407216
 21
4.153953390722717
 31
0.0
 12
8.136896703462786
 22
4.153850893253575
 32
0.0
 13
8.136896703462786
 23
4.153850893253575
 33
0.0
  0
SOLID
  5
20F3
330
20E5
100
AcDbEntity
  8
0
 62
     0
100
AcDbTrace
 10
8.138963202893224
 20
4.152372156093623
 30
0.0
 11
8.136896703462786
 21
4.153850893253575
 31
0.0
 12
8.138028867975622
 22
4.153598352840125
 32
0.0
 13
8.138028867975622
 23
4.153598352840125
 33
0.0
  0
SOLID
  5
20F4
330
20E5
100
AcDbEntity
  8
0
 62
     0
100
AcDbTrace
 10
8.138963202893224
 20
4.152372156093623
 30
0.0
 11
8.138028867975622
 21
4.153598352840125
 31
0.0
 12
8.138963202829472
 22
4.153110275044026
 32
0.0
 13
8.138963202829472
 23
4.153110275044026
 33
0.0
  0
ENDBLK
  5
20F5
330
20E5
100
AcDbEntity
  8
0
100
AcDbBlockEnd
  0
BLOCK
  5
2110
330
210F
100
AcDbEntity
  8
0
100
AcDbBlockBegin
  2
*U5
 70
     1
 10
0.0
 20
0.0
 30
0.0
  3
*U5
  1
*ANON
  0
SOLID
  5
2111
330
210F
100
AcDbEntity
  8
0
 62
     0
100
AcDbTrace
 10
10.74374552241409
 20
2.948978086593869
 30
0.0
 11
10.79790404618198
 21
2.948978086593869
 31
0.0
 12
10.79790404618198
 22
2.93897808659387
 32
0.0
 13
10.79790404618198
 23
2.93897808659387
 33
0.0
  0
SOLID
  5
2112
330
210F
100
AcDbEntity
  8
0
 62
     0
100
AcDbTrace
 10
10.74374552234076
 20
2.948978086593869
 30
0.0
 11
10.79790404618198
 21
2.93897808659387
 31
0.0
 12
10.74374552241409
 22
2.93897808659387
 32
0.0
 13
10.74374552241409
 23
2.93897808659387
 33
0.0
  0
ENDBLK
  5
2113
330
210F
100
AcDbEntity
  8
0
100
AcDbBlockEnd
  0
BLOCK
  5
2115
330
2114
100
AcDbEntity
  8
0
100
AcDbBlockBegin
  2
*U6
 70
     1
 10
0.0
 20
0.0
 30
0.0
  3
*U6
  1
*ANON
  0
ARC
  5
2116
330
2114
100
AcDbEntity
  8
0
  6
ByBlock
 62
     0
100
AcDbCircle
 10
11.08086649531184
 20
1.522311419927204
 30
0.0
 40
0.0273333333333335
100
AcDbArc
 50
209.1964044096785
 51
270.0
  0
ARC
  5
2117
330
2114
100
AcDbEntity
  8
0
  6
ByBlock
 62
     0
100
AcDbCircle
 10
11.08086649531184
 20
1.522311419927204
 30
0.0
 40
0.0553333333333335
100
AcDbArc
 50
193.9434348608377
 51
254.5483065693508
  0
ARC
  5
2118
330
2114
100
AcDbEntity
  8
0
  6
ByBlock
 62
     0
100
AcDbCircle
 10
11.08086649531184
 20
1.522311419927204
 30
0.0
 40
0.0833333333333335
100
AcDbArc
 50
189.2068962213478
 51
219.7918194995779
  0
ARC
  5
2119
330
2114
100
AcDbEntity
  8
0
  6
ByBlock
 62
     0
100
AcDbCircle
 10
11.08086649531184
 20
1.522311419927204
 30
0.0
 40
0.1113333333333335
100
AcDbArc
 50
186.8782793511645
 51
208.6228467300182
  0
ARC
  5
211A
330
2114
100
AcDbEntity
  8
0
  6
ByBlock
 62
     0
100
AcDbCircle
 10
11.08086649531184
 20
1.522311419927204
 30
0.0
 40
0.1393333333333335
100
AcDbArc
 50
185.4912524022715
 51
202.5056862398086
  0
ARC
  5
211B
330
2114
100
AcDbEntity
  8
0
  6
ByBlock
 62
     0
100
AcDbCircle
 10
11.08086649531184
 20
1.522311419927204
 30
0.0
 40
0.1673333333333335
100
AcDbArc
 50
184.5702456483737
 51
198.5858418267901
  0
ARC
  5
211C
330
2114
100
AcDbEntity
  8
0
  6
ByBlock
 62
     0
100
AcDbCircle
 10
11.08086649531184
 20
1.522311419927204
 30
0.0
 40
0.1953333333333335
100
AcDbArc
 50
183.9140181923181
 51
195.8450985955663
  0
ARC
  5
211D
330
2114
100
AcDbEntity
  8
0
  6
ByBlock
 62
     0
100
AcDbCircle
 10
11.08086649531184
 20
1.522311419927204
 30
0.0
 40
0.2233333333333335
100
AcDbArc
 50
183.4226788343221
 51
193.8160784752645
  0
ARC
  5
211E
330
2114
100
AcDbEntity
  8
0
  6
ByBlock
 62
     0
100
AcDbCircle
 10
11.08086649531184
 20
1.522311419927204
 30
0.0
 40
0.2513333333333335
100
AcDbArc
 50
183.0409914386517
 51
192.2514024131566
  0
ENDBLK
  5
211F
330
2114
100
AcDbEntity
  8
0
100
AcDbBlockEnd
  0
BLOCK
  5
2121
330
2120
100
AcDbEntity
  8
0
100
AcDbBlockBegin
  2
*U7
 70
     1
 10
0.0
 20
0.0
 30
0.0
  3
*U7
  1
*ANON
  0
SOLID
  5
2122
330
2120
100
AcDbEntity
  8
0
 62
     0
100
AcDbTrace
 10
10.74374552241409
 20
1.468978086593871
 30
0.0
 11
10.79790404618198
 21
1.468978086593871
 31
0.0
 12
10.79790404618198
 22
1.47897808659387
 32
0.0
 13
10.79790404618198
 23
1.47897808659387
 33
0.0
  0
SOLID
  5
2123
330
2120
100
AcDbEntity
  8
0
 62
     0
100
AcDbTrace
 10
10.74374552241409
 20
1.468978086593871
 30
0.0
 11
10.79790404618198
 21
1.47897808659387
 31
0.0
 12
10.74374552241409
 22
1.47897808659387
 32
0.0
 13
10.74374552241409
 23
1.47897808659387
 33
0.0
  0
ENDBLK
  5
2124
330
2120
100
AcDbEntity
  8
0
100
AcDbBlockEnd
  0
BLOCK
  5
2168
330
2167
100
AcDbEntity
  8
0
100
AcDbBlockBegin
  2
*U8
 70
     1
 10
0.0
 20
0.0
 30
0.0
  3
*U8
  1
*ANON
  0
SOLID
  5
2169
330
2167
100
AcDbEntity
  8
0
 62
     0
100
AcDbTrace
 10
11.42238494071866
 20
0.6709033483772622
 30
0.0
 11
11.42238494071866
 21
0.6167448246093752
 31
0.0
 12
11.43238494071866
 22
0.616744824609377
 32
0.0
 13
11.43238494071866
 23
0.616744824609377
 33
0.0
  0
SOLID
  5
216A
330
2167
100
AcDbEntity
  8
0
 62
     0
100
AcDbTrace
 10
11.42238494071866
 20
0.6709033483772622
 30
0.0
 11
11.43238494071866
 21
0.616744824609377
 31
0.0
 12
11.43238494071866
 22
0.6709033483772622
 32
0.0
 13
11.43238494071866
 23
0.6709033483772622
 33
0.0
  0
ENDBLK
  5
216B
330
2167
100
AcDbEntity
  8
0
100
AcDbBlockEnd
  0
BLOCK
  5
232A
330
231C
100
AcDbEntity
  8
0
100
AcDbBlockBegin
  2
SOLBET_Bloczek_OPTIMAL_240x240x590_P+W_PRA
 70
     2
 10
0.0
 20
0.0
 30
0.0
  3
SOLBET_Bloczek_OPTIMAL_240x240x590_P+W_PRA
  1

  0
ATTDEF
  5
231D
330
231C
100
AcDbEntity
  8
SOLBET_Wymiary_Opisy
100
AcDbText
 10
-0.0000000878742412
 20
6.303237404038322
 30
0.0
 40
0.9913121336814832
  1
240x240x590
  7
Solbet_1
100
AcDbAttributeDefinition
  3

  2
WYMIARY
 70
     3
1001
AcDbAttr
1070
     0
1070
     1
  0
ATTDEF
  5
231E
330
231C
100
AcDbEntity
  8
SOLBET_Wymiary_Opisy
100
AcDbText
 10
-0.0000000878742412
 20
4.790717996322224
 30
0.0
 40
0.9913121336814832
  1
400, 500, 600, 700
  7
Solbet_1
100
AcDbAttributeDefinition
  3

  2
KLASA_GĘSTOŚCI
 70
     9
1001
AcDbAttr
1070
     0
1070
     1
  0
ATTDEF
  5
231F
330
231C
100
AcDbEntity
  8
SOLBET_Wymiary_Opisy
100
AcDbText
 10
-0.0000000878742412
 20
3.269569161109998
 30
0.0
 40
0.9913121336814832
  1
pióra+wpusty
  7
Solbet_1
100
AcDbAttributeDefinition
  3

  2
PROFILOWANIE
 70
    11
1001
AcDbAttr
1070
     0
1070
     1
  0
ATTDEF
  5
2320
330
231C
100
AcDbEntity
  8
SOLBET_Wymiary_Opisy
100
AcDbText
 10
-0.0000000878742412
 20
0.2448647517692188
 30
0.0
 40
0.9913121336814832
  1
SOLBET
  7
Solbet_1
100
AcDbAttributeDefinition
  3

  2
FIRMA
 70
     3
1001
AcDbAttr
1070
     0
1070
     1
  0
ATTDEF
  5
2321
330
231C
100
AcDbEntity
  8
SOLBET_Wymiary_Opisy
100
AcDbText
 10
-0.0000000878742412
 20
9.333547402386153
 30
0.0
 40
0.9913121336814832
  1
Bloczek
  7
Solbet_1
100
AcDbAttributeDefinition
  3
Nazwa
  2
NAZWA
 70
     3
1001
AcDbAttr
1070
     0
1070
     1
  0
ATTDEF
  5
2322
330
231C
100
AcDbEntity
  8
SOLBET_Wymiary_Opisy
100
AcDbText
 10
-0.0000000878742412
 20
7.794499222151949
 30
0.0
 40
0.9913121336814832
  1
SOLBET OPTIMAL
  7
Solbet_1
100
AcDbAttributeDefinition
  3

  2
SYSTEM
 70
     3
1001
AcDbAttr
1070
     0
1070
     1
  0
ATTDEF
  5
2323
330
231C
100
AcDbEntity
  8
SOLBET_Wymiary_Opisy
100
AcDbText
 10
-0.0000000878742412
 20
1.744181511296331
 30
0.0
 40
0.9913121336814832
  1
Prawo
  7
Solbet_1
100
AcDbAttributeDefinition
  3

  2
WIDOK
 70
    11
1001
AcDbAttr
1070
     0
1070
     1
  0
LINE
  5
2324
330
231C
100
AcDbEntity
  8
SOLBET_Bloczki
100
AcDbLine
 10
12.00000017574848
 20
11.99999995881262
 30
0.0
 11
12.00000017574848
 21
-0.0000000411874908
 31
0.0
  0
LINE
  5
2325
330
231C
100
AcDbEntity
  8
SOLBET_Bloczki
100
AcDbLine
 10
12.00000017574848
 20
11.99999995881262
 30
0.0
 11
0.0000001757484824
 21
11.99999995881262
 31
0.0
  0
LINE
  5
2326
330
231C
100
AcDbEntity
  8
SOLBET_Bloczki
100
AcDbLine
 10
0.0000001757484824
 20
11.99999995881262
 30
0.0
 11
0.0000001757484824
 21
-0.0000000411873771
 31
0.0
  0
LINE
  5
2327
330
231C
100
AcDbEntity
  8
SOLBET_Bloczki
100
AcDbLine
 10
0.0000001757484824
 20
-0.0000000411873771
 30
0.0
 11
12.00000017574848
 21
-0.0000000411874908
 31
0.0
  0
ENDBLK
  5
232B
330
231C
100
AcDbEntity
  8
0
100
AcDbBlockEnd
  0
BLOCK
  5
23BD
330
23B1
100
AcDbEntity
  8
0
100
AcDbBlockBegin
  2
SOLBET_Nadproze_140_12_1400x240x120_PRA
 70
     2
 10
0.0
 20
0.0
 30
0.0
  3
SOLBET_Nadproze_140_12_1400x240x120_PRA
  1

  0
ATTDEF
  5
23B2
330
23B1
100
AcDbEntity
  8
SOLBET_Wymiary_Opisy
100
AcDbText
 10
-0.0000002754209163
 20
4.914367003308234
 30
0.0
 40
0.9913121336814832
  1
1400x240x120
  7
Solbet_1
100
AcDbAttributeDefinition
  3

  2
WYMIARY
 70
     3
1001
AcDbAttr
1070
     0
1070
     1
  0
ATTDEF
  5
23B3
330
23B1
100
AcDbEntity
  8
SOLBET_Wymiary_Opisy
100
AcDbText
 10
0.0000001377104581
 20
3.269569171638422
 30
0.0
 40
0.9913121336814832
  1
20
  7
Solbet_1
100
AcDbAttributeDefinition
  3

  2
DŁUGOŚĆ_PODPARCIA_1
 70
    11
1001
AcDbAttr
1070
     0
1070
     1
  0
ATTDEF
  5
23B4
330
23B1
100
AcDbEntity
  8
SOLBET_Wymiary_Opisy
100
AcDbText
 10
0.0000001377104581
 20
0.2448647622976432
 30
0.0
 40
0.9913121336814832
  1
SOLBET
  7
Solbet_1
100
AcDbAttributeDefinition
  3

  2
FIRMA
 70
     3
1001
AcDbAttr
1070
     0
1070
     1
  0
ATTDEF
  5
23B5
330
23B1
100
AcDbEntity
  8
SOLBET_Wymiary_Opisy
100
AcDbText
 10
-0.0000002754209163
 20
6.505718915794942
 30
0.0
 40
0.9913121336814832
  1
Nadproże 140/12
  7
Solbet_1
100
AcDbAttributeDefinition
  3
Nazwa
  2
NAZWA
 70
     3
1001
AcDbAttr
1070
     0
1070
     1
  0
ATTDEF
  5
23B6
330
23B1
100
AcDbEntity
  8
SOLBET_Wymiary_Opisy
100
AcDbText
 10
0.0000001377104581
 20
1.744181521824755
 30
0.0
 40
0.9913121336814832
  1
Prawo
  7
Solbet_1
100
AcDbAttributeDefinition
  3

  2
WIDOK
 70
    11
1001
AcDbAttr
1070
     0
1070
     1
  0
LINE
  5
23B7
330
23B1
100
AcDbEntity
  8
SOLBET_Bloczki
100
AcDbLine
 10
5.999999594097516
 20
11.99999987551155
 30
0.0
 11
5.999999594097516
 21
-0.0000001244884515
 31
0.0
  0
LINE
  5
23B8
330
23B1
100
AcDbEntity
  8
SOLBET_Bloczki
100
AcDbLine
 10
5.999999594097516
 20
-0.0000001244884515
 30
0.0
 11
-0.0000004059024832
 21
-0.0000001244884515
 31
0.0
  0
LINE
  5
23B9
330
23B1
100
AcDbEntity
  8
SOLBET_Bloczki
100
AcDbLine
 10
-0.0000004059024832
 20
-0.0000001244884515
 30
0.0
 11
-0.0000004059024832
 21
11.99999987551155
 31
0.0
  0
LINE
  5
23BA
330
23B1
100
AcDbEntity
  8
SOLBET_Bloczki
100
AcDbLine
 10
-0.0000004059024832
 20
11.99999987551155
 30
0.0
 11
5.999999594097516
 21
11.99999987551155
 31
0.0
  0
ENDBLK
  5
23BE
330
23B1
100
AcDbEntity
  8
0
100
AcDbBlockEnd
  0
BLOCK
  5
2607
330
2606
100
AcDbEntity
  8
0
100
AcDbBlockBegin
  2
_None
 70
     0
 10
0.0
 20
0.0
 30
0.0
  3
_None
  1

  0
ENDBLK
  5
2608
330
2606
100
AcDbEntity
  8
0
100
AcDbBlockEnd
  0
BLOCK
  5
2B10
330
2AFD
100
AcDbEntity
  8
0
100
AcDbBlockBegin
  2
SOLBET_Nadproze_120x240x1400_zz_PRA
 70
     2
 10
0.0
 20
0.0
 30
0.0
  3
SOLBET_Nadproze_120x240x1400_zz_PRA
  1

  0
ATTDEF
  5
2AFE
330
2AFD
100
AcDbEntity
  8
SOLBET_Wymiary_Opisy
100
AcDbText
 10
-0.0000002754209163
 20
4.914367003308234
 30
0.0
 40
0.9913121336814832
  1
120x240x1400
  7
Solbet_1
100
AcDbAttributeDefinition
  3

  2
WYMIARY
 70
    11
1001
AcDbAttr
1070
     0
1070
     1
  0
ATTDEF
  5
2AFF
330
2AFD
100
AcDbEntity
  8
SOLBET_Wymiary_Opisy
100
AcDbText
 10
0.0000001377104581
 20
3.269569171638422
 30
0.0
 40
0.9913121336814832
  1
20
  7
Solbet_1
100
AcDbAttributeDefinition
  3

  2
DŁUGOŚĆ_PODPARCIA_1
 70
    11
1001
AcDbAttr
1070
     0
1070
     1
  0
ATTDEF
  5
2B00
330
2AFD
100
AcDbEntity
  8
SOLBET_Wymiary_Opisy
100
AcDbText
 10
0.0000001377104581
 20
0.2448647622976432
 30
0.0
 40
0.9913121336814832
  1
SOLBET
  7
Solbet_1
100
AcDbAttributeDefinition
  3

  2
FIRMA
 70
    11
1001
AcDbAttr
1070
     0
1070
     1
  0
ATTDEF
  5
2B01
330
2AFD
100
AcDbEntity
  8
SOLBET_Wymiary_Opisy
100
AcDbText
 10
-0.0000002754209163
 20
6.505718915794942
 30
0.0
 40
0.9913121336814832
  1
Nadproże 140/12
  7
Solbet_1
100
AcDbAttributeDefinition
  3
Nazwa
  2
NAZWA
 70
    11
1001
AcDbAttr
1070
     0
1070
     1
  0
ATTDEF
  5
2B02
330
2AFD
100
AcDbEntity
  8
SOLBET_Wymiary_Opisy
100
AcDbText
 10
0.0000001377104581
 20
1.744181521824755
 30
0.0
 40
0.9913121336814832
  1
Prawo
  7
Solbet_1
100
AcDbAttributeDefinition
  3

  2
WIDOK
 70
    11
1001
AcDbAttr
1070
     0
1070
     1
  0
LINE
  5
2B03
330
2AFD
100
AcDbEntity
  8
SOLBET_Bloczki
100
AcDbLine
 10
5.999999594097516
 20
11.99999987551155
 30
0.0
 11
5.999999594097516
 21
-0.0000001244884515
 31
0.0
  0
LINE
  5
2B04
330
2AFD
100
AcDbEntity
  8
SOLBET_Bloczki
100
AcDbLine
 10
5.999999594097516
 20
-0.0000001244884515
 30
0.0
 11
-0.0000004059024832
 21
-0.0000001244884515
 31
0.0
  0
LINE
  5
2B05
330
2AFD
100
AcDbEntity
  8
SOLBET_Bloczki
100
AcDbLine
 10
-0.0000004059024832
 20
-0.0000001244884515
 30
0.0
 11
-0.0000004059024832
 21
11.99999987551155
 31
0.0
  0
LINE
  5
2B06
330
2AFD
100
AcDbEntity
  8
SOLBET_Bloczki
100
AcDbLine
 10
-0.0000004059024832
 20
11.99999987551155
 30
0.0
 11
5.999999594097516
 21
11.99999987551155
 31
0.0
  0
LWPOLYLINE
  5
2B07
330
2AFD
100
AcDbEntity
  8
SOLBET_Zbrojenie_Konstrukcja
  6
Continuous
100
AcDbPolyline
 90
        4
 70
     0
 43
0.0
 10
5.249998918748815
 20
10.74999987551166
 10
5.249998918748815
 20
0.7499998755115485
 10
0.7499989187488155
 20
0.7499998755115485
 10
0.7499989187488155
 20
10.74999987551166
  0
LWPOLYLINE
  5
2B08
330
2AFD
100
AcDbEntity
  8
SOLBET_Zbrojenie_Konstrukcja
  6
Continuous
100
AcDbPolyline
 90
        2
 70
     1
 43
0.3
 10
5.104412450089967
 20
10.42241386794614
 42
-1.0
 10
4.804412450089785
 20
10.42241386794614
 42
-1.0
  0
LWPOLYLINE
  5
2B09
330
2AFD
100
AcDbEntity
  8
SOLBET_Zbrojenie_Konstrukcja
  6
Continuous
100
AcDbPolyline
 90
        2
 70
     1
 43
0.3
 10
0.8955853874078911
 20
10.42241386794614
 42
1.0
 10
1.195585387407845
 20
10.42241386794614
 42
1.0
  0
LWPOLYLINE
  5
2B0A
330
2AFD
100
AcDbEntity
  8
SOLBET_Zbrojenie_Konstrukcja
  6
Continuous
100
AcDbPolyline
 90
        2
 70
     1
 43
0.3
 10
5.104412450089967
 20
2.418619077883477
 42
-1.0
 10
4.804412450089785
 20
2.418619077883477
 42
-1.0
  0
LWPOLYLINE
  5
2B0B
330
2AFD
100
AcDbEntity
  8
SOLBET_Zbrojenie_Konstrukcja
  6
Continuous
100
AcDbPolyline
 90
        2
 70
     1
 43
0.3
 10
0.8955853874078911
 20
2.418619077883477
 42
1.0
 10
1.195585387407845
 20
2.418619077883477
 42
1.0
  0
LWPOLYLINE
  5
2B0C
330
2AFD
100
AcDbEntity
  8
SOLBET_Zbrojenie_Konstrukcja
  6
Continuous
100
AcDbPolyline
 90
        2
 70
     1
 43
0.3
 10
4.185083775025077
 20
1.061575122894964
 42
-1.0
 10
3.885083775025123
 20
1.061575122894964
 42
-1.0
  0
LWPOLYLINE
  5
2B0D
330
2AFD
100
AcDbEntity
  8
SOLBET_Zbrojenie_Konstrukcja
  6
Continuous
100
AcDbPolyline
 90
        2
 70
     1
 43
0.3
 10
1.814914062472325
 20
1.061575122894964
 42
1.0
 10
2.114914062472507
 20
1.061575122894964
 42
1.0
  0
ENDBLK
  5
2B11
330
2AFD
100
AcDbEntity
  8
0
100
AcDbBlockEnd
  0
BLOCK
  5
2B22
330
2B14
100
AcDbEntity
  8
0
100
AcDbBlockBegin
  2
SOLBET_Bloczek_Optimal_240x240x590_P+W_KG500_PRA
 70
     2
 10
0.0
 20
0.0
 30
0.0
  3
SOLBET_Bloczek_Optimal_240x240x590_P+W_KG500_PRA
  1

  0
ATTDEF
  5
2B15
330
2B14
100
AcDbEntity
  8
SOLBET_Wymiary_Opisy
100
AcDbText
 10
-0.0000000878742412
 20
6.303237404038322
 30
0.0
 40
0.9913121336814832
  1
240x240x590
  7
Solbet_1
100
AcDbAttributeDefinition
  3

  2
WYMIARY
 70
    11
1001
AcDbAttr
1070
     0
1070
     1
  0
ATTDEF
  5
2B16
330
2B14
100
AcDbEntity
  8
SOLBET_Wymiary_Opisy
100
AcDbText
 10
-0.0000000878742412
 20
4.790717996322224
 30
0.0
 40
0.9913121336814832
  1
500
  7
Solbet_1
100
AcDbAttributeDefinition
  3

  2
KLASA_GĘSTOŚCI
 70
    11
1001
AcDbAttr
1070
     0
1070
     1
  0
ATTDEF
  5
2B17
330
2B14
100
AcDbEntity
  8
SOLBET_Wymiary_Opisy
100
AcDbText
 10
-0.0000000878742412
 20
3.269569161109998
 30
0.0
 40
0.9913121336814832
  1
Pióra+Wpusty
  7
Solbet_1
100
AcDbAttributeDefinition
  3

  2
PROFILOWANIE
 70
    11
1001
AcDbAttr
1070
     0
1070
     1
  0
ATTDEF
  5
2B18
330
2B14
100
AcDbEntity
  8
SOLBET_Wymiary_Opisy
100
AcDbText
 10
-0.0000000878742412
 20
0.2448647517692188
 30
0.0
 40
0.9913121336814832
  1
SOLBET
  7
Solbet_1
100
AcDbAttributeDefinition
  3

  2
FIRMA
 70
    11
1001
AcDbAttr
1070
     0
1070
     1
  0
ATTDEF
  5
2B19
330
2B14
100
AcDbEntity
  8
SOLBET_Wymiary_Opisy
100
AcDbText
 10
-0.0000000878742412
 20
9.333547402386153
 30
0.0
 40
0.9913121336814832
  1
Bloczek
  7
Solbet_1
100
AcDbAttributeDefinition
  3
Nazwa
  2
NAZWA
 70
    11
1001
AcDbAttr
1070
     0
1070
     1
  0
ATTDEF
  5
2B1A
330
2B14
100
AcDbEntity
  8
SOLBET_Wymiary_Opisy
100
AcDbText
 10
-0.0000000878742412
 20
7.794499222151949
 30
0.0
 40
0.9913121336814832
  1
SOLBET Optimal
  7
Solbet_1
100
AcDbAttributeDefinition
  3

  2
SYSTEM
 70
    11
1001
AcDbAttr
1070
     0
1070
     1
  0
ATTDEF
  5
2B1B
330
2B14
100
AcDbEntity
  8
SOLBET_Wymiary_Opisy
100
AcDbText
 10
-0.0000000878742412
 20
1.744181511296331
 30
0.0
 40
0.9913121336814832
  1
Prawo
  7
Solbet_1
100
AcDbAttributeDefinition
  3

  2
WIDOK
 70
    11
1001
AcDbAttr
1070
     0
1070
     1
  0
LINE
  5
2B1C
330
2B14
100
AcDbEntity
  8
SOLBET_Bloczki
100
AcDbLine
 10
12.00000017574848
 20
11.99999995881262
 30
0.0
 11
12.00000017574848
 21
-0.0000000411874908
 31
0.0
  0
LINE
  5
2B1D
330
2B14
100
AcDbEntity
  8
SOLBET_Bloczki
100
AcDbLine
 10
12.00000017574848
 20
11.99999995881262
 30
0.0
 11
0.0000001757484824
 21
11.99999995881262
 31
0.0
  0
LINE
  5
2B1E
330
2B14
100
AcDbEntity
  8
SOLBET_Bloczki
100
AcDbLine
 10
0.0000001757484824
 20
11.99999995881262
 30
0.0
 11
0.0000001757484824
 21
-0.0000000411873771
 31
0.0
  0
LINE
  5
2B1F
330
2B14
100
AcDbEntity
  8
SOLBET_Bloczki
100
AcDbLine
 10
0.0000001757484824
 20
-0.0000000411873771
 30
0.0
 11
12.00000017574848
 21
-0.0000000411874908
 31
0.0
  0
ENDBLK
  5
2B23
330
2B14
100
AcDbEntity
  8
0
100
AcDbBlockEnd
  0
ENDSEC
  0
SECTION
  2
ENTITIES
  0
LINE
  5
223F
330
1F
100
AcDbEntity
  8
SOLBET_Wymiary_Opisy
 62
     1
100
AcDbLine
 10
53.57920963030506
 20
151.5891515125909
 30
0.0
 11
137.715314529461
 21
151.5891515125909
 31
0.0
  0
INSERT
  5
2246
330
1F
100
AcDbEntity
  8
SOLBET_Zbrojenie_Konstrukcja
100
AcDbBlockReference
  2
*U4
 10
-332.1249552528516
 20
-108.6786463265283
 30
0.0
 41
50.0
 42
50.0
 43
50.0
1001
ASO_SCHRAFF
1005
2249
1070
     0
1005
2248
  0
INSERT
  5
2249
330
1F
100
AcDbEntity
  8
SOLBET_Zbrojenie_Konstrukcja
100
AcDbBlockReference
  2
*U4
 10
474.9864296215328
 20
-108.6786463265283
 30
0.0
 41
-50.0
 42
50.0
 43
50.0
1001
ASO_SCHRAFF
1005
2249
1070
     0
1005
2248
  0
LINE
  5
224C
330
1F
100
AcDbEntity
  8
SOLBET_Wymiary_Opisy
 62
     1
100
AcDbLine
 10
137.715314529461
 20
245.6429062922962
 30
0.0
 11
137.715314529461
 21
67.17105974261676
 31
0.0
  0
LWPOLYLINE
  5
224D
330
1F
100
AcDbEntity
  8
SOLBET_Zbrojenie_Konstrukcja
  6
Continuous
100
AcDbPolyline
 90
        2
 70
     1
 43
0.3
 10
66.25679330673029
 20
214.8520076420755
 42
1.0
 10
66.55679330674207
 20
214.8520076420755
 42
1.0
  0
LWPOLYLINE
  5
224E
330
1F
100
AcDbEntity
  8
SOLBET_Zbrojenie_Konstrukcja
  6
Continuous
100
AcDbPolyline
 90
        2
 70
     1
 43
0.3
 10
71.65143726995188
 20
214.8303879669938
 42
1.0
 10
71.95143726996343
 20
214.8303879669938
 42
1.0
  0
LWPOLYLINE
  5
224F
330
1F
100
AcDbEntity
  8
SOLBET_Zbrojenie_Konstrukcja
  6
Continuous
100
AcDbPolyline
 90
        2
 70
     1
 43
0.3
 10
71.65143726995188
 20
204.9934760919332
 42
1.0
 10
71.95143726996343
 20
204.9934760919332
 42
1.0
  0
LWPOLYLINE
  5
2250
330
1F
100
AcDbEntity
  8
SOLBET_Zbrojenie_Konstrukcja
  6
Continuous
100
AcDbPolyline
 90
        2
 70
     1
 43
0.3
 10
66.25679330673029
 20
204.9934760919332
 42
1.0
 10
66.55679330674207
 20
204.9934760919332
 42
1.0
  0
LINE
  5
2251
330
1F
100
AcDbEntity
  8
SOLBET_Zbrojenie_Konstrukcja
  6
Continuous
100
AcDbLine
 10
68.70171337801457
 20
213.76304112924
 30
0.0
 11
67.28749981564215
 21
215.1772546916134
 31
0.0
  0
LWPOLYLINE
  5
2253
330
1F
100
AcDbEntity
  8
SOLBET_Zbrojenie_Konstrukcja
  6
Continuous
100
AcDbPolyline
 90
        5
 70
     0
 43
0.0
 10
72.09313110974358
 20
204.6772546916133
 10
72.09313110974358
 20
215.1772546916134
 10
66.0874998156305
 20
215.1772546916134
 10
66.0874998156305
 20
204.6772546916133
 10
72.09313110974358
 20
204.6772546916133
  0
LINE
  5
2255
330
1F
100
AcDbEntity
  8
SOLBET_Wymiary_Opisy
 62
     1
100
AcDbLine
 10
53.1125040607733
 20
245.6429062922962
 30
0.0
 11
137.715314529461
 21
245.6429062922962
 31
0.0
  0
LWPOLYLINE
  5
2258
330
1F
100
AcDbEntity
  8
SOLBET_Stolarka_Okna
100
AcDbPolyline
 90
        4
 70
     1
 43
0.0
 10
68.29732357999046
 20
114.4510706302683
 10
69.659129319675
 20
114.1020222544363
 10
69.659129319675
 20
113.2496664658355
 10
68.29732357999046
 20
113.2496664658355
  0
LWPOLYLINE
  5
2259
330
1F
100
AcDbEntity
  8
SOLBET_Stolarka_Okna
100
AcDbPolyline
 90
       15
 70
     1
 43
0.0
 10
65.21639305354074
 20
106.4272546916129
 10
68.71639305355234
 20
106.4272546916129
 10
68.71639305355234
 20
109.5535753893027
 10
67.63226472254337
 20
109.5535753893027
 10
67.63226472254337
 20
110.4256428102219
 10
66.55854332806507
 20
110.4256428102219
 10
66.55854332806507
 20
111.3765211072701
 10
66.21287540381036
 20
111.3765211072701
 10
65.21639305354074
 20
111.1578869619733
 10
65.21639305354074
 20
109.5873246441088
 10
64.75323643446632
 20
109.3252594768236
 10
64.75323643446632
 20
107.9195633394046
 10
65.01361750001979
 20
107.9195633394046
 10
65.01361750001979
 20
108.4401304686298
 10
65.21639305354074
 20
108.4401304686298
  0
LINE
  5
225A
330
1F
100
AcDbEntity
  8
SOLBET_Wymiary_Opisy
 62
     1
100
AcDbLine
 10
53.57920963030506
 20
149.1472758980252
 30
0.0
 11
137.715314529461
 21
149.1472758980252
 31
0.0
  0
LINE
  5
225B
330
1F
100
AcDbEntity
  8
SOLBET_Stolarka_Okna
100
AcDbLine
 10
65.21639305354074
 20
179.4272546916129
 30
0.0
 11
68.71639305355234
 21
179.4272546916129
 31
0.0
  0
LINE
  5
225C
330
1F
100
AcDbEntity
  8
SOLBET_Stolarka_Okna
100
AcDbLine
 10
68.71639305355234
 20
179.4272546916129
 30
0.0
 11
68.71639305355234
 21
176.300933993923
 31
0.0
  0
LINE
  5
225D
330
1F
100
AcDbEntity
  8
SOLBET_Stolarka_Okna
100
AcDbLine
 10
68.71639305355234
 20
176.300933993923
 30
0.0
 11
67.63226472254337
 21
176.300933993923
 31
0.0
  0
LINE
  5
225E
330
1F
100
AcDbEntity
  8
SOLBET_Stolarka_Okna
100
AcDbLine
 10
67.63226472254337
 20
176.300933993923
 30
0.0
 11
67.63226472254337
 21
175.4288665730039
 31
0.0
  0
LINE
  5
225F
330
1F
100
AcDbEntity
  8
SOLBET_Stolarka_Okna
100
AcDbLine
 10
67.63226472254337
 20
175.4288665730039
 30
0.0
 11
66.55854332806507
 21
175.4288665730039
 31
0.0
  0
LINE
  5
2260
330
1F
100
AcDbEntity
  8
SOLBET_Stolarka_Okna
100
AcDbLine
 10
66.55854332806507
 20
175.4288665730039
 30
0.0
 11
66.55854332806507
 21
174.477988275956
 31
0.0
  0
LINE
  5
2261
330
1F
100
AcDbEntity
  8
SOLBET_Zbrojenie_Konstrukcja
100
AcDbLine
 10
66.55854332806507
 20
174.477988275956
 30
0.0
 11
66.21287540381036
 21
174.477988275956
 31
0.0
  0
LINE
  5
2262
330
1F
100
AcDbEntity
  8
SOLBET_Stolarka_Okna
100
AcDbLine
 10
66.21287540381036
 20
174.477988275956
 30
0.0
 11
65.21639305354074
 21
174.6966224212529
 31
0.0
  0
LINE
  5
2263
330
1F
100
AcDbEntity
  8
SOLBET_Stolarka_Okna
100
AcDbLine
 10
65.21639305354074
 20
174.6966224212529
 30
0.0
 11
65.21639305354074
 21
179.4272546916129
 31
0.0
  0
LWPOLYLINE
  5
2264
330
1F
100
AcDbEntity
  8
SOLBET_Stolarka_Okna
100
AcDbPolyline
 90
       15
 70
     1
 43
0.0
 10
66.55854332806507
 20
112.1924404699892
 10
66.55854332806507
 20
111.4876989171584
 10
65.21639305354074
 20
111.4876989171584
 10
65.21639305354074
 20
114.2914709513427
 10
66.47668080243488
 20
114.7285493187197
 10
66.47668080243488
 20
113.1577346463464
 10
68.11906938433844
 20
113.1577346463464
 10
69.659129319675
 20
113.1577346463464
 10
69.659129319675
 20
109.2611256157112
 10
68.96433858504497
 20
109.2611256157112
 10
68.96433858504497
 20
111.4876989171584
 10
67.7995437356617
 20
111.4876989171584
 10
67.7995437356617
 20
110.7523177409514
 10
66.94127467110252
 20
110.7523177409514
 10
66.94127467110252
 20
112.1924404699892
  0
LWPOLYLINE
  5
2265
330
1F
100
AcDbEntity
  8
SOLBET_Stolarka_Okna
100
AcDbPolyline
 90
        4
 70
     1
 43
0.0
 10
68.29732357999046
 20
171.4034387529575
 10
69.659129319675
 20
171.7524871287895
 10
69.659129319675
 20
172.6048429173906
 10
68.29732357999046
 20
172.6048429173906
  0
LWPOLYLINE
  5
2266
330
1F
100
AcDbEntity
  8
SOLBET_Stolarka_Okna
100
AcDbPolyline
 90
       15
 70
     1
 43
0.0
 10
66.55854332806507
 20
173.6620689132365
 10
66.55854332806507
 20
174.3668104660673
 10
65.21639305354074
 20
174.3668104660673
 10
65.21639305354074
 20
171.5630384318831
 10
66.47668080243488
 20
171.1259600645061
 10
66.47668080243488
 20
172.6967747368798
 10
68.11906938433844
 20
172.6967747368798
 10
69.659129319675
 20
172.6967747368798
 10
69.659129319675
 20
176.5933837675146
 10
68.96433858504497
 20
176.5933837675146
 10
68.96433858504497
 20
174.3668104660673
 10
67.7995437356617
 20
174.3668104660673
 10
67.7995437356617
 20
175.1021916422744
 10
66.94127467110252
 20
175.1021916422744
 10
66.94127467110252
 20
173.6620689132365
  0
LINE
  5
2267
330
1F
100
AcDbEntity
  8
SOLBET_Izolacja
100
AcDbLine
 10
68.36034440865933
 20
106.4272546916129
 30
0.0
 11
68.36034440865933
 21
105.9272546916129
 31
0.0
  0
LINE
  5
226A
330
1F
100
AcDbEntity
  8
SOLBET_Izolacja
100
AcDbLine
 10
65.11237773333869
 20
108.3404858300781
 30
0.0
 11
65.11237773333869
 21
106.0155017129424
 31
0.0
  0
LINE
  5
226D
330
1F
100
AcDbEntity
  8
SOLBET_Stolarka_Okna
100
AcDbLine
 10
65.0725126590903
 20
108.3438094990144
 30
0.0
 11
65.0725126590903
 21
107.6029507437417
 31
0.0
  0
LINE
  5
226E
330
1F
100
AcDbEntity
  8
SOLBET_Stolarka_Okna
100
AcDbLine
 10
65.0725126590903
 20
107.6029507437417
 30
0.0
 11
52.85189212390424
 21
106.0896507886787
 31
0.0
  0
LINE
  5
226F
330
1F
100
AcDbEntity
  8
SOLBET_Stolarka_Okna
100
AcDbLine
 10
52.02493377339306
 20
105.1047362809464
 30
0.0
 11
52.02493377339306
 21
104.5323180179612
 31
0.0
  0
LINE
  5
2270
330
1F
100
AcDbEntity
  8
SOLBET_Stolarka_Okna
100
AcDbLine
 10
52.02493377339306
 20
104.5323180179612
 30
0.0
 11
52.33201566023946
 21
104.5323180179612
 31
0.0
  0
LINE
  5
2271
330
1F
100
AcDbEntity
  8
SOLBET_Stolarka_Okna
100
AcDbLine
 10
52.33201566023946
 20
104.5323180179612
 30
0.0
 11
52.33201566023946
 21
105.064391372504
 31
0.0
  0
ARC
  5
2272
330
1F
100
AcDbEntity
  8
SOLBET_Stolarka_Okna
100
AcDbCircle
 10
53.02493377339306
 20
105.1047362809464
 30
0.0
 40
1.0
100
AcDbArc
 50
99.9647143110222
 51
180.0
  0
CIRCLE
  5
2274
330
1F
100
AcDbEntity
  8
SOLBET_Izolacja
100
AcDbCircle
 10
68.32436427528477
 20
106.1796981524871
 30
0.0
 40
0.25244346087405
  0
ARC
  5
2275
330
1F
100
AcDbEntity
  8
SOLBET_Izolacja
100
AcDbCircle
 10
69.03513822272384
 20
106.1742795649481
 30
0.0
 40
0.4069335296814501
100
AcDbArc
 50
141.5623929960626
 51
217.3757720391888
  0
CIRCLE
  5
2278
330
1F
100
AcDbEntity
  8
SOLBET_Izolacja
100
AcDbCircle
 10
68.32436427528477
 20
179.6748112307391
 30
0.0
 40
0.25244346087405
  0
ARC
  5
2279
330
1F
100
AcDbEntity
  8
SOLBET_Izolacja
100
AcDbCircle
 10
69.03513822272384
 20
179.6802298182776
 30
0.0
 40
0.4069335296814501
100
AcDbArc
 50
142.6242279608112
 51
218.4376070039371
  0
LINE
  5
227A
330
1F
100
AcDbEntity
  8
SOLBET_Stolarka_Okna
100
AcDbLine
 10
66.67461909021676
 20
172.4356887876458
 30
0.0
 11
66.67461909021676
 21
151.5891515125909
 31
0.0
  0
LINE
  5
227B
330
1F
100
AcDbEntity
  8
SOLBET_Stolarka_Okna
100
AcDbLine
 10
68.13269509738052
 20
172.4356887876458
 30
0.0
 11
68.13269509738052
 21
151.5891515125909
 31
0.0
  0
LINE
  5
227C
330
1F
100
AcDbEntity
  8
SOLBET_Stolarka_Okna
100
AcDbLine
 10
66.67461909021676
 20
149.1472758980252
 30
0.0
 11
66.67461909021676
 21
113.363835895949
 31
0.0
  0
LINE
  5
227D
330
1F
100
AcDbEntity
  8
SOLBET_Stolarka_Okna
100
AcDbLine
 10
68.13269509738052
 20
149.1472758980252
 30
0.0
 11
68.13269509738052
 21
113.363835895949
 31
0.0
  0
LWPOLYLINE
  5
227F
330
1F
100
AcDbEntity
  8
SOLBET_Stolarka_Okna
100
AcDbPolyline
 90
        4
 70
     1
 43
0.0
 10
68.75387868007852
 20
105.9272546916129
 10
82.21639305355234
 20
105.9272546916129
 10
82.21639305355234
 20
107.9272546916129
 10
68.75387868007852
 20
107.9272546916129
1001
ASO_SCHRAFF
1005
227F
1070
     1
1002
{
1070
     1
1005
227F
1002
}
1002
{
1070
     2
1005
0
1002
}
1002
{
1070
     4
1000
SOFIHOLZ
1040
0.5
1040
0.0
1070
     0
1000
T__SCHR
1070
   256
1000
VONLAYER
1040
50.0
1070
     1
1002
}
  0
LINE
  5
2280
330
1F
100
AcDbEntity
  8
SOLBET_Wymiary_Opisy
100
AcDbLine
 10
53.1125040607733
 20
67.17105974261676
 30
0.0
 11
137.715314529461
 21
67.17105974261676
 31
0.0
  0
LINE
  5
2281
330
1F
100
AcDbEntity
  8
SOLBET_Tynki_Posadzki
100
AcDbLine
 10
78.51445924472955
 20
221.8005615251684
 30
0.0
 11
78.51445924472955
 21
221.3005615251684
 31
0.0
  0
ARC
  5
2282
330
1F
100
AcDbEntity
  8
SOLBET_Tynki_Posadzki
100
AcDbCircle
 10
77.71639305354074
 20
221.8005615251684
 30
0.0
 40
1.5000521396288
100
AcDbArc
 50
0.0
 51
90.0
  0
LINE
  5
2284
330
1F
100
AcDbEntity
  8
SOLBET_Izolacja
  6
Continuous
100
AcDbLine
 10
78.21639305354074
 20
221.3005615251684
 30
0.0
 11
77.21639305354074
 21
221.3005615251684
 31
0.0
  0
LINE
  5
2287
330
1F
100
AcDbEntity
  8
SOLBET_Tynki_Posadzki
100
AcDbLine
 10
78.51445924472955
 20
221.8005615251684
 30
0.0
 11
137.715314529461
 21
221.8005615251684
 31
0.0
  0
LINE
  5
228A
330
1F
100
AcDbEntity
  8
SOLBET_Izolacja
  6
Continuous
100
AcDbLine
 10
78.21639305354074
 20
215.9272546916134
 30
0.0
 11
78.21639305354074
 21
221.3005615251684
 31
0.0
  0
LINE
  5
228B
330
1F
100
AcDbEntity
  8
SOLBET_Izolacja
  6
Continuous
100
AcDbLine
 10
78.21639305354074
 20
218.4272546916134
 30
0.0
 11
137.715314529461
 21
218.4272546916129
 31
0.0
  0
LINE
  5
228C
330
1F
100
AcDbEntity
  8
SOLBET_Tynki_Posadzki
100
AcDbLine
 10
77.71639305354074
 20
221.3005615251684
 30
0.0
 11
77.71639305354074
 21
245.6429062922962
 31
0.0
  0
LINE
  5
228E
330
1F
100
AcDbEntity
  8
SOLBET_Emulsje_Folie
100
AcDbLine
 10
78.33120910322486
 20
221.5505615251684
 30
0.0
 11
78.33120910322486
 21
218.8730940051855
 31
0.0
  0
LINE
  5
228F
330
1F
100
AcDbEntity
  8
SOLBET_Emulsje_Folie
100
AcDbLine
 10
78.58120910321327
 20
218.6230940051853
 30
0.0
 11
137.715314529461
 21
218.6230940051848
 31
0.0
  0
ARC
  5
2290
330
1F
100
AcDbEntity
  8
SOLBET_Emulsje_Folie
100
AcDbCircle
 10
78.58120910321327
 20
218.8730940051855
 30
0.0
 40
0.25
100
AcDbArc
 50
180.0
 51
270.0
  0
LWPOLYLINE
  5
2291
102
{ACAD_REACTORS
330
23C2
102
}
330
1F
100
AcDbEntity
  8
SOLBET_Tynki_Posadzki
100
AcDbPolyline
 90
        5
 70
     1
 43
0.0
 10
78.33120910322486
 20
218.8730940051855
 42
0.0737237824442244
 10
78.34196228643145
 20
218.8005615251684
 10
137.715314529461
 20
218.8005615251684
 10
137.715314529461
 20
221.3005615251684
 10
78.33120910322486
 20
221.3005615251684
1001
ASO_SCHRAFF
1005
0
1070
     1
1002
{
1070
     1
1005
0
1002
}
1002
{
1070
     2
1005
0
1002
}
1002
{
1070
     4
1000
AR-CONC
1040
0.01
1040
0.0
1070
     0
1000
T__SCHR
1070
   256
1000
_bylayer
1040
50.0
1070
     1
1002
}
  0
LINE
  5
2295
330
1F
100
AcDbEntity
  8
SOLBET_Beton
100
AcDbLine
 10
77.21838622106907
 20
203.9272546916129
 30
0.0
 11
137.715314529461
 21
203.9272546916129
 31
0.0
  0
LINE
  5
2296
330
1F
100
AcDbEntity
  8
SOLBET_Tynki_Posadzki
100
AcDbLine
 10
77.71639305354074
 20
203.4272546916134
 30
0.0
 11
77.71639305354074
 21
151.5891515125909
 31
0.0
  0
LINE
  5
2297
330
1F
100
AcDbEntity
  8
SOLBET_Tynki_Posadzki
100
AcDbLine
 10
77.71639305354074
 20
203.4272546916134
 30
0.0
 11
137.715314529461
 21
203.4272546916134
 31
0.0
  0
LINE
  5
2298
330
1F
100
AcDbEntity
  8
SOLBET_Tynki_Posadzki
100
AcDbLine
 10
77.71639305354074
 20
203.4272546916134
 30
0.0
 11
77.21838622106907
 21
203.9272546916129
 31
0.0
  0
INSERT
  5
229B
330
1F
100
AcDbEntity
  8
SOLBET_Izolacja
100
AcDbBlockReference
  2
*U5
 10
-471.8269317120457
 20
32.47835036191964
 30
0.0
 41
50.0
 42
50.0
 43
50.0
1001
ASO_SCHRAFF
1005
0
1070
     0
1005
22C9
  0
INSERT
  5
229C
330
1F
100
AcDbEntity
  8
SOLBET_Stolarka_Okna
100
AcDbBlockReference
  2
*U6
 10
-471.8269317120457
 20
32.47835036191964
 30
0.0
 41
50.0
 42
50.0
 43
50.0
1001
ASO_SCHRAFF
1005
0
1070
     0
1005
227F
  0
INSERT
  5
229D
330
1F
100
AcDbEntity
  8
SOLBET_Izolacja
100
AcDbBlockReference
  2
*U7
 10
-471.8269317120457
 20
32.47835036191964
 30
0.0
 41
50.0
 42
50.0
 43
50.0
1001
ASO_SCHRAFF
1005
0
1070
     0
1005
22C9
  0
LINE
  5
22A4
330
1F
100
AcDbEntity
  8
SOLBET_Izolacja
100
AcDbLine
 10
57.71639305355234
 20
67.17105974261676
 30
0.0
 11
57.71639305355234
 21
106.6920301046098
 31
0.0
  0
LINE
  5
22A9
330
1F
100
AcDbEntity
  8
SOLBET_Zaprawy
100
AcDbLine
 10
57.43307124702006
 20
67.17105974261676
 30
0.0
 11
57.43307124702006
 21
106.6569458897074
 31
0.0
  0
LINE
  5
22AA
330
1F
100
AcDbEntity
  8
SOLBET_Tynki_Posadzki
100
AcDbLine
 10
56.96639305354075
 20
67.17105974261676
 30
0.0
 11
56.96639305354075
 21
149.1472758980252
 31
0.0
  0
LINE
  5
22AF
330
1F
100
AcDbEntity
  8
SOLBET_Zaprawy
100
AcDbLine
 10
57.43307124702006
 20
176.9125902711198
 30
0.0
 11
57.43307124702006
 21
245.6429062922964
 31
0.0
  0
LWPOLYLINE
  5
22B0
330
1F
100
AcDbEntity
  8
SOLBET_Zbrojenie_Konstrukcja
100
AcDbPolyline
 90
        3
 70
     0
 43
0.05
 10
57.21580543134792
 20
178.0794915865945
 10
57.21580543134792
 20
176.5794915865945
 10
58.71580543133632
 20
176.5794915865945
  0
LWPOLYLINE
  5
22B1
330
1F
100
AcDbEntity
  8
SOLBET_Zbrojenie_Konstrukcja
100
AcDbPolyline
 90
        3
 70
     0
 43
0.05
 10
77.43797967973842
 20
181.1351778447074
 10
77.43797967973842
 20
179.6351778447074
 10
75.93797967973841
 20
179.6351778447074
  0
LINE
  5
22B6
330
1F
100
AcDbEntity
  8
SOLBET_Bloczki
100
AcDbLine
 10
75.26535791352126
 20
20.97579280591094
 30
0.0
 11
103.7184119117698
 21
20.97579280591094
 31
0.0
  0
LINE
  5
22B7
330
1F
100
AcDbEntity
  8
SOLBET_Wymiary_Opisy
 62
     1
100
AcDbLine
 10
75.26535791352126
 20
11.45539285396853
 30
0.0
 11
75.26535791352126
 21
49.2121273099525
 31
0.0
  0
LINE
  5
22B8
330
1F
100
AcDbEntity
  8
SOLBET_Bloczki
100
AcDbLine
 10
103.7184119117698
 20
20.97579280591094
 30
0.0
 11
103.7184119496749
 21
32.97579280591128
 31
0.0
  0
LINE
  5
22B9
330
1F
100
AcDbEntity
  8
SOLBET_Zaprawy
100
AcDbLine
 10
75.26535791352126
 20
40.75911461244402
 30
0.0
 11
106.4263300747398
 21
40.75911461244402
 31
0.0
  0
LINE
  5
22BA
330
1F
100
AcDbEntity
  8
SOLBET_Tynki_Posadzki
100
AcDbLine
 10
75.26535791352126
 20
41.22579280591094
 30
0.0
 11
106.6850944621742
 21
41.22579280591094
 31
0.0
  0
LINE
  5
22BB
330
1F
100
AcDbEntity
  8
SOLBET_Tynki_Posadzki
100
AcDbLine
 10
104.2184119117698
 20
20.47579280591128
 30
0.0
 11
104.2184119117698
 21
32.97579280591128
 31
0.0
  0
LINE
  5
22BC
330
1F
100
AcDbEntity
  8
SOLBET_Zbrojenie_Konstrukcja
100
AcDbLine
 10
104.2184119117698
 20
32.97579280591094
 30
0.0
 11
104.2184119117698
 21
29.47579280591094
 31
0.0
  0
LINE
  5
22BD
330
1F
100
AcDbEntity
  8
SOLBET_Stolarka_Okna
100
AcDbLine
 10
104.2184119117698
 20
29.47579280591094
 30
0.0
 11
107.3447326094515
 21
29.47579280591094
 31
0.0
  0
LINE
  5
22BE
330
1F
100
AcDbEntity
  8
SOLBET_Stolarka_Okna
100
AcDbLine
 10
107.3447326094515
 20
29.47579280591094
 30
0.0
 11
107.3447326094515
 21
30.5599211369165
 31
0.0
  0
LINE
  5
22BF
330
1F
100
AcDbEntity
  8
SOLBET_Stolarka_Okna
100
AcDbLine
 10
107.3447326094515
 20
30.5599211369165
 30
0.0
 11
108.2168000303811
 21
30.5599211369165
 31
0.0
  0
LINE
  5
22C0
330
1F
100
AcDbEntity
  8
SOLBET_Stolarka_Okna
100
AcDbLine
 10
108.2168000303811
 20
30.5599211369165
 30
0.0
 11
108.2168000303811
 21
31.63364253139377
 31
0.0
  0
LINE
  5
22C1
330
1F
100
AcDbEntity
  8
SOLBET_Stolarka_Okna
100
AcDbLine
 10
108.2168000303811
 20
31.63364253139377
 30
0.0
 11
109.1676783274181
 21
31.63364253139377
 31
0.0
  0
LINE
  5
22C2
330
1F
100
AcDbEntity
  8
SOLBET_Zbrojenie_Konstrukcja
100
AcDbLine
 10
109.1676783274181
 20
31.63364253139377
 30
0.0
 11
109.1676783274181
 21
31.97931045565201
 31
0.0
  0
LINE
  5
22C3
330
1F
100
AcDbEntity
  8
SOLBET_Stolarka_Okna
100
AcDbLine
 10
109.1676783274181
 20
31.97931045565201
 30
0.0
 11
108.9490441821187
 21
32.97579280591128
 31
0.0
  0
LINE
  5
22C4
330
1F
100
AcDbEntity
  8
SOLBET_Stolarka_Okna
100
AcDbLine
 10
108.9490441821187
 20
32.97579280591128
 30
0.0
 11
104.2184119117698
 21
32.97579280591094
 31
0.0
  0
LWPOLYLINE
  5
22C5
330
1F
100
AcDbEntity
  8
SOLBET_Stolarka_Okna
100
AcDbPolyline
 90
        4
 70
     1
 43
0.0
 10
112.2422278504257
 20
29.89486227946691
 10
111.8931794745867
 20
28.5330565397835
 10
111.0408236859969
 20
28.5330565397835
 10
111.0408236859969
 20
29.89486227946691
  0
LWPOLYLINE
  5
22C6
330
1F
100
AcDbEntity
  8
SOLBET_Stolarka_Okna
100
AcDbPolyline
 90
       15
 70
     1
 43
0.0
 10
109.9835976901367
 20
31.63364253139377
 10
109.2788561373154
 20
31.63364253139412
 10
109.2788561373154
 20
32.97579280591094
 10
112.0826281714971
 20
32.97579280591094
 10
112.5197065388804
 20
31.71550505701896
 10
110.9488918665001
 20
31.71550505701896
 10
110.9488918665001
 20
30.07311647512222
 10
110.9488918665001
 20
28.5330565397835
 10
107.0522828358596
 20
28.5330565397835
 10
107.0522828358596
 20
29.22784727440853
 10
109.2788561373154
 20
29.22784727440853
 10
109.2788561373154
 20
30.39264212379385
 10
108.5434749611092
 20
30.39264212379385
 10
108.5434749611092
 20
31.25091118834905
 10
109.9835976901367
 20
31.25091118834905
  0
CIRCLE
  5
22CA
330
1F
100
AcDbEntity
  8
SOLBET_Izolacja
100
AcDbCircle
 10
103.9708553726457
 20
29.86782158417123
 30
0.0
 40
0.25244346087405
  0
ARC
  5
22CB
330
1F
100
AcDbEntity
  8
SOLBET_Izolacja
100
AcDbCircle
 10
103.9654367850996
 20
29.15704763674262
 30
0.0
 40
0.4069335296814501
100
AcDbArc
 50
51.5623929962403
 51
127.3757720391972
  0
LINE
  5
22CC
330
1F
100
AcDbEntity
  8
SOLBET_Wymiary_Opisy
 62
     1
100
AcDbLine
 10
123.9482952223645
 20
11.45539285396853
 30
0.0
 11
123.9482952223645
 21
49.2121273099525
 31
0.0
  0
LINE
  5
22CD
330
1F
100
AcDbEntity
  8
SOLBET_Stolarka_Okna
100
AcDbLine
 10
123.9482952223645
 20
31.51756676923913
 30
0.0
 11
111.1549931161009
 21
31.51756676923913
 31
0.0
  0
LINE
  5
22CE
330
1F
100
AcDbEntity
  8
SOLBET_Stolarka_Okna
100
AcDbLine
 10
123.9482952223645
 20
30.05949076207981
 30
0.0
 11
111.1549931161009
 21
30.05949076207981
 31
0.0
  0
LWPOLYLINE
  5
22CF
330
1F
100
AcDbEntity
  8
SOLBET_Zbrojenie_Konstrukcja
100
AcDbPolyline
 90
        3
 70
     0
 43
0.05
 10
103.9399985379675
 20
22.18371595900544
 10
103.9399985379675
 20
20.68371595900544
 10
102.4399985379675
 20
20.68371595900544
  0
LWPOLYLINE
  5
22D0
330
1F
100
AcDbEntity
  8
SOLBET_Zbrojenie_Konstrukcja
100
AcDbPolyline
 90
        3
 70
     0
 43
0.05
 10
106.4263300747398
 20
39.5026574357297
 10
106.4263300747398
 20
41.0026574357297
 10
104.9263300747398
 20
41.0026574357297
  0
LINE
  5
22D1
330
1F
100
AcDbEntity
  8
SOLBET_Izolacja
100
AcDbLine
 10
75.26535791352126
 20
32.97579280591128
 30
0.0
 11
106.1850944659577
 21
32.97579280591128
 31
0.0
  0
LINE
  5
22D2
330
1F
100
AcDbEntity
  8
SOLBET_Izolacja
100
AcDbLine
 10
75.26535791352126
 20
40.47579280591094
 30
0.0
 11
106.1850944659577
 21
40.47579280591094
 31
0.0
  0
LINE
  5
22D4
330
1F
100
AcDbEntity
  8
SOLBET_Izolacja
100
AcDbLine
 10
106.1850944659577
 20
40.47579280591094
 30
0.0
 11
106.1850945038625
 21
32.97579280591128
 31
0.0
  0
INSERT
  5
22D5
330
1F
100
AcDbEntity
  8
SOLBET_Emulsje_Folie
100
AcDbBlockReference
  2
*U8
 10
-467.4008351241684
 20
-0.7133259680649644
 30
0.0
 41
50.0
 42
50.0
 43
50.0
1001
ASO_SCHRAFF
1005
22D5
1070
     0
1005
22C9
  0
LINE
  5
22D6
330
1F
100
AcDbEntity
  8
SOLBET_Tynki_Posadzki
100
AcDbLine
 10
106.6850944621742
 20
41.22579280591094
 30
0.0
 11
106.6850945038625
 21
32.9757928084382
 31
0.0
  0
LINE
  5
22DE
330
1F
100
AcDbEntity
  8
SOLBET_Stolarka_Okna
100
AcDbLine
 10
65.21639305354074
 20
171.5630384318831
 30
0.0
 11
65.21639305354074
 21
151.5891515125909
 31
0.0
  0
LINE
  5
22DF
330
1F
100
AcDbEntity
  8
SOLBET_Stolarka_Okna
100
AcDbLine
 10
69.659129319675
 20
171.7524871287895
 30
0.0
 11
69.659129319675
 21
151.5891515125909
 31
0.0
  0
LINE
  5
22E0
330
1F
100
AcDbEntity
  8
SOLBET_Stolarka_Okna
100
AcDbLine
 10
69.659129319675
 20
149.1472758980252
 30
0.0
 11
69.659129319675
 21
114.1020222544363
 31
0.0
  0
LINE
  5
22E1
330
1F
100
AcDbEntity
  8
SOLBET_Stolarka_Okna
100
AcDbLine
 10
65.21639305354074
 20
149.1472758980252
 30
0.0
 11
65.21639305354074
 21
114.2914709513427
 31
0.0
  0
LINE
  5
22E2
330
1F
100
AcDbEntity
  8
SOLBET_Stolarka_Okna
100
AcDbLine
 10
112.0826281714971
 20
32.97579280591094
 30
0.0
 11
123.9482952223645
 21
32.97579280591094
 31
0.0
  0
LINE
  5
22E3
330
1F
100
AcDbEntity
  8
SOLBET_Stolarka_Okna
100
AcDbLine
 10
111.8931794745867
 20
28.5330565397835
 30
0.0
 11
123.9482952223645
 21
28.5330565397835
 31
0.0
  0
LINE
  5
22E4
330
1F
100
AcDbEntity
  8
SOLBET_Tynki_Posadzki
  6
VERDECKT
100
AcDbLine
 10
123.9482952223645
 20
20.47579280591128
 30
0.0
 11
104.2184119117698
 21
20.47579280591128
 31
0.0
  0
LINE
  5
22E5
330
1F
100
AcDbEntity
  8
SOLBET_Stolarka_Okna
100
AcDbLine
 10
123.9482952223645
 20
15.47579280591094
 30
0.0
 11
99.21841191176987
 21
15.47579280591094
 31
0.0
  0
LINE
  5
22E6
330
1F
100
AcDbEntity
  8
SOLBET_Stolarka_Okna
  6
VERDECKT
100
AcDbLine
 10
99.21841191176987
 20
29.47579280591094
 30
0.0
 11
99.21841191176987
 21
20.47579280591128
 31
0.0
  0
LINE
  5
22E7
330
1F
100
AcDbEntity
  8
SOLBET_Stolarka_Okna
  6
VERDECKT
100
AcDbLine
 10
99.21841191176987
 20
29.47579280591094
 30
0.0
 11
103.7184119117698
 21
29.48042606758327
 31
0.0
  0
LINE
  5
22E8
330
1F
100
AcDbEntity
  8
SOLBET_Tynki_Posadzki
100
AcDbLine
 10
104.2184119117698
 20
20.47579280591128
 30
0.0
 11
75.26535791352126
 21
20.47579280591128
 31
0.0
  0
LINE
  5
22E9
330
1F
100
AcDbEntity
  8
SOLBET_Stolarka_Okna
100
AcDbLine
 10
99.21841191176987
 20
20.47579280591128
 30
0.0
 11
99.21841191176987
 21
15.47579280591094
 31
0.0
  0
LINE
  5
22EF
330
1F
100
AcDbEntity
  8
SOLBET_Stolarka_Okna
  6
VERDECKT
100
AcDbLine
 10
102.0514451696674
 20
32.97579280591094
 30
0.0
 11
102.0514451696674
 21
41.22579280591094
 31
0.0
  0
LINE
  5
22F0
330
1F
100
AcDbEntity
  8
SOLBET_Stolarka_Okna
100
AcDbLine
 10
102.0514451696674
 20
44.32788542833373
 30
0.0
 11
123.9482952223645
 21
44.32788542833373
 31
0.0
  0
LINE
  5
22F1
330
1F
100
AcDbEntity
  8
SOLBET_Stolarka_Okna
  6
VERDECKT
100
AcDbLine
 10
104.2184119117698
 20
32.97579280591094
 30
0.0
 11
102.0514451696674
 21
32.97579280591094
 31
0.0
  0
LINE
  5
22F2
330
1F
100
AcDbEntity
  8
SOLBET_Tynki_Posadzki
  6
VERDECKT
100
AcDbLine
 10
106.6850944621742
 20
41.22579280591094
 30
0.0
 11
123.9482952147743
 21
41.22579280591094
 31
0.0
  0
LINE
  5
22F3
330
1F
100
AcDbEntity
  8
SOLBET_Stolarka_Okna
100
AcDbLine
 10
102.0514451696674
 20
41.22579280591094
 30
0.0
 11
102.0514451696674
 21
44.32788542833373
 31
0.0
  0
LWPOLYLINE
  5
2314
330
1F
100
AcDbEntity
  8
SOLBET_Ramka_05
100
AcDbPolyline
 90
        4
 70
     1
 43
0.0
 10
0.0
 20
0.0
 10
334.35177409209
 20
0.0
 10
334.35177409209
 20
297.0
 10
0.0
 20
297.0
  0
MTEXT
  5
2315
102
{ACAD_XDICTIONARY
360
2316
102
}
330
1F
100
AcDbEntity
  8
SOLBET_Wymiary_Opisy @ 1
100
AcDbMText
 10
15.4815791241806
 20
289.8967110907779
 30
0.0
 40
5.0
 41
124.2624847080697
 71
     1
 72
     5
  1
{\LDETAL 11\P}Spos\U+00F3b zamocowania stolarki w \U+015Bcianie z dociepleniem
  7
Solbet_5
 73
     1
 44
1.0
1001
AcadAnnotative
1000
AnnotativeData
1002
{
1070
     1
1070
     0
1002
}
1001
ACAD
1000
MTEXTBEGIN
1070
    73
1070
     1
1070
    44
1040
1.0
1070
    74
1070
     0
1000
MTEXTEND
  0
LWPOLYLINE
  5
2376
330
1F
100
AcDbEntity
  8
SOLBET_Bloczki
100
AcDbPolyline
 90
        5
 70
     1
 43
0.0
 10
77.21639305354074
 20
245.6429062922962
 10
65.21639358078619
 20
245.6429062922962
 10
65.21639358078619
 20
239.9272546798489
 10
77.21639358078618
 20
239.9272546798489
 10
77.21639358078618
 20
245.6429062922961
  0
LWPOLYLINE
  5
2390
330
1F
100
AcDbEntity
  8
SOLBET_Bloczki
100
AcDbPolyline
 90
        4
 70
     1
 43
0.0
 10
65.21639305354074
 20
67.17105974261676
 10
77.21639305354074
 20
67.17105974261676
 10
77.21639287779225
 20
74.92725465042553
 10
65.21639287779226
 20
74.92725465042553
  0
HATCH
  5
23C2
330
1F
100
AcDbEntity
  8
SOLBET_Tynki_Posadzki
100
AcDbHatch
 10
0.0
 20
0.0
 30
0.0
210
0.0
220
0.0
230
1.0
  2
AR-CONC
 70
     0
 71
     1
 91
        1
 92
        1
 93
        5
 72
     2
 10
78.58120910322196
 20
218.8730940051629
 40
0.249999999997101
 50
179.9999999948215
 51
196.8657343009635
 73
     1
 72
     1
 10
78.34196228643145
 20
218.8005615251684
 11
137.715314529461
 21
218.8005615251684
 72
     1
 10
137.715314529461
 20
218.8005615251684
 11
137.715314529461
 21
221.3005615251684
 72
     1
 10
137.715314529461
 20
221.3005615251684
 11
78.33120910322486
 21
221.3005615251684
 72
     1
 10
78.33120910322486
 20
221.3005615251684
 11
78.33120910322486
 21
218.8730940051855
 97
        1
330
2291
 75
     0
 76
     1
 52
0.0
 41
0.05
 77
     0
 78
    13
 53
50.0
 43
842.8016758915664
 44
-22.03293141806034
 45
9.1092334498002
 46
-0.7969542769451543
 79
     2
 49
0.9525000000000002
 49
-10.4775
 53
355.0
 43
842.8016758915664
 44
-22.03293141806034
 45
-1.762141298783349
 46
9.552832144108998
 79
     2
 49
0.762
 49
-8.381999999999999
 53
100.451
 43
843.5607758915663
 44
-22.09934391806034
 45
7.347125083297962
 46
8.755834391014593
 79
     2
 49
0.8095
 49
-8.9045
 53
46.1842
 43
842.8016758915664
 44
-19.49293141806034
 45
13.5539520446065
 46
-2.102116396636357
 79
     2
 49
1.428749999999999
 49
-15.71625
 53
96.6356
 43
843.9311708915663
 44
-19.66810641806034
 45
11.87021172331186
 46
12.37127779450246
 79
     2
 49
1.21425
 49
-13.35675
 53
351.184
 43
842.8016758915664
 44
-19.49293141806034
 45
11.87023029069669
 46
12.37125589302988
 79
     2
 49
1.143
 49
-12.573
 53
21.0
 43
844.0716758915664
 44
-20.12793141806034
 45
7.580743991769164
 46
-5.113275925838125
 79
     2
 49
0.9525000000000002
 49
-10.4775
 53
326.0
 43
844.0716758915664
 44
-20.12793141806034
 45
3.090101417382353
 46
9.209398306115962
 79
     2
 49
0.762
 49
-8.381999999999999
 53
71.45140000000001
 43
844.7034008915663
 44
-20.55403641806034
 45
10.67082453850622
 46
4.096142885802872
 79
     2
 49
0.8095
 49
-8.9045
 53
37.5
 43
842.8016758915664
 44
-22.03293141806034
 45
0.1544301625295909
 46
4.227751943657655
 79
     6
 49
0.0
 49
-8.2804
 49
0.0
 49
-8.509
 49
0.0
 49
-8.41375
 53
7.499999999999999
 43
842.8016758915664
 44
-22.03293141806034
 45
3.340983125515287
 46
5.009028740905975
 79
     6
 49
0.0
 49
-4.851399999999999
 49
0.0
 49
-8.0899
 49
0.0
 49
-3.20675
 53
327.5
 43
839.9695758915665
 44
-22.03293141806034
 45
6.77952975834357
 46
-0.2864371996336729
 79
     6
 49
0.0
 49
-3.175
 49
0.0
 49
-9.906
 49
0.0
 49
-13.1445
 53
317.5
 43
838.6995758915663
 44
-22.03293141806034
 45
7.406459069300902
 46
1.27132455166665
 79
     6
 49
0.0
 49
-4.1275
 49
0.0
 49
-6.5786
 49
0.0
 49
-9.3345
 98
        1
 10
842.8016758915664
 20
-22.03293141806034
1001
ACAD
1010
0.0
1020
0.0
1030
0.0
  0
LINE
  5
23C3
330
1F
100
AcDbEntity
  8
SOLBET_Izolacja
100
AcDbLine
 10
77.21639322928922
 20
221.3005615251684
 30
0.0
 11
77.21639322928922
 21
215.9272546504259
 31
0.0
  0
LINE
  5
23C4
330
1F
100
AcDbEntity
  8
SOLBET_Izolacja
100
AcDbLine
 10
77.21639322928922
 20
215.9272546504259
 30
0.0
 11
137.7153145416148
 21
215.9272547063247
 31
0.0
  0
LINE
  5
23C5
330
1F
100
AcDbEntity
  8
SOLBET_Izolacja
100
AcDbLine
 10
137.7153145416148
 20
215.9272547063247
 30
0.0
 11
137.715314529461
 21
218.4272546916129
 31
0.0
  0
LINE
  5
23C6
330
1F
100
AcDbEntity
  8
SOLBET_Izolacja
  6
BATTING
 48
0.049
100
AcDbLine
 10
77.71639305354074
 20
221.3005615251684
 30
0.0
 11
77.71639305354074
 21
215.9272546916134
 31
0.0
  0
LINE
  5
23C7
330
1F
100
AcDbEntity
  8
SOLBET_Izolacja
  6
BATTING
 48
0.12
100
AcDbLine
 10
137.7153145355379
 20
217.1772546989688
 30
0.0
 11
78.21639305354074
 21
217.1772546989688
 31
0.0
  0
LINE
  5
23D8
330
1F
100
AcDbEntity
  8
SOLBET_Izolacja
100
AcDbLine
 10
57.71639305355234
 20
245.6429062922964
 30
0.0
 11
57.71639305355234
 21
176.9125902711198
 31
0.0
  0
LINE
  5
23D9
330
1F
100
AcDbEntity
  8
SOLBET_Izolacja
100
AcDbLine
 10
57.71639305355234
 20
176.9125902711198
 30
0.0
 11
65.21639305354074
 21
176.9125902711198
 31
0.0
  0
LINE
  5
23DA
330
1F
100
AcDbEntity
  8
SOLBET_Izolacja
100
AcDbLine
 10
65.21639305354074
 20
176.9125902711198
 30
0.0
 11
65.21639358078619
 21
245.6429062922962
 31
0.0
  0
LINE
  5
23DB
330
1F
100
AcDbEntity
  8
SOLBET_Izolacja
100
AcDbLine
 10
65.21639358078619
 20
245.6429062922962
 30
0.0
 11
57.71639305355234
 21
245.6429062922964
 31
0.0
  0
LINE
  5
23DC
330
1F
100
AcDbEntity
  8
SOLBET_Izolacja
100
AcDbLine
 10
57.71639305355234
 20
245.6429062922964
 30
0.0
 11
57.71639305355234
 21
176.9125902711198
 31
0.0
  0
LINE
  5
23DD
330
1F
100
AcDbEntity
  8
SOLBET_Izolacja
  6
BATTING
 48
0.37
100
AcDbLine
 10
61.46639331716915
 20
245.6429062922963
 30
0.0
 11
61.46639305354666
 21
176.9125902711198
 31
0.0
  0
LINE
  5
23DF
330
1F
100
AcDbEntity
  8
SOLBET_Izolacja
100
AcDbLine
 10
57.77706314673151
 20
106.0155017129424
 30
0.0
 11
57.71639305355257
 21
106.0155017129424
 31
0.0
  0
LINE
  5
23E0
330
1F
100
AcDbEntity
  8
SOLBET_Izolacja
100
AcDbLine
 10
57.71639305355257
 20
106.0155017129424
 30
0.0
 11
57.71639305354643
 21
67.17105970460598
 31
0.0
  0
LINE
  5
23E1
330
1F
100
AcDbEntity
  8
SOLBET_Izolacja
100
AcDbLine
 10
57.71639305354643
 20
67.17105970460598
 30
0.0
 11
65.21639305354074
 21
67.17105838654815
 31
0.0
  0
LINE
  5
23E2
330
1F
100
AcDbEntity
  8
SOLBET_Izolacja
100
AcDbLine
 10
65.21639305354074
 20
67.17105838654815
 30
0.0
 11
65.21639305354074
 21
106.0157854716378
 31
0.0
  0
LINE
  5
23E3
330
1F
100
AcDbEntity
  8
SOLBET_Izolacja
100
AcDbLine
 10
65.21639305354074
 20
106.0157854716378
 30
0.0
 11
57.71639305355257
 21
106.0155017129424
 31
0.0
  0
LINE
  5
23E4
330
1F
100
AcDbEntity
  8
SOLBET_Izolacja
  6
BATTING
 48
0.37
100
AcDbLine
 10
61.46639305354348
 20
67.17105904557707
 30
0.0
 11
61.46639305354348
 21
106.0155017129424
 31
0.0
  0
LINE
  5
23F5
330
1F
100
AcDbEntity
  8
SOLBET_Beton
100
AcDbLine
 10
75.95206526681749
 20
205.9272546916129
 30
0.0
 11
75.95206526681749
 21
214.4272546916133
 31
0.0
  0
LINE
  5
23F6
330
1F
100
AcDbEntity
  8
SOLBET_Beton
100
AcDbLine
 10
75.95206526681749
 20
214.4272546916133
 30
0.0
 11
137.7153145397917
 21
214.4272546165474
 31
0.0
  0
LINE
  5
23F7
330
1F
100
AcDbEntity
  8
SOLBET_Beton
100
AcDbLine
 10
137.7153145397917
 20
214.4272546165474
 30
0.0
 11
137.7153145397917
 21
205.9272547063247
 31
0.0
  0
LINE
  5
23F8
330
1F
100
AcDbEntity
  8
SOLBET_Beton
100
AcDbLine
 10
137.7153145397917
 20
205.9272547063247
 30
0.0
 11
75.95206526681749
 21
205.9272546916129
 31
0.0
  0
LINE
  5
23F9
330
1F
100
AcDbEntity
  8
SOLBET_Beton
100
AcDbLine
 10
75.95206526681749
 20
209.4272546916134
 30
0.0
 11
137.7173076969777
 21
209.4272546916129
 31
0.0
  0
LINE
  5
23FA
330
1F
100
AcDbEntity
  8
SOLBET_Beton
100
AcDbLine
 10
87.9520652668175
 20
214.4272546770287
 30
0.0
 11
87.9520652668175
 21
205.9272547063247
 31
0.0
  0
LINE
  5
23FB
330
1F
100
AcDbEntity
  8
SOLBET_Beton
100
AcDbLine
 10
99.9520652668175
 20
214.4272546624441
 30
0.0
 11
99.9520652668175
 21
205.9272547063247
 31
0.0
  0
LINE
  5
23FC
330
1F
100
AcDbEntity
  8
SOLBET_Beton
100
AcDbLine
 10
111.9520652668175
 20
214.4272546478596
 30
0.0
 11
111.9520652668175
 21
205.9272547063247
 31
0.0
  0
LINE
  5
23FD
330
1F
100
AcDbEntity
  8
SOLBET_Beton
100
AcDbLine
 10
123.9520652668175
 20
214.427254633275
 30
0.0
 11
123.952065268842
 21
205.9272547030463
 31
0.0
  0
LINE
  5
23FE
330
1F
100
AcDbEntity
  8
SOLBET_Beton
100
AcDbLine
 10
135.9520652668175
 20
214.4272546916134
 30
0.0
 11
135.9520652668175
 21
205.9272547063247
 31
0.0
  0
LINE
  5
23FF
330
1F
100
AcDbEntity
  8
SOLBET_Zbrojenie_Konstrukcja
100
AcDbLine
 10
134.7163930535523
 20
212.427254691613
 30
0.0
 11
137.7153145294576
 21
206.8042769242906
 31
0.0
  0
LINE
  5
2400
330
1F
100
AcDbEntity
  8
SOLBET_Zbrojenie_Konstrukcja
100
AcDbLine
 10
131.2497263868854
 20
205.9272546916129
 30
0.0
 11
134.7163930535523
 21
212.427254691613
 31
0.0
  0
LINE
  5
2402
330
1F
100
AcDbEntity
  8
SOLBET_Zbrojenie_Konstrukcja
100
AcDbLine
 10
107.2497263868854
 20
205.9272546916129
 30
0.0
 11
110.7163930535523
 21
212.427254691613
 31
0.0
  0
LINE
  5
2403
330
1F
100
AcDbEntity
  8
SOLBET_Zbrojenie_Konstrukcja
100
AcDbLine
 10
115.2497263868854
 20
205.9272546916129
 30
0.0
 11
118.7163930535521
 21
212.427254691613
 31
0.0
  0
LINE
  5
2404
330
1F
100
AcDbEntity
  8
SOLBET_Zbrojenie_Konstrukcja
100
AcDbLine
 10
123.2497263868854
 20
205.9272546916129
 30
0.0
 11
126.7163930535521
 21
212.427254691613
 31
0.0
  0
LINE
  5
2405
330
1F
100
AcDbEntity
  8
SOLBET_Zbrojenie_Konstrukcja
100
AcDbLine
 10
99.24972638688542
 20
205.9272546916129
 30
0.0
 11
102.7163930535523
 21
212.427254691613
 31
0.0
  0
LINE
  5
2406
330
1F
100
AcDbEntity
  8
SOLBET_Zbrojenie_Konstrukcja
100
AcDbLine
 10
91.24972638688541
 20
205.9272546916129
 30
0.0
 11
94.71639305355234
 21
212.427254691613
 31
0.0
  0
LINE
  5
2407
330
1F
100
AcDbEntity
  8
SOLBET_Zbrojenie_Konstrukcja
100
AcDbLine
 10
83.2497263868854
 20
205.9272546916129
 30
0.0
 11
86.71639305355233
 21
212.427254691613
 31
0.0
  0
LINE
  5
2408
330
1F
100
AcDbEntity
  8
SOLBET_Zbrojenie_Konstrukcja
100
AcDbLine
 10
75.24972638688564
 20
205.9272546916129
 30
0.0
 11
78.71639305355234
 21
212.427254691613
 31
0.0
  0
LINE
  5
2409
330
1F
100
AcDbEntity
  8
SOLBET_Zbrojenie_Konstrukcja
100
AcDbLine
 10
78.71639305355234
 20
212.427254691613
 30
0.0
 11
82.1830597202188
 21
205.9272546916129
 31
0.0
  0
LINE
  5
240A
330
1F
100
AcDbEntity
  8
SOLBET_Zbrojenie_Konstrukcja
100
AcDbLine
 10
86.71639305355233
 20
212.427254691613
 30
0.0
 11
90.18305972021881
 21
205.9272546916129
 31
0.0
  0
LINE
  5
240B
330
1F
100
AcDbEntity
  8
SOLBET_Zbrojenie_Konstrukcja
100
AcDbLine
 10
94.71639305355234
 20
212.427254691613
 30
0.0
 11
98.18305972021926
 21
205.9272546916129
 31
0.0
  0
LINE
  5
240C
330
1F
100
AcDbEntity
  8
SOLBET_Zbrojenie_Konstrukcja
100
AcDbLine
 10
102.7163930535523
 20
212.427254691613
 30
0.0
 11
106.1830597202192
 21
205.9272546916129
 31
0.0
  0
LINE
  5
240D
330
1F
100
AcDbEntity
  8
SOLBET_Zbrojenie_Konstrukcja
  6
Continuous
100
AcDbLine
 10
137.7153145294576
 20
212.4272546916131
 30
0.0
 11
73.21639305355233
 21
212.4272546916128
 31
0.0
  0
LINE
  5
240E
330
1F
100
AcDbEntity
  8
SOLBET_Zbrojenie_Konstrukcja
100
AcDbLine
 10
126.7163930535521
 20
212.427254691613
 30
0.0
 11
130.183059720219
 21
205.9272546916129
 31
0.0
  0
LINE
  5
240F
330
1F
100
AcDbEntity
  8
SOLBET_Zbrojenie_Konstrukcja
100
AcDbLine
 10
118.7163930535521
 20
212.427254691613
 30
0.0
 11
122.183059720219
 21
205.9272546916129
 31
0.0
  0
LINE
  5
2410
330
1F
100
AcDbEntity
  8
SOLBET_Zbrojenie_Konstrukcja
100
AcDbLine
 10
110.7163930535523
 20
212.427254691613
 30
0.0
 11
114.183059720219
 21
205.9272546916129
 31
0.0
  0
INSERT
  5
2414
330
1F
100
AcDbEntity
  8
SOLBET_Beton
100
AcDbBlockReference
  2
*X3
 10
-496.4845228274043
 20
-252.0940863628142
 30
0.0
 41
50.0
 42
50.0
 43
50.0
1001
ASO_SCHRAFF
1005
0
1070
     0
1005
0
1001
ACAD
1000
HATCH
1002
{
1070
    16
1000
NET
1040
0.25
1040
0.7853981633974483
1002
}
  0
LINE
  5
243C
330
1F
100
AcDbEntity
  8
SOLBET_Izolacja
100
AcDbLine
 10
58.51406085004306
 20
106.7386323667578
 30
0.0
 11
58.51408820818279
 21
106.0155318933339
 31
0.0
  0
LINE
  5
243D
330
1F
100
AcDbEntity
  8
SOLBET_Izolacja
100
AcDbLine
 10
65.11237773333869
 20
106.0155017129424
 30
0.0
 11
65.11237773333869
 21
107.6051012695161
 31
0.0
  0
LINE
  5
2450
330
1F
100
AcDbEntity
  8
SOLBET_Izolacja
  6
BATTING
 48
0.36
100
AcDbLine
 10
106.18509448491
 20
36.72579280591111
 30
0.0
 11
75.26535791352102
 21
36.72579280591111
 31
0.0
  0
LINE
  5
2476
330
1F
100
AcDbEntity
  8
SOLBET_Beton
100
AcDbLine
 10
73.21639305355233
 20
203.9272547063249
 30
0.0
 11
73.21639305355233
 21
205.9272547063247
 31
0.0
  0
LINE
  5
2477
330
1F
100
AcDbEntity
  8
SOLBET_Beton
100
AcDbLine
 10
73.21639305355233
 20
205.9272547063247
 30
0.0
 11
137.715314529461
 21
205.9272547063247
 31
0.0
  0
LWPOLYLINE
  5
247B
330
1F
100
AcDbEntity
  8
SOLBET_Bloczki
100
AcDbPolyline
 90
        5
 70
     0
 43
0.0
 10
65.21639322928923
 20
98.92725465042564
 10
65.21639305354074
 20
105.9272546916129
 10
77.21639305354074
 20
105.9272546916129
 10
77.21639322928922
 20
98.92725465042564
 10
65.21639322928923
 20
98.92725469161302
  0
INSERT
  5
247E
330
1F
100
AcDbEntity
  8
SOLBET_Izolacja
  6
Continuous
100
AcDbBlockReference
  2
ASOWDBLK
 10
58.51406085004624
 20
106.0155017129428
 30
0.0
 41
0.7331463203659041
 42
0.7441111111111028
 43
0.733146320366
  0
INSERT
  5
247F
330
1F
100
AcDbEntity
  8
SOLBET_Izolacja
  6
Continuous
100
AcDbBlockReference
  2
ASOWDBLK
 10
58.88063401022919
 20
106.0155017129428
 30
0.0
 41
0.7331463203659041
 42
0.7918888888888987
 43
0.733146320366
  0
INSERT
  5
2480
330
1F
100
AcDbEntity
  8
SOLBET_Izolacja
  6
Continuous
100
AcDbBlockReference
  2
ASOWDBLK
 10
59.24720717041237
 20
106.0155017129428
 30
0.0
 41
0.7331463203659041
 42
0.8396666666666519
 43
0.733146320366
  0
INSERT
  5
2481
330
1F
100
AcDbEntity
  8
SOLBET_Izolacja
  6
Continuous
100
AcDbBlockReference
  2
ASOWDBLK
 10
59.61378033059555
 20
106.0155017129428
 30
0.0
 41
0.7331463203659041
 42
0.8874444444444478
 43
0.733146320366
  0
INSERT
  5
2482
330
1F
100
AcDbEntity
  8
SOLBET_Izolacja
  6
Continuous
100
AcDbBlockReference
  2
ASOWDBLK
 10
59.98035349077827
 20
106.0155017129428
 30
0.0
 41
0.7331463203659041
 42
0.935222222222201
 43
0.733146320366
  0
INSERT
  5
2483
330
1F
100
AcDbEntity
  8
SOLBET_Izolacja
  6
Continuous
100
AcDbBlockReference
  2
ASOWDBLK
 10
60.34692665096145
 20
106.0155017129428
 30
0.0
 41
0.7331463203659041
 42
0.9829999999999969
 43
0.733146320366
  0
INSERT
  5
2484
330
1F
100
AcDbEntity
  8
SOLBET_Izolacja
  6
Continuous
100
AcDbBlockReference
  2
ASOWDBLK
 10
60.71349981114464
 20
106.0155017129428
 30
0.0
 41
0.7331463203659041
 42
1.030777777777799
 43
0.733146320366
  0
INSERT
  5
2485
330
1F
100
AcDbEntity
  8
SOLBET_Izolacja
  6
Continuous
100
AcDbBlockReference
  2
ASOWDBLK
 10
61.08007297132759
 20
106.0155017129428
 30
0.0
 41
0.7331463203659041
 42
1.078555555555553
 43
0.733146320366
  0
INSERT
  5
2486
330
1F
100
AcDbEntity
  8
SOLBET_Izolacja
  6
Continuous
100
AcDbBlockReference
  2
ASOWDBLK
 10
61.44664613151054
 20
106.0155017129428
 30
0.0
 41
0.7331463203659041
 42
1.126333333333349
 43
0.733146320366
  0
INSERT
  5
2487
330
1F
100
AcDbEntity
  8
SOLBET_Izolacja
  6
Continuous
100
AcDbBlockReference
  2
ASOWDBLK
 10
61.81321929169372
 20
106.0155017129428
 30
0.0
 41
0.7331463203659041
 42
1.174111111111102
 43
0.733146320366
  0
INSERT
  5
2488
330
1F
100
AcDbEntity
  8
SOLBET_Izolacja
  6
Continuous
100
AcDbBlockReference
  2
ASOWDBLK
 10
62.17979245187667
 20
106.0155017129428
 30
0.0
 41
0.7331463203659041
 42
1.221888888888898
 43
0.733146320366
  0
INSERT
  5
2489
330
1F
100
AcDbEntity
  8
SOLBET_Izolacja
  6
Continuous
100
AcDbBlockReference
  2
ASOWDBLK
 10
62.54636561205963
 20
106.0155017129428
 30
0.0
 41
0.7331463203659041
 42
1.269666666666651
 43
0.733146320366
  0
INSERT
  5
248A
330
1F
100
AcDbEntity
  8
SOLBET_Izolacja
  6
Continuous
100
AcDbBlockReference
  2
ASOWDBLK
 10
62.9129387722428
 20
106.0155017129428
 30
0.0
 41
0.7331463203659041
 42
1.317444444444447
 43
0.733146320366
  0
INSERT
  5
248B
330
1F
100
AcDbEntity
  8
SOLBET_Izolacja
  6
Continuous
100
AcDbBlockReference
  2
ASOWDBLK
 10
63.27951193242598
 20
106.0155017129428
 30
0.0
 41
0.7331463203659041
 42
1.3652222222222
 43
0.733146320366
  0
INSERT
  5
248C
330
1F
100
AcDbEntity
  8
SOLBET_Izolacja
  6
Continuous
100
AcDbBlockReference
  2
ASOWDBLK
 10
63.64608509260893
 20
106.0155017129428
 30
0.0
 41
0.7331463203659041
 42
1.412999999999996
 43
0.733146320366
  0
INSERT
  5
248D
330
1F
100
AcDbEntity
  8
SOLBET_Izolacja
  6
Continuous
100
AcDbBlockReference
  2
ASOWDBLK
 10
64.01265825279188
 20
106.0155017129428
 30
0.0
 41
0.7331463203659041
 42
1.460777777777799
 43
0.733146320366
  0
INSERT
  5
248E
330
1F
100
AcDbEntity
  8
SOLBET_Izolacja
  6
Continuous
100
AcDbBlockReference
  2
ASOWDBLK
 10
64.37923141297506
 20
106.0155017129428
 30
0.0
 41
0.7331463203659041
 42
1.508555555555552
 43
0.733146320366
  0
INSERT
  5
248F
330
1F
100
AcDbEntity
  8
SOLBET_Izolacja
  6
Continuous
100
AcDbBlockReference
  2
ASOWDBLK
 10
64.74580457315801
 20
106.0155017129428
 30
0.0
 41
0.7331463203659041
 42
1.556333333333348
 43
0.733146320366
  0
LEADER
  5
24A0
330
1F
100
AcDbEntity
  8
SOLBET_Wymiary_Opisy
100
AcDbLeader
  3
Solbet$7
 73
     0
 74
     0
 75
     1
 40
3.25
 41
27.75
 76
     3
 10
70.5077158107415
 20
212.0941115611635
 30
0.0
 10
101.6681365647309
 20
256.0761154418346
 30
0.0
 10
104.1681365647309
 20
256.0761154418346
 30
0.0
340
24A1
213
1.177601578005123
223
-0.1753245211093599
233
0.0
1001
ACAD
1000
DSTYLE
1002
{
1070
   147
1040
0.625
1070
    77
1070
     1
1002
}
  0
MTEXT
  5
24A1
102
{ACAD_XDICTIONARY
360
2BE4
102
}
102
{ACAD_REACTORS
330
24A0
102
}
330
1F
100
AcDbEntity
  8
SOLBET_Wymiary_Opisy
100
AcDbMText
 10
131.3655349867258
 20
260.1264399629439
 30
0.0
 40
2.5
 41
0.0
 71
     3
 72
     1
  1
Wieniec \U+017Celbetowy
  7
Solbet_2_5
 73
     1
 44
1.0
1001
ACAD
1000
MTEXTBEGIN
1070
    73
1070
     1
1070
    44
1040
1.0
1070
    74
1070
     0
1000
MTEXTEND
  0
LINE
  5
24A2
330
1F
100
AcDbEntity
  8
SOLBET_Tynki_Posadzki
100
AcDbLine
 10
56.96639305354075
 20
151.5891515125909
 30
0.0
 11
56.96639305354075
 21
245.6429062922962
 31
0.0
  0
LEADER
  5
24A3
330
1F
100
AcDbEntity
  8
SOLBET_Wymiary_Opisy
100
AcDbLeader
  3
Solbet$7
 73
     0
 75
     1
 40
2.5
 41
20.0
 76
     3
 10
104.2184119117635
 20
29.47579280591127
 30
0.0
 10
91.41618326784806
 20
4.333259271918223
 30
0.0
 10
88.91618326784806
 20
4.333259271918223
 30
0.0
340
24A4
213
1.177601578005123
223
-0.1753245211093599
233
0.0
1001
ACAD
1000
DSTYLE
1002
{
1070
   147
1040
0.625
1070
    77
1070
     1
1002
}
  0
MTEXT
  5
24A4
102
{ACAD_REACTORS
330
24A3
102
}
330
1F
100
AcDbEntity
  8
SOLBET_Wymiary_Opisy
100
AcDbMText
 10
87.11358168984293
 20
7.633583793027582
 30
0.0
 40
2.5
 41
0.0
 71
     3
 72
     1
  1
Uszczelnienie
  7
Solbet_2_5
 73
     1
 44
1.0
1001
ACAD
1000
MTEXTBEGIN
1070
    73
1070
     1
1070
    44
1040
1.0
1070
    74
1070
     0
1000
MTEXTEND
  0
LEADER
  5
24A5
330
1F
100
AcDbEntity
  8
SOLBET_Wymiary_Opisy
100
AcDbLeader
  3
Solbet$7
 73
     0
 75
     1
 40
3.25
 41
27.0
 76
     3
 10
67.14041355211112
 20
182.2273722052708
 30
0.0
 10
41.05536405556086
 20
165.4679204117542
 30
0.0
 10
38.55536405556087
 20
165.4679204117542
 30
0.0
340
24A6
213
1.177601578005123
223
-0.1753245211093599
233
0.0
1001
ACAD
1000
DSTYLE
1002
{
1070
   147
1040
0.625
1070
    77
1070
     1
1002
}
  0
MTEXT
  5
24A6
102
{ACAD_XDICTIONARY
360
2BE6
102
}
102
{ACAD_REACTORS
330
24A5
102
}
330
1F
100
AcDbEntity
  8
SOLBET_Wymiary_Opisy
100
AcDbMText
 10
36.75276247755574
 20
169.5182449328636
 30
0.0
 40
2.5
 41
0.0
 71
     3
 72
     1
  1
Nadpro\U+017Ca SOLBET
  7
Solbet_2_5
 73
     1
 44
1.0
1001
ACAD
1000
MTEXTBEGIN
1070
    73
1070
     1
1070
    44
1040
1.0
1070
    74
1070
     0
1000
MTEXTEND
  0
LEADER
  5
24AB
330
1F
100
AcDbEntity
  8
SOLBET_Wymiary_Opisy
100
AcDbLeader
  3
Solbet$7
 73
     0
 75
     1
 40
3.25
 41
37.75
 76
     3
 10
106.4263300747336
 20
41.00265743571948
 30
0.0
 10
93.62410143081797
 20
56.38625116830713
 30
0.0
 10
91.12410143081797
 20
56.38625116830713
 30
0.0
340
24AC
213
1.177601578005123
223
-0.1753245211093599
233
0.0
1001
ACAD
1000
DSTYLE
1002
{
1070
   147
1040
0.625
1070
    77
1070
     1
1002
}
  0
MTEXT
  5
24AC
102
{ACAD_XDICTIONARY
360
2BE8
102
}
102
{ACAD_REACTORS
330
24AB
102
}
330
1F
100
AcDbEntity
  8
SOLBET_Wymiary_Opisy
100
AcDbMText
 10
89.32149985281284
 20
60.43657568941648
 30
0.0
 40
2.5
 41
0.0
 71
     3
 72
     1
  1
Profil tynkarski naro\U+017Cny
  7
Solbet_2_5
 73
     1
 44
1.0
1001
ACAD
1000
MTEXTBEGIN
1070
    73
1070
     1
1070
    44
1040
1.0
1070
    74
1070
     0
1000
MTEXTEND
  0
INSERT
  5
24CE
330
1F
100
AcDbEntity
  8
SOLBET_Wymiary_Opisy
100
AcDbBlockReference
  2
_DotSmall
 10
103.7184119117785
 20
20.97579280590073
 30
0.0
 41
2.499999999999908
 42
2.5
 43
2.5
 50
309.767231571232
1001
ACAD
1000
DSTYLE
1002
{
1070
   147
1040
0.625
1070
    77
1070
     1
1002
}
  0
LINE
  5
24D0
330
1F
100
AcDbEntity
  8
SOLBET_Wymiary_Opisy
100
AcDbLine
 10
103.7184119117785
 20
20.97579280590073
 30
0.0
 11
93.62410143081797
 21
56.38625116830713
 31
0.0
1001
ACAD
1000
DSTYLE
1002
{
1070
   147
1040
0.625
1070
    77
1070
     1
1002
}
  0
LEADER
  5
27B9
330
1F
100
AcDbEntity
  8
SOLBET_Wymiary_Opisy
100
AcDbLeader
  3
Solbet$7
 73
     0
 74
     0
 75
     1
 40
3.5
 41
37.25
 76
     3
 10
263.4297578787757
 20
219.9479430185899
 30
0.0
 10
288.1313414989175
 20
229.0675477392645
 30
0.0
 10
290.6313414989174
 20
229.0675477392645
 30
0.0
213
1.177601578005123
223
-0.1753245211093599
233
0.0
1001
ACAD
1000
DSTYLE
1002
{
1070
   147
1040
0.625
1070
    77
1070
     1
1002
}
  0
MTEXT
  5
27BA
102
{ACAD_XDICTIONARY
360
2BEA
102
}
102
{ACAD_REACTORS
330
27B9
102
}
330
1F
100
AcDbEntity
  8
SOLBET_Wymiary_Opisy
100
AcDbMText
 10
290.0787399209123
 20
233.3678722603738
 30
0.0
 40
2.5
 41
0.0
 71
     1
 72
     1
  1
Warstwa wyko\U+0144czeniowa
  7
Solbet_2_5
 73
     1
 44
1.0
1001
ACAD
1000
MTEXTBEGIN
1070
    73
1070
     1
1070
    44
1040
1.0
1070
    74
1070
     0
1000
MTEXTEND
  0
LEADER
  5
27BB
330
1F
100
AcDbEntity
  8
SOLBET_Wymiary_Opisy
100
AcDbLeader
  3
Solbet$7
 73
     0
 74
     0
 75
     1
 40
3.25
 41
32.5
 76
     3
 10
263.9880263878829
 20
212.1818242021711
 30
0.0
 10
287.9525590538754
 20
222.8263412086737
 30
0.0
 10
290.4525590538753
 20
222.8263412086737
 30
0.0
213
0.0
223
-0.2322806831707567
233
0.0
1001
ACAD
1000
DSTYLE
1002
{
1070
   147
1040
0.625
1070
    77
1070
     1
1002
}
  0
MTEXT
  5
27BC
102
{ACAD_REACTORS
330
27BB
102
}
330
1F
100
AcDbEntity
  8
SOLBET_Wymiary_Opisy
100
AcDbMText
 10
290.0787399209123
 20
226.9336218918445
 30
0.0
 40
2.5
 41
0.0
 71
     1
 72
     1
  1
Wylewka jastrychowa
  7
Solbet_2_5
 73
     1
 44
1.0
1001
ACAD
1000
MTEXTBEGIN
1070
    73
1070
     1
1070
    44
1040
1.0
1070
    74
1070
     0
1000
MTEXTEND
  0
LEADER
  5
27BD
330
1F
100
AcDbEntity
  8
SOLBET_Wymiary_Opisy
100
AcDbLeader
  3
Solbet$7
 73
     0
 74
     0
 75
     1
 40
3.25
 41
19.75
 76
     3
 10
266.0265752215821
 20
205.2881645024813
 30
0.0
 10
287.9993554969103
 20
216.591184129896
 30
0.0
 10
290.4993554969103
 20
216.591184129896
 30
0.0
213
0.0
223
-0.2322806831707567
233
0.0
1001
ACAD
1000
DSTYLE
1002
{
1070
   147
1040
0.625
1070
    77
1070
     1
1002
}
  0
MTEXT
  5
27BE
102
{ACAD_REACTORS
330
27BD
102
}
330
1F
100
AcDbEntity
  8
SOLBET_Wymiary_Opisy
100
AcDbMText
 10
290.0787399209123
 20
220.6984648130667
 30
0.0
 40
2.5
 41
0.0
 71
     1
 72
     1
  1
Hydroizolacja
  7
Solbet_2_5
 73
     1
 44
1.0
1001
ACAD
1000
MTEXTBEGIN
1070
    73
1070
     1
1070
    44
1040
1.0
1070
    74
1070
     0
1000
MTEXTEND
  0
LEADER
  5
27BF
330
1F
100
AcDbEntity
  8
SOLBET_Wymiary_Opisy
100
AcDbLeader
  3
Solbet$7
 73
     0
 74
     0
 75
     1
 40
3.25
 41
36.5
 76
     3
 10
270.5120461864906
 20
194.5114461409202
 30
0.0
 10
287.9597048690532
 20
206.6572621036612
 30
0.0
 10
290.4597048690532
 20
206.6572621036612
 30
0.0
213
0.0
223
-0.2322806831707567
233
0.0
1001
ACAD
1000
DSTYLE
1002
{
1070
   147
1040
0.625
1070
    77
1070
     1
1002
}
  0
MTEXT
  5
27C0
102
{ACAD_XDICTIONARY
360
2BEC
102
}
102
{ACAD_REACTORS
330
27BF
102
}
330
1F
100
AcDbEntity
  8
SOLBET_Wymiary_Opisy
100
AcDbMText
 10
290.0787399209123
 20
210.9765216941298
 30
0.0
 40
2.5
 41
0.0
 71
     1
 72
     1
  1
P\U+0142yty izolacyjne twarde
  7
Solbet_2_5
 73
     1
 44
1.0
1001
ACAD
1000
MTEXTBEGIN
1070
    73
1070
     1
1070
    44
1040
1.0
1070
    74
1070
     0
1000
MTEXTEND
  0
LINE
  5
27C3
330
1F
100
AcDbEntity
  8
SOLBET_Wymiary_Opisy
100
AcDbLine
 10
276.0483165247908
 20
221.1755021023968
 30
0.0
 11
276.0483165247908
 21
166.2110503956379
 31
0.0
  0
LINE
  5
27C4
330
1F
100
AcDbEntity
  8
SOLBET_Izolacja
100
AcDbLine
 10
232.1619705851847
 20
191.8089679346208
 30
0.0
 11
276.0483165247908
 21
191.8089679346208
 31
0.0
  0
LINE
  5
27C5
330
1F
100
AcDbEntity
  8
SOLBET_Izolacja
100
AcDbLine
 10
232.1619705851847
 20
204.3089679346207
 30
0.0
 11
276.0483165247908
 21
204.3089679346208
 31
0.0
  0
LINE
  5
27C6
330
1F
100
AcDbEntity
  8
SOLBET_Tynki_Posadzki
100
AcDbLine
 10
240.7771634472358
 20
221.1755021023968
 30
0.0
 11
276.0483165247908
 21
221.1755021023968
 31
0.0
  0
LINE
  5
27C8
330
1F
100
AcDbEntity
  8
SOLBET_Emulsje_Folie
100
AcDbLine
 10
232.3622320812258
 20
205.2881645024813
 30
0.0
 11
276.0483165247908
 21
205.2881645024813
 31
0.0
  0
HATCH
  5
27C9
330
1F
100
AcDbEntity
  8
SOLBET_Tynki_Posadzki
100
AcDbHatch
 10
0.0
 20
0.0
 30
0.0
210
0.0
220
0.0
230
1.0
  2
AR-CONC
 70
     0
 71
     0
 91
        1
 92
        5
 93
        4
 72
     2
 10
265.2159723411426
 20
198.0589679346209
 40
33.63970172404727
 50
142.2031821742316
 51
166.0379938227853
 73
     1
 72
     1
 10
232.5701241336572
 20
206.1755021023978
 11
276.0483165247905
 21
206.1755021023978
 72
     1
 10
276.0483165247908
 20
206.1755021023978
 11
276.0483165247914
 21
218.6755021023966
 72
     1
 10
276.0483165247913
 20
218.6755021023966
 11
238.634248337764
 21
218.6755021023966
 97
        0
 75
     0
 76
     1
 52
0.0
 41
0.03
 77
     0
 78
    13
 53
50.0
 43
902.1441674615465
 44
120.9269491558832
 45
5.46554006988012
 46
-0.4781725661670926
 79
     2
 49
0.5715
 49
-6.2865
 53
355.0
 43
902.1441674615465
 44
120.9269491558832
 45
-1.057284779270009
 46
5.731699286465398
 79
     2
 49
0.4572
 49
-5.029199999999999
 53
100.451
 43
902.5996274615463
 44
120.8871016558832
 45
4.408275049978777
 46
5.253500634608755
 79
     2
 49
0.4857000000000001
 49
-5.342699999999999
 53
46.1842
 43
902.1441674615465
 44
122.4509491558832
 45
8.132371226763897
 46
-1.261269837981814
 79
     2
 49
0.8572499999999999
 49
-9.429749999999998
 53
96.6356
 43
902.8218644615462
 44
122.3458441558832
 45
7.122127033987114
 46
7.422766676701476
 79
     2
 49
0.7285500000000001
 49
-8.014049999999999
 53
351.184
 43
902.1441674615465
 44
122.4509491558832
 45
7.122138174418017
 46
7.422753535817929
 79
     2
 49
0.6858
 49
-7.5438
 53
21.0
 43
902.9061674615464
 44
122.0699491558832
 45
4.548446395061498
 46
-3.067965555502874
 79
     2
 49
0.5715
 49
-6.2865
 53
326.0
 43
902.9061674615464
 44
122.0699491558832
 45
1.854060850429411
 46
5.525638983669577
 79
     2
 49
0.4572
 49
-5.029199999999999
 53
71.45140000000001
 43
903.2852024615463
 44
121.8142861558832
 45
6.402494723103733
 46
2.457685731481723
 79
     2
 49
0.4857000000000001
 49
-5.342699999999999
 53
37.5
 43
902.1441674615465
 44
120.9269491558832
 45
0.0926580975177545
 46
2.536651166194593
 79
     6
 49
0.0
 49
-4.968239999999999
 49
0.0
 49
-5.1054
 49
0.0
 49
-5.04825
 53
7.499999999999999
 43
902.1441674615465
 44
120.9269491558832
 45
2.004589875309172
 46
3.005417244543585
 79
     6
 49
0.0
 49
-2.910839999999999
 49
0.0
 49
-4.853939999999999
 49
0.0
 49
-1.92405
 53
327.5
 43
900.4449074615463
 44
120.9269491558832
 45
4.067717855006141
 46
-0.1718623197802037
 79
     6
 49
0.0
 49
-1.905
 49
0.0
 49
-5.943599999999999
 49
0.0
 49
-7.886699999999999
 53
317.5
 43
899.6829074615463
 44
120.9269491558832
 45
4.443875441580541
 46
0.7627947309999904
 79
     6
 49
0.0
 49
-2.476499999999999
 49
0.0
 49
-3.947159999999999
 49
0.0
 49
-5.600699999999999
 47
0.0387476598051738
 98
        1
 10
255.5187608853346
 20
212.2730404000116
1001
ACAD
1010
0.0
1020
0.0
1030
0.0
  0
LWPOLYLINE
  5
27CA
330
1F
100
AcDbEntity
  8
SOLBET_Tynki_Posadzki
100
AcDbPolyline
 90
        4
 70
     0
 43
0.0
 10
232.5701241336572
 20
206.1755021023978
 10
276.0483165247908
 20
206.1755021023978
 10
276.0483165247913
 20
218.6755021023968
 10
238.6342483377646
 20
218.6755021023968
1001
ASO_SCHRAFF
1005
0
1070
     1
1002
{
1070
     1
1005
0
1002
}
1002
{
1070
     2
1005
0
1002
}
1002
{
1070
     4
1000
AR-CONC
1040
0.01
1040
0.0
1070
     0
1000
T__SCHR
1070
   256
1000
_bylayer
1040
50.0
1070
     1
1002
}
  0
LWPOLYLINE
  5
27CC
330
1F
100
AcDbEntity
  8
SOLBET_Beton
100
AcDbPolyline
 90
        3
 70
     0
 43
0.0
 10
232.9811989436605
 20
188.4387332131687
 10
276.0483165247908
 20
188.4387332131687
 10
276.0483165247908
 20
166.2110503956377
  0
LINE
  5
27CD
330
1F
100
AcDbEntity
  8
SOLBET_Izolacja
  6
BATTING
 48
0.6
100
AcDbLine
 10
231.5762706170956
 20
198.0589679346208
 30
0.0
 11
276.0483165247908
 21
198.0589679346208
 31
0.0
  0
ARC
  5
27CE
330
1F
100
AcDbEntity
  8
SOLBET_Wymiary_Opisy
100
AcDbCircle
 10
265.2159723411426
 20
198.0589679346208
 30
0.0
 40
33.6397017240473
100
AcDbArc
 50
136.5926968744823
 51
288.7845676764009
  0
MTEXT
  5
27CF
102
{ACAD_XDICTIONARY
360
2A8D
102
}
330
1F
100
AcDbEntity
  8
SOLBET_Wymiary_Opisy
100
AcDbMText
 10
222.2446169326108
 20
249.841816432491
 30
0.0
 40
5.0
 41
30.77919768571883
 71
     1
 72
     5
  1
\pxqc;B\P(5 : 1)
  7
Solbet_5
 73
     1
 44
1.0
1001
ACAD
1000
MTEXTBEGIN
1070
    73
1070
     1
1070
    44
1040
1.0
1070
    74
1070
     0
1000
MTEXTEND
1000
ACAD_MTEXT_DEFINED_HEIGHT_BEGIN
1070
    46
1040
23.42535011036716
1000
ACAD_MTEXT_DEFINED_HEIGHT_END
  0
LINE
  5
27D0
330
1F
100
AcDbEntity
  8
SOLBET_Beton
100
AcDbLine
 10
268.8460880838818
 20
188.4387332131687
 30
0.0
 11
268.8460880838818
 21
164.6157056568885
 31
0.0
  0
LINE
  5
27D1
330
1F
100
AcDbEntity
  8
SOLBET_Zbrojenie_Konstrukcja
100
AcDbLine
 10
276.0483165247908
 20
181.0200626980467
 30
0.0
 11
236.2107100526902
 21
181.0200626980467
 31
0.0
  0
LINE
  5
27D2
330
1F
100
AcDbEntity
  8
SOLBET_Zbrojenie_Konstrukcja
100
AcDbLine
 10
262.4709988120403
 20
181.0200626980467
 30
0.0
 11
271.7581732957589
 21
165.0615568429565
 31
0.0
  0
LINE
  5
27D3
330
1F
100
AcDbEntity
  8
SOLBET_Zbrojenie_Konstrukcja
100
AcDbLine
 10
262.4709988120403
 20
181.0200626980467
 30
0.0
 11
254.1021802207976
 21
166.3081701999397
 31
0.0
  0
CIRCLE
  5
27E0
330
1F
100
AcDbEntity
  8
SOLBET_Wymiary_Opisy
100
AcDbCircle
 10
134.7536322827175
 20
217.1772546989688
 30
0.0
 40
6.72794034480946
  0
LEADER
  5
27E1
330
1F
100
AcDbEntity
  8
SOLBET_Wymiary_Opisy
100
AcDbLeader
  3
Solbet$7
 73
     0
 74
     0
 75
     1
 40
5.0
 41
4.0
 76
     3
 10
138.3752059528344
 20
222.8472975061468
 30
0.0
 10
141.3463561536509
 20
226.8457842451907
 30
0.0
 10
143.8463561536509
 20
226.8457842451907
 30
0.0
213
0.8103787685154202
223
-0.1753245211093599
233
0.0
1001
ACAD
1000
DSTYLE
1002
{
1070
   341
1005
2606
1070
   147
1040
0.625
1070
    77
1070
     1
1002
}
  0
MTEXT
  5
27E2
102
{ACAD_REACTORS
330
27E1
102
}
330
1F
100
AcDbEntity
  8
SOLBET_Wymiary_Opisy
100
AcDbMText
 10
147.6609773851355
 20
232.6461087663
 30
0.0
 40
5.0
 41
0.0
 71
     3
 72
     1
  1
B
  7
Solbet_5
 73
     1
 44
1.0
1001
ACAD
1000
MTEXTBEGIN
1070
    73
1070
     1
1070
    44
1040
1.0
1070
    74
1070
     0
1000
MTEXTEND
  0
LEADER
  5
27E3
330
1F
100
AcDbEntity
  8
SOLBET_Wymiary_Opisy
100
AcDbLeader
  3
Solbet$7
 73
     0
 74
     0
 75
     1
 40
3.25
 41
20.25
 76
     3
 10
111.2233339299991
 20
203.4272546916134
 30
0.0
 10
147.6295560552269
 20
162.3418062195093
 30
0.0
 10
150.1295560552269
 20
162.3418062195093
 30
0.0
340
27E4
213
2.108969758680359
223
-0.1753245211093599
233
0.0
1001
ACAD
1000
DSTYLE
1002
{
1070
   147
1040
0.625
1070
    77
1070
     1
1002
}
  0
MTEXT
  5
27E4
102
{ACAD_REACTORS
330
27E3
102
}
330
1F
100
AcDbEntity
  8
SOLBET_Wymiary_Opisy
100
AcDbMText
 10
168.8955862965465
 20
166.3921307406186
 30
0.0
 40
2.5
 41
0.0
 71
     3
 72
     1
  1
Tynk SOLBET
  7
Solbet_2_5
 73
     1
 44
1.0
1001
ACAD
1000
MTEXTBEGIN
1070
    73
1070
     1
1070
    44
1040
1.0
1070
    74
1070
     0
1000
MTEXTEND
  0
LEADER
  5
27E5
330
1F
100
AcDbEntity
  8
SOLBET_Wymiary_Opisy
100
AcDbLeader
  3
Solbet$7
 73
     0
 74
     0
 75
     1
 40
3.25
 41
19.5
 76
     3
 10
121.8975273360311
 20
212.427254691613
 30
0.0
 10
147.6266238125456
 20
175.6884766981445
 30
0.0
 10
150.1266238125456
 20
175.6884766981445
 30
0.0
340
27E6
213
1.177601578005123
223
-0.1753245211093599
233
0.0
1001
ACAD
1000
DSTYLE
1002
{
1070
   147
1040
0.625
1070
    77
1070
     1
1002
}
  0
MTEXT
  5
27E6
102
{ACAD_REACTORS
330
27E5
102
}
330
1F
100
AcDbEntity
  8
SOLBET_Wymiary_Opisy
100
AcDbMText
 10
169.0740222345405
 20
179.7388012192538
 30
0.0
 40
2.5
 41
0.0
 71
     3
 72
     1
  1
Strop Teriva
  7
Solbet_2_5
 73
     1
 44
1.0
1001
ACAD
1000
MTEXTBEGIN
1070
    73
1070
     1
1070
    44
1040
1.0
1070
    74
1070
     0
1000
MTEXTEND
  0
LINE
  5
27E7
330
1F
100
AcDbEntity
  8
SOLBET_Tynki_Posadzki
100
AcDbLine
 10
77.71639305354074
 20
105.9272546916129
 30
0.0
 11
77.71639305354074
 21
67.17105974261677
 31
0.0
  0
CIRCLE
  5
27E8
330
1F
100
AcDbEntity
  8
SOLBET_Wymiary_Opisy
100
AcDbCircle
 10
67.26489848595551
 20
91.40540692517419
 30
0.0
 40
12.60307139367659
  0
MTEXT
  5
27EA
330
1F
100
AcDbEntity
  8
SOLBET_Wymiary_Opisy
100
AcDbMText
 10
47.59684315998629
 20
108.844827472319
 30
0.0
 40
5.0
 41
0.0
 71
     3
 72
     1
  1
A
  7
Solbet_5
 73
     1
 44
1.0
1001
ACAD
1000
MTEXTBEGIN
1070
    73
1070
     1
1070
    44
1040
1.0
1070
    74
1070
     0
1000
MTEXTEND
  0
INSERT
  5
27F7
330
1F
100
AcDbEntity
  8
SOLBET_Wymiary_Opisy
100
AcDbBlockReference
  2
_None
 10
103.1262630165918
 20
88.80919868113178
 30
0.0
 41
2.5
 42
2.5
 43
2.5
 50
329.1650163478542
1001
ACAD
1000
DSTYLE
1002
{
1070
   341
1005
2606
1070
   147
1040
0.625
1070
    77
1070
     1
1002
}
  0
LINE
  5
27F9
330
1F
100
AcDbEntity
  8
SOLBET_Wymiary_Opisy
100
AcDbLine
 10
55.04093081900172
 20
94.47330898217947
 30
0.0
 11
48.8751253376081
 21
102.4072220417188
 31
0.0
1001
ACAD
1000
DSTYLE
1002
{
1070
   341
1005
2606
1070
   147
1040
0.625
1070
    77
1070
     1
1002
}
  0
LINE
  5
27FA
330
1F
100
AcDbEntity
  8
SOLBET_Wymiary_Opisy
100
AcDbLine
 10
41.7501253376081
 20
102.4072220417188
 30
0.0
 11
48.8751253376081
 21
102.4072220417188
 31
0.0
1001
ACAD
1000
DSTYLE
1002
{
1070
   341
1005
2606
1070
   147
1040
0.625
1070
    77
1070
     1
1002
}
  0
INSERT
  5
2809
330
1F
100
AcDbEntity
  8
SOLBET_Zbrojenie_Konstrukcja
100
AcDbBlockReference
  2
*U4
 10
-1064.156357641473
 20
-589.1491573407946
 30
0.0
 41
166.6649999999999
 42
166.665
 43
166.665
1001
ASO_SCHRAFF
1005
2249
1070
     0
1005
2248
  0
INSERT
  5
280A
330
1F
100
AcDbEntity
  8
SOLBET_Zbrojenie_Konstrukcja
100
AcDbBlockReference
  2
*U4
 10
1626.188021560313
 20
-589.1491573407946
 30
0.0
 41
-166.6649999999999
 42
166.665
 43
166.665
1001
ASO_SCHRAFF
1005
2249
1070
     0
1005
2248
  0
LINE
  5
280B
330
1F
100
AcDbEntity
  8
SOLBET_Tynki_Posadzki
100
AcDbLine
 10
301.9678086682247
 20
101.2674068710084
 30
0.0
 11
301.9678086682247
 21
54.31462785520235
 31
0.0
  0
LINE
  5
280C
330
1F
100
AcDbEntity
  8
SOLBET_Zaprawy
100
AcDbLine
 10
234.3574120905496
 20
51.50808283803553
 30
0.0
 11
234.3574120905496
 21
104.0739518881751
 31
0.0
  0
LINE
  5
280D
330
1F
100
AcDbEntity
  8
SOLBET_Tynki_Posadzki
100
AcDbLine
 10
232.801833668225
 20
53.57505870081855
 30
0.0
 11
232.8018336682248
 21
102.0069760253918
 31
0.0
  0
LINE
  5
2814
330
1F
100
AcDbEntity
  8
SOLBET_Izolacja
100
AcDbLine
 10
235.3018086682608
 20
105.2100090171427
 30
0.0
 11
235.301808668252
 21
50.37202570907798
 31
0.0
  0
LINE
  5
2815
330
1F
100
AcDbEntity
  8
SOLBET_Izolacja
  6
BATTING
 48
1.219999999999999
100
AcDbLine
 10
247.8016836682341
 20
44.49028510190714
 30
0.0
 11
247.8016836682338
 21
115.0904422949326
 31
0.0
  0
LWPOLYLINE
  5
2816
330
1F
100
AcDbEntity
  8
SOLBET_Bloczki
100
AcDbPolyline
 90
        2
 70
     0
 43
0.0
 10
260.3015592540472
 20
102.8635923856859
 10
260.3015588428311
 20
119.2421856158908
  0
ARC
  5
2817
330
1F
100
AcDbEntity
  8
SOLBET_Wymiary_Opisy
100
AcDbCircle
 10
267.1298418260931
 20
77.79101736310531
 30
0.0
 40
42.00981787654217
100
AcDbArc
 50
215.200237077144
 51
144.7997629228568
  0
LWPOLYLINE
  5
2818
330
1F
100
AcDbEntity
  8
SOLBET_Bloczki
100
AcDbPolyline
 90
        3
 70
     0
 43
0.0
 10
300.3011592363443
 20
103.5686917983332
 10
300.3011592540472
 20
102.8635923856859
 10
260.3015592540472
 20
102.8635925229758
  0
LINE
  5
2820
330
1F
100
AcDbEntity
  8
SOLBET_Bloczki
100
AcDbLine
 10
300.3011586682247
 20
62.86399238568563
 30
0.0
 11
300.3011586682247
 21
52.01334219680797
 31
0.0
  0
LINE
  5
2822
330
1F
100
AcDbEntity
  8
SOLBET_Bloczki
100
AcDbLine
 10
260.3015586682247
 20
62.86399238568563
 30
0.0
 11
260.301558668225
 21
36.33984913908276
 31
0.0
  0
LEADER
  5
2824
330
1F
100
AcDbEntity
  8
SOLBET_Wymiary_Opisy
100
AcDbLeader
  3
Solbet$7
 73
     0
 40
3.25
 41
39.25
 76
     2
 10
232.8018336682248
 20
98.96754911933051
 30
0.0
 10
219.8032019941252
 20
101.2541771354838
 30
0.0
340
2825
213
1.177601578005123
223
-0.1753245211093599
233
0.0
1001
ACAD
1000
DSTYLE
1002
{
1070
   147
1040
0.625
1070
    77
1070
     1
1002
}
  0
MTEXT
  5
2825
102
{ACAD_XDICTIONARY
360
2BEE
102
}
102
{ACAD_REACTORS
330
2824
102
}
330
1F
100
AcDbEntity
  8
SOLBET_Wymiary_Opisy
100
AcDbMText
 10
218.00060041612
 20
105.3045016565931
 30
0.0
 40
2.5
 41
0.0
 71
     3
 72
     1
  1
Tynk zewn\U+0119trzny SOLBET 
  7
Solbet_2_5
 73
     1
 44
1.0
1001
ACAD
1000
MTEXTBEGIN
1070
    73
1070
     1
1070
    44
1040
1.0
1070
    74
1070
     0
1000
MTEXTEND
  0
LEADER
  5
2826
330
1F
100
AcDbEntity
  8
SOLBET_Wymiary_Opisy
100
AcDbLeader
  3
Solbet$7
 73
     0
 75
     1
 40
7.416666666666666
 41
49.25
 76
     3
 10
234.3574120905496
 20
96.46506245155173
 30
0.0
 10
219.7733842675464
 20
79.45602833252333
 30
0.0
 10
217.2733842675464
 20
79.45602833252333
 30
0.0
340
2827
213
-0.99580282042416
223
-0.1951916093174759
233
0.0
1001
ACAD
1000
DSTYLE
1002
{
1070
   147
1040
0.625
1070
    77
1070
     1
1002
}
  0
MTEXT
  5
2827
102
{ACAD_XDICTIONARY
360
2BF0
102
}
102
{ACAD_REACTORS
330
2826
102
}
330
1F
100
AcDbEntity
  8
SOLBET_Wymiary_Opisy
100
AcDbMText
 10
217.6441870879705
 20
87.69288660850747
 30
0.0
 40
2.5
 41
0.0
 71
     3
 72
     1
  1
Siatka z klejem SOLBET Gabit T\Pje\U+017Celi wymagane
  7
Solbet_2_5
 73
     1
 44
1.0
1001
ACAD
1000
MTEXTBEGIN
1070
    73
1070
     1
1070
    44
1040
1.0
1070
    74
1070
     0
1000
MTEXTEND
  0
LEADER
  5
2828
330
1F
100
AcDbEntity
  8
SOLBET_Wymiary_Opisy
100
AcDbLeader
  3
Solbet$7
 73
     0
 75
     1
 40
3.25
 41
41.5
 76
     3
 10
238.1373146640328
 20
85.18491136887019
 30
0.0
 10
219.329543828867
 20
65.22805314704999
 30
0.0
 10
216.829543828867
 20
65.22805314704999
 30
0.0
340
2829
213
-1.637886636346252
223
0.1586509392875541
233
0.0
1001
ACAD
1000
DSTYLE
1002
{
1070
   147
1040
0.625
1070
    77
1070
     1
1002
}
  0
MTEXT
  5
2829
102
{ACAD_REACTORS
330
2828
102
}
330
1F
100
AcDbEntity
  8
SOLBET_Wymiary_Opisy
100
AcDbMText
 10
217.8424304652133
 20
68.94440220776243
 30
0.0
 40
2.5
 41
0.0
 71
     3
 72
     1
  1
Warstwa izolacji termicznej
  7
Solbet_2_5
 73
     1
 44
1.0
1001
ACAD
1000
MTEXTBEGIN
1070
    73
1070
     1
1070
    44
1040
1.0
1070
    74
1070
     0
1000
MTEXTEND
  0
LEADER
  5
282A
330
1F
100
AcDbEntity
  8
SOLBET_Wymiary_Opisy
100
AcDbLeader
  3
Solbet$7
 73
     0
 75
     1
 40
3.25
 41
45.0
 76
     3
 10
265.0480124720912
 20
91.44679211723223
 30
0.0
 10
219.4121552217509
 20
52.46206450452135
 30
0.0
 10
216.9121552217509
 20
52.46206450452135
 30
0.0
340
282B
213
-0.6250000000000569
223
-0.1753245211093457
233
0.0
1001
ACAD
1000
DSTYLE
1002
{
1070
   147
1040
0.625
1070
    77
1070
     1
1002
}
  0
MTEXT
  5
282B
102
{ACAD_REACTORS
330
282A
102
}
330
1F
100
AcDbEntity
  8
SOLBET_Wymiary_Opisy
100
AcDbMText
 10
216.912155221751
 20
56.51238902563069
 30
0.0
 40
2.5
 41
0.0
 71
     3
 72
     1
  1
Bloczki SOLBET Optimal 24cm
  7
Solbet_2_5
 73
     1
 44
1.0
1001
ACAD
1000
MTEXTBEGIN
1070
    73
1070
     1
1070
    44
1040
1.0
1070
    74
1070
     0
1000
MTEXTEND
  0
LEADER
  5
282C
330
1F
100
AcDbEntity
  8
SOLBET_Wymiary_Opisy
100
AcDbLeader
  3
Solbet$7
 73
     0
 75
     1
 40
3.25
 41
39.75
 76
     3
 10
301.9678086682247
 20
58.15517947153671
 30
0.0
 10
220.0731960901467
 20
27.6035077699242
 30
0.0
 10
217.5731960901467
 20
27.6035077699242
 30
0.0
340
282D
213
1.177601578005123
223
-0.1753245211093599
233
0.0
1001
ACAD
1000
DSTYLE
1002
{
1070
   147
1040
0.625
1070
    77
1070
     1
1002
}
  0
MTEXT
  5
282D
102
{ACAD_XDICTIONARY
360
2BF2
102
}
102
{ACAD_REACTORS
330
282C
102
}
330
1F
100
AcDbEntity
  8
SOLBET_Wymiary_Opisy
100
AcDbMText
 10
215.7705945121415
 20
31.65383229103355
 30
0.0
 40
2.5
 41
0.0
 71
     3
 72
     1
  1
Tynk wewn\U+0119trzny SOLBET
  7
Solbet_2_5
 73
     1
 44
1.0
1001
ACAD
1000
MTEXTBEGIN
1070
    73
1070
     1
1070
    44
1040
1.0
1070
    74
1070
     0
1000
MTEXTEND
  0
LEADER
  5
282E
330
1F
100
AcDbEntity
  8
SOLBET_Wymiary_Opisy
100
AcDbLeader
  3
Solbet$7
 73
     0
 75
     1
 40
3.25
 41
27.25
 76
     3
 10
279.9561342828412
 20
103.2141771016021
 30
0.0
 10
272.3482737039161
 20
122.6625084997875
 30
0.0
 10
269.8482737039161
 20
122.6625084997875
 30
0.0
340
282F
213
1.177601578005123
223
-0.1753245211093599
233
0.0
1001
ACAD
1000
DSTYLE
1002
{
1070
   147
1040
0.625
1070
    77
1070
     1
1002
}
  0
MTEXT
  5
282F
102
{ACAD_REACTORS
330
282E
102
}
330
1F
100
AcDbEntity
  8
SOLBET_Wymiary_Opisy
100
AcDbMText
 10
268.045672125911
 20
126.7128330208969
 30
0.0
 40
2.5
 41
0.0
 71
     3
 72
     1
  1
Zbrojenie MURFOR
  7
Solbet_2_5
 73
     1
 44
1.0
1001
ACAD
1000
MTEXTBEGIN
1070
    73
1070
     1
1070
    44
1040
1.0
1070
    74
1070
     0
1000
MTEXTEND
  0
MTEXT
  5
2862
102
{ACAD_XDICTIONARY
360
2A8F
102
}
330
1F
100
AcDbEntity
  8
SOLBET_Wymiary_Opisy
100
AcDbMText
 10
229.5518327836139
 20
149.406260665977
 30
0.0
 40
5.0
 41
30.77919768571883
 71
     1
 72
     5
  1
\pxqc;A\P(5 : 1)
  7
Solbet_5
 73
     1
 44
1.0
1001
ACAD
1000
MTEXTBEGIN
1070
    73
1070
     1
1070
    44
1040
1.0
1070
    74
1070
     0
1000
MTEXTEND
1000
ACAD_MTEXT_DEFINED_HEIGHT_BEGIN
1070
    46
1040
23.42535011036716
1000
ACAD_MTEXT_DEFINED_HEIGHT_END
  0
LINE
  5
2894
330
1F
100
AcDbEntity
  8
SOLBET_Tynki_Posadzki
100
AcDbLine
 10
77.71639305354074
 20
149.1472758980252
 30
0.0
 11
77.71639305354074
 21
107.9272546916129
 31
0.0
  0
LINE
  5
29EE
330
1F
100
AcDbEntity
  8
SOLBET_Zbrojenie_Konstrukcja
100
AcDbLine
 10
68.41028732503406
 20
98.95841445191278
 30
0.0
 11
74.45118704364716
 21
98.95841445191278
 31
0.0
  0
LINE
  5
29EF
330
1F
100
AcDbEntity
  8
SOLBET_Zbrojenie_Konstrukcja
100
AcDbLine
 10
270.9477664433937
 20
102.9674573519832
 30
0.0
 11
291.0838974754463
 21
102.9674573519832
 31
0.0
  0
INSERT
  5
2B12
330
1F
100
AcDbEntity
  8
SOLBET_Bloczki
100
AcDbBlockReference
  2
SOLBET_Nadproze_120x240x1400_zz_PRA
 10
65.21639357462404
 20
179.927254774914
 30
0.0
  0
INSERT
  5
2B13
330
1F
100
AcDbEntity
  8
SOLBET_Bloczki
100
AcDbBlockReference
  2
SOLBET_Nadproze_120x240x1400_zz_PRA
 10
71.21639357462403
 20
179.927254774914
 30
0.0
  0
INSERT
  5
2B24
330
1F
100
AcDbEntity
  8
SOLBET_Bloczki
100
AcDbBlockReference
  2
SOLBET_Bloczek_Optimal_240x240x590_P+W_KG500_PRA
 10
65.21639316872155
 20
191.9272546504255
 30
0.0
  0
INSERT
  5
2B25
330
1F
100
AcDbEntity
  8
SOLBET_Bloczki
100
AcDbBlockReference
  2
SOLBET_Bloczek_Optimal_240x240x590_P+W_KG500_PRA
 10
65.21639316872155
 20
74.92725465042553
 30
0.0
  0
INSERT
  5
2B26
330
1F
100
AcDbEntity
  8
SOLBET_Bloczki
100
AcDbBlockReference
  2
SOLBET_Bloczek_Optimal_240x240x590_P+W_KG500_PRA
 10
65.21639334447003
 20
86.92725460923815
 30
0.0
  0
INSERT
  5
2B27
330
1F
100
AcDbEntity
  8
SOLBET_Bloczki
100
AcDbBlockReference
  2
SOLBET_Bloczek_Optimal_240x240x590_P+W_KG500_PRA
 10
65.21639340503771
 20
227.9272547210362
 30
0.0
  0
INSERT
  5
2B28
330
1F
100
AcDbEntity
  8
SOLBET_Bloczki
100
AcDbBlockReference
  2
SOLBET_Bloczek_Optimal_240x240x590_P+W_KG500_PRA
 10
65.21639340503759
 20
215.9272547210361
 30
0.0
  0
INSERT
  5
2B29
330
1F
100
AcDbEntity
  8
SOLBET_Bloczki
100
AcDbBlockReference
  2
SOLBET_Bloczek_Optimal_240x240x590_P+W_KG500_PRA
 10
260.3015580824024
 20
62.86399252297591
 30
0.0
 41
3.333300000000008
 42
3.333300000000008
 43
3.333299999999996
  0
MTEXT
  5
2B9E
102
{ACAD_XDICTIONARY
360
2B9F
102
}
330
1F
100
AcDbEntity
  8
SOLBET_Wymiary_Opisy
100
AcDbMText
 10
301.2542633255816
 20
7.273150535415538
 30
0.0
 40
5.0
 41
0.0
 71
     1
 72
     5
  1
Skala 1:20
  7
Solbet_5
 73
     1
 44
1.0
1001
ACAD
1000
MTEXTBEGIN
1070
    73
1070
     1
1070
    44
1040
1.0
1070
    74
1070
     0
1000
MTEXTEND
1000
ACAD_MTEXT_DEFINED_HEIGHT_BEGIN
1070
    46
1040
5.395147572682731
1000
ACAD_MTEXT_DEFINED_HEIGHT_END
  0
LWPOLYLINE
  5
2BA1
330
1F
100
AcDbEntity
  8
SOLBET_Ramka_05
100
AcDbPolyline
 90
        4
 70
     1
 43
0.0
 10
298.2355972046678
 20
9.804221198935465
 10
334.35177409209
 20
9.804221198935465
 10
334.35177409209
 20
0.0
 10
298.2355972046678
 20
0.0000000000000018
  0
ENDSEC
  0
SECTION
  2
OBJECTS
  0
DICTIONARY
  5
C
330
0
100
AcDbDictionary
281
     1
  3
ACAD_COLOR
350
6B
  3
ACAD_GROUP
350
D
  3
ACAD_LAYOUT
350
1A
  3
ACAD_MATERIAL
350
6A
  3
ACAD_MLEADERSTYLE
350
12D
  3
ACAD_MLINESTYLE
350
17
  3
ACAD_PLOTSETTINGS
350
19
  3
ACAD_PLOTSTYLENAME
350
E
  3
ACAD_SCALELIST
350
10C
  3
ACAD_TABLESTYLE
350
7E
  3
ACAD_VISUALSTYLE
350
EF
  3
ACDB_RECOMPOSE_DATA
350
15D
  3
AcDbVariableDictionary
350
5E
  3
DWGPROPS
350
2BD6
  0
DICTIONARY
  5
443
330
8
100
AcDbDictionary
280
     1
281
     1
  0
DICTIONARY
  5
3E5
330
2
100
AcDbDictionary
280
     1
281
     1
  3
ACAD_LAYERFILTERS
360
27AE
  3
ACLYDICTIONARY
360
27AD
  0
DICTIONARY
  5
13C
330
10
100
AcDbDictionary
280
     1
281
     1
  3
ADSK_XREC_LAYER_RECONCILED
360
3F4
  0
DICTIONARY
  5
403
330
3DD
100
AcDbDictionary
280
     1
281
     1
  3
ADSK_XREC_LAYER_RECONCILED
360
404
  0
DICTIONARY
  5
405
330
3DF
100
AcDbDictionary
280
     1
281
     1
  3
ADSK_XREC_LAYER_RECONCILED
360
406
  0
DICTIONARY
  5
407
330
3E0
100
AcDbDictionary
280
     1
281
     1
  3
ADSK_XREC_LAYER_RECONCILED
360
408
  0
DICTIONARY
  5
409
330
3E1
100
AcDbDictionary
280
     1
281
     1
  3
ADSK_XREC_LAYER_RECONCILED
360
40A
  0
DICTIONARY
  5
40B
330
3E2
100
AcDbDictionary
280
     1
281
     1
  3
ADSK_XREC_LAYER_RECONCILED
360
40C
  0
DICTIONARY
  5
40F
330
3E4
100
AcDbDictionary
280
     1
281
     1
  3
ADSK_XREC_LAYER_RECONCILED
360
410
  0
DICTIONARY
  5
411
330
3E8
100
AcDbDictionary
280
     1
281
     1
  3
ADSK_XREC_LAYER_RECONCILED
360
412
  0
DICTIONARY
  5
2A8B
330
2A8A
100
AcDbDictionary
280
     1
281
     1
  3
ASDK_XREC_ANNO_SCALE_INFO
360
2A8C
  0
DICTIONARY
  5
4A3
330
1F
100
AcDbDictionary
280
     1
281
     1
  3
ACAD_SORTENTS
360
4A4
  0
DICTIONARY
  5
2328
330
231C
100
AcDbDictionary
280
     1
281
     1
  3
ACAD_SORTENTS
360
2329
  0
DICTIONARY
  5
23BB
330
23B1
100
AcDbDictionary
280
     1
281
     1
  3
ACAD_SORTENTS
360
23BC
  0
DICTIONARY
  5
2B0E
330
2AFD
100
AcDbDictionary
280
     1
281
     1
  3
ACAD_SORTENTS
360
2B0F
  0
DICTIONARY
  5
2B20
330
2B14
100
AcDbDictionary
280
     1
281
     1
  3
ACAD_SORTENTS
360
2B21
  0
DICTIONARY
  5
2316
330
2315
100
AcDbDictionary
280
     1
281
     1
  3
ACAD_MTEXT_RT
360
2BE3
  3
AcDbContextDataManager
360
2317
  0
DICTIONARY
  5
2BE4
330
24A1
100
AcDbDictionary
280
     1
281
     1
  3
ACAD_MTEXT_RT
360
2BE5
  0
DICTIONARY
  5
2BE6
330
24A6
100
AcDbDictionary
280
     1
281
     1
  3
ACAD_MTEXT_RT
360
2BE7
  0
DICTIONARY
  5
2BE8
330
24AC
100
AcDbDictionary
280
     1
281
     1
  3
ACAD_MTEXT_RT
360
2BE9
  0
DICTIONARY
  5
2BEA
330
27BA
100
AcDbDictionary
280
     1
281
     1
  3
ACAD_MTEXT_RT
360
2BEB
  0
DICTIONARY
  5
2BEC
330
27C0
100
AcDbDictionary
280
     1
281
     1
  3
ACAD_MTEXT_RT
360
2BED
  0
DICTIONARY
  5
2A8D
330
27CF
100
AcDbDictionary
280
     1
281
     1
  3
ACAD_MTEXT_2008_RT
360
2A8E
  0
DICTIONARY
  5
2BEE
330
2825
100
AcDbDictionary
280
     1
281
     1
  3
ACAD_MTEXT_RT
360
2BEF
  0
DICTIONARY
  5
2BF0
330
2827
100
AcDbDictionary
280
     1
281
     1
  3
ACAD_MTEXT_RT
360
2BF1
  0
DICTIONARY
  5
2BF2
330
282D
100
AcDbDictionary
280
     1
281
     1
  3
ACAD_MTEXT_RT
360
2BF3
  0
DICTIONARY
  5
2A8F
330
2862
100
AcDbDictionary
280
     1
281
     1
  3
ACAD_MTEXT_2008_RT
360
2A90
  0
DICTIONARY
  5
2B9F
330
2B9E
100
AcDbDictionary
280
     1
281
     1
  3
ACAD_MTEXT_2008_RT
360
2BA0
  0
DICTIONARY
  5
6B
102
{ACAD_REACTORS
330
C
102
}
330
C
100
AcDbDictionary
281
     1
  0
DICTIONARY
  5
D
102
{ACAD_REACTORS
330
C
102
}
330
C
100
AcDbDictionary
281
     1
  0
DICTIONARY
  5
1A
102
{ACAD_REACTORS
330
C
102
}
330
C
100
AcDbDictionary
281
     1
  3
Arkusz1
350
D3
  3
Arkusz2
350
D7
  3
Model
350
22
  0
DICTIONARY
  5
6A
102
{ACAD_REACTORS
330
C
102
}
330
C
100
AcDbDictionary
281
     1
  3
ByBlock
350
ED
  3
ByLayer
350
EC
  3
Global
350
EE
  0
DICTIONARY
  5
12D
102
{ACAD_REACTORS
330
C
102
}
330
C
100
AcDbDictionary
281
     1
  3
Standard
350
12E
  0
DICTIONARY
  5
17
102
{ACAD_REACTORS
330
C
102
}
330
C
100
AcDbDictionary
281
     1
  3
SOLBET_IZOLACJA
350
7E9
  3
Standard
350
18
  0
DICTIONARY
  5
19
102
{ACAD_REACTORS
330
C
102
}
330
C
100
AcDbDictionary
281
     1
  0
ACDBDICTIONARYWDFLT
  5
E
102
{ACAD_REACTORS
330
C
102
}
330
C
100
AcDbDictionary
281
     1
  3
Normal
350
F
100
AcDbDictionaryWithDefault
340
F
  0
DICTIONARY
  5
10C
102
{ACAD_REACTORS
330
C
102
}
330
C
100
AcDbDictionary
281
     1
  3
A0
350
10D
  3
A1
350
188
  3
A2
350
189
  3
A3
350
18A
  3
A4
350
18B
  3
A5
350
18C
  3
A6
350
18D
  3
A7
350
18E
  3
A8
350
18F
  3
A9
350
190
  3
B0
350
191
  3
B1
350
192
  3
B2
350
193
  3
B3
350
194
  3
B4
350
195
  3
B5
350
196
  3
B6
350
197
  3
B7
350
198
  3
B8
350
199
  3
B9
350
19A
  3
C0
350
19B
  3
C1
350
19C
  3
C2
350
19D
  3
C3
350
19E
  3
C4
350
19F
  3
C5
350
1A0
  3
C6
350
1A1
  3
C7
350
1A2
  3
C8
350
1A3
  3
C9
350
1A4
  3
D0
350
1A5
  3
D1
350
1A6
  3
D2
350
1A7
  0
DICTIONARY
  5
7E
102
{ACAD_REACTORS
330
C
102
}
330
C
100
AcDbDictionary
281
     1
  3
Standard
350
7F
  0
DICTIONARY
  5
EF
102
{ACAD_REACTORS
330
C
102
}
330
C
100
AcDbDictionary
281
     1
  3
2dWireframe
350
F5
  3
3D Hidden
350
F7
  3
3dWireframe
350
F6
  3
Basic
350
F4
  3
Brighten
350
FB
  3
ColorChange
350
FF
  3
Conceptual
350
F8
  3
Dim
350
FA
  3
Facepattern
350
FE
  3
Flat
350
F0
  3
FlatWithEdges
350
F1
  3
Gouraud
350
F2
  3
GouraudWithEdges
350
F3
  3
Linepattern
350
FD
  3
Realistic
350
F9
  3
Thicken
350
FC
  0
XRECORD
  5
15D
102
{ACAD_REACTORS
330
C
102
}
330
C
100
AcDbXrecord
280
     1
 90
        1
330
7F
330
2315
330
27CF
330
2862
  0
DICTIONARY
  5
5E
102
{ACAD_REACTORS
330
C
102
}
330
C
100
AcDbDictionary
281
     1
  3
CANNOSCALE
350
146
  3
CMLEADERSTYLE
350
145
  3
CTABLESTYLE
350
84
  3
DIMASSOC
350
5F
  3
HIDETEXT
350
63
  3
INDEXCTL
350
466
  3
LIGHTINGUNITS
350
464
  3
MSLTSCALE
350
463
  3
PSOLHEIGHT
350
2BD5
  3
PSOLWIDTH
350
2BD4
  3
SORTENTS
350
465
  0
XRECORD
  5
2BD6
102
{ACAD_REACTORS
330
C
102
}
330
C
100
AcDbXrecord
280
     1
  1
DWGPROPS COOKIE
  2

  3

  4

  6

  7

  8
Olus
  9

300
=
301
=
302
=
303
=
304
=
305
=
306
=
307
=
308
=
309
=
 40
0.5709358217592593
 41
2454690.075573148
 42
2454848.861589167
  1

 90
        0
  0
DICTIONARY
  5
27AE
102
{ACAD_REACTORS
330
3E5
102
}
330
3E5
100
AcDbDictionary
281
     1
  0
DICTIONARY
  5
27AD
102
{ACAD_REACTORS
330
3E5
102
}
330
3E5
100
AcDbDictionary
281
     1
1001
ACAD
1000
<All
  0
XRECORD
  5
3F4
102
{ACAD_REACTORS
330
13C
102
}
330
13C
100
AcDbXrecord
280
     1
290
     1
  0
XRECORD
  5
404
102
{ACAD_REACTORS
330
403
102
}
330
403
100
AcDbXrecord
280
     1
290
     1
  0
XRECORD
  5
406
102
{ACAD_REACTORS
330
405
102
}
330
405
100
AcDbXrecord
280
     1
290
     1
  0
XRECORD
  5
408
102
{ACAD_REACTORS
330
407
102
}
330
407
100
AcDbXrecord
280
     1
290
     1
  0
XRECORD
  5
40A
102
{ACAD_REACTORS
330
409
102
}
330
409
100
AcDbXrecord
280
     1
290
     1
  0
XRECORD
  5
40C
102
{ACAD_REACTORS
330
40B
102
}
330
40B
100
AcDbXrecord
280
     1
290
     1
  0
XRECORD
  5
410
102
{ACAD_REACTORS
330
40F
102
}
330
40F
100
AcDbXrecord
280
     1
290
     1
  0
XRECORD
  5
412
102
{ACAD_REACTORS
330
411
102
}
330
411
100
AcDbXrecord
280
     1
290
     1
  0
XRECORD
  5
2A8C
102
{ACAD_REACTORS
330
2A8B
102
}
330
2A8B
100
AcDbXrecord
280
     1
 70
     1
340
10D
340
3DF
 70
    -1
  0
SORTENTSTABLE
  5
4A4
102
{ACAD_REACTORS
330
4A3
102
}
330
4A3
100
AcDbSortentsTable
330
1F
331
23E1
  5
247F
331
225D
  5
2283
331
229C
  5
22D0
331
2265
  5
228B
331
22A4
  5
22D8
331
2480
  5
22E1
331
23F9
  5
2486
331
226D
  5
2291
331
22E3
  5
23C6
331
2488
  5
22E9
331
2275
  5
229C
331
282B
  5
282A
331
24A0
  5
24A1
331
2409
  5
2267
331
227D
  5
22A7
331
22BC
  5
22FF
331
22F3
  5
23F7
331
23C2
  5
22BE
331
22C4
  5
232F
331
23DA
  5
6FC
331
22CC
  5
2392
331
2816
  5
2820
331
2295
  5
22C5
331
224C
  5
24A0
331
23E2
  5
6FB
331
225E
  5
2284
331
229D
  5
22D1
331
22D4
  5
2399
331
27E7
  5
22CA
331
2266
  5
228C
331
2481
  5
22E2
331
23FA
  5
2487
331
226E
  5
2295
331
22E4
  5
23C7
331
2489
  5
22EA
331
2402
  5
2260
331
27F7
  5
27E8
331
2824
  5
2823
331
282C
  5
282B
331
2894
  5
22C9
331
24A1
  5
24A2
331
240A
  5
2268
331
22BD
  5
2300
331
23C3
  5
2414
331
22C5
  5
2388
331
2314
  5
2409
331
23DB
  5
2477
331
228E
  5
22B8
331
22CD
  5
2393
331
2817
  5
2822
331
2296
  5
22C6
331
224D
  5
2274
331
2255
  5
2862
331
23E3
  5
2480
331
225F
  5
2285
331
22D5
  5
239A
331
27E8
  5
27E7
331
2267
  5
228D
331
2482
  5
22E3
331
23FB
  5
2488
331
226F
  5
2296
331
22E5
  5
23D8
331
248A
  5
22EB
331
2403
  5
2261
331
22B6
  5
22F8
331
2825
  5
2824
331
282D
  5
282C
331
24A2
  5
22DD
331
240B
  5
2269
331
27B9
  5
25BF
331
227F
  5
22A8
331
22BE
  5
2301
331
23C4
  5
243C
331
2287
  5
22AD
331
22C6
  5
238B
331
2315
  5
240A
331
23DC
  5
2478
331
228F
  5
22B9
331
22CE
  5
2394
331
2818
  5
2821
331
2297
  5
22CB
331
2246
  5
2258
331
224E
  5
2275
331
2258
  5
227C
331
23E4
  5
2481
331
2260
  5
2286
331
22D6
  5
239B
331
247B
  5
248F
331
22DE
  5
23C1
331
2483
  5
22E4
331
23FC
  5
2489
331
2270
  5
2297
331
22AF
  5
22F4
331
22E6
  5
23D9
331
248B
  5
22EC
331
2404
  5
2262
331
22B7
  5
22F9
331
27F9
  5
27EA
331
223F
  5
2242
331
2826
  5
2825
331
282E
  5
282D
331
2278
  5
229D
331
240C
  5
226A
331
22BF
  5
2302
331
2280
  5
2894
331
2809
  5
27FA
331
24AB
  5
24A7
331
23C5
  5
243D
331
2414
  5
2272
331
23DD
  5
2479
331
243C
  5
248C
331
2290
  5
22BB
331
22CF
  5
2395
331
224F
  5
2276
331
2259
  5
227F
331
2298
  5
22CC
331
2261
  5
2287
331
23F5
  5
2482
331
27EA
  5
27F9
331
2376
  5
2411
331
22DF
  5
23C2
331
2484
  5
22E5
331
23FD
  5
248A
331
2271
  5
2298
331
22B0
  5
22F5
331
22E7
  5
23DA
331
248C
  5
22ED
331
2405
  5
2263
331
22EF
  5
23E3
331
27FA
  5
27F8
331
2827
  5
2826
331
282F
  5
282E
331
2279
  5
22A0
331
22B8
  5
22FA
331
240D
  5
226B
331
2281
  5
22AA
331
22C0
  5
2303
331
280A
  5
2809
331
23C6
  5
2450
331
243D
  5
248D
331
2291
  5
22BF
331
2250
  5
2277
331
225A
  5
2280
331
22D0
  5
2396
331
2262
  5
2288
331
23F6
  5
2483
331
226A
  5
228E
331
22A9
  5
22DB
331
22E0
  5
23C3
331
23FE
  5
248B
331
2272
  5
2299
331
22B1
  5
22F6
331
22E8
  5
23DB
331
2485
  5
22E6
331
248D
  5
22EE
331
2406
  5
2264
331
2820
  5
280E
331
2828
  5
2827
331
227A
  5
22A3
331
22B9
  5
22FB
331
22F0
  5
23E4
331
280B
  5
280A
331
2282
  5
22AB
331
22C1
  5
2314
331
240E
  5
226C
331
228A
  5
22AE
331
23C7
  5
2474
331
23DF
  5
247B
331
2249
  5
225C
331
2251
  5
2278
331
225B
  5
2281
331
22D1
  5
2397
331
2476
  5
22C0
331
2263
  5
2289
331
247E
  5
22DF
331
23F7
  5
2484
331
2390
  5
240D
331
22AA
  5
22DC
331
22E1
  5
23C4
331
2486
  5
22E7
331
23FF
  5
225D
331
22E9
  5
23DC
331
248E
  5
22EF
331
2407
  5
2265
331
2829
  5
2828
331
227B
  5
22A4
331
22BA
  5
22FD
331
22F1
  5
23F5
331
280C
  5
280B
331
240F
  5
226D
331
22C2
  5
2315
331
2814
  5
281D
331
23D8
  5
2475
331
228B
  5
22B1
331
22CA
  5
238F
331
23E0
  5
247E
331
225C
  5
2282
331
229B
  5
22CF
331
22D2
  5
2398
331
2477
  5
22C1
331
2264
  5
228A
331
247F
  5
22E0
331
23F8
  5
2485
331
22E2
  5
23C5
331
2487
  5
22E8
331
2400
  5
225E
331
2274
  5
229A
331
248F
  5
22F0
331
2822
  5
281B
331
282A
  5
2829
331
2862
  5
2831
331
2408
  5
2266
331
227C
  5
22A6
331
22BB
  5
22FE
331
22F2
  5
23F6
331
2410
  5
226E
331
2284
  5
22AC
331
22C3
  5
232C
331
280D
  5
280C
331
23D9
  5
2476
331
228C
  5
22B7
331
22CB
  5
2391
331
2815
  5
281F
331
2450
  5
248E
331
2253
  5
227A
  0
SORTENTSTABLE
  5
2329
102
{ACAD_REACTORS
330
2328
102
}
330
2328
100
AcDbSortentsTable
330
231C
  0
SORTENTSTABLE
  5
23BC
102
{ACAD_REACTORS
330
23BB
102
}
330
23BB
100
AcDbSortentsTable
330
23B1
  0
SORTENTSTABLE
  5
2B0F
102
{ACAD_REACTORS
330
2B0E
102
}
330
2B0E
100
AcDbSortentsTable
330
2AFD
  0
SORTENTSTABLE
  5
2B21
102
{ACAD_REACTORS
330
2B20
102
}
330
2B20
100
AcDbSortentsTable
330
2B14
  0
XRECORD
  5
2BE3
102
{ACAD_REACTORS
330
2316
102
}
330
2316
100
AcDbXrecord
280
     1
 40
279046.0
  1
{\LDETAL 11\P}Sposób zamocowania stolarki w ścianie z dociepleniem
  0
DICTIONARY
  5
2317
102
{ACAD_REACTORS
330
2316
102
}
330
2316
100
AcDbDictionary
281
     1
  3
ACDB_ANNOTATIONSCALES
350
2318
  0
XRECORD
  5
2BE5
102
{ACAD_REACTORS
330
2BE4
102
}
330
2BE4
100
AcDbXrecord
280
     1
 40
25446.0
  1
Wieniec żelbetowy
  0
XRECORD
  5
2BE7
102
{ACAD_REACTORS
330
2BE6
102
}
330
2BE6
100
AcDbXrecord
280
     1
 40
16792.0
  1
Nadproża SOLBET
  0
XRECORD
  5
2BE9
102
{ACAD_REACTORS
330
2BE8
102
}
330
2BE8
100
AcDbXrecord
280
     1
 40
40925.0
  1
Profil tynkarski narożny
  0
XRECORD
  5
2BEB
102
{ACAD_REACTORS
330
2BEA
102
}
330
2BEA
100
AcDbXrecord
280
     1
 40
34960.0
  1
Warstwa wykończeniowa
  0
XRECORD
  5
2BED
102
{ACAD_REACTORS
330
2BEC
102
}
330
2BEC
100
AcDbXrecord
280
     1
 40
42625.0
  1
Płyty izolacyjne twarde
  0
XRECORD
  5
2A8E
102
{ACAD_REACTORS
330
2A8D
102
}
330
2A8D
100
AcDbXrecord
280
     1
 40
24757.0
  1
\pxqc;B\P(5 : 1)
  0
XRECORD
  5
2BEF
102
{ACAD_REACTORS
330
2BEE
102
}
330
2BEE
100
AcDbXrecord
280
     1
 40
34304.0
  1
Tynk zewnętrzny SOLBET 
  0
XRECORD
  5
2BF1
102
{ACAD_REACTORS
330
2BF0
102
}
330
2BF0
100
AcDbXrecord
280
     1
 40
124059.0
  1
Siatka z klejem SOLBET Gabit T\Pjeżeli wymagane
  0
XRECORD
  5
2BF3
102
{ACAD_REACTORS
330
2BF2
102
}
330
2BF2
100
AcDbXrecord
280
     1
 40
33358.0
  1
Tynk wewnętrzny SOLBET
  0
XRECORD
  5
2A90
102
{ACAD_REACTORS
330
2A8F
102
}
330
2A8F
100
AcDbXrecord
280
     1
 40
24693.0
  1
\pxqc;A\P(5 : 1)
  0
XRECORD
  5
2BA0
102
{ACAD_REACTORS
330
2B9F
102
}
330
2B9F
100
AcDbXrecord
280
     1
 40
24748.0
  1
\pxqc;C\P(5 : 1)
  0
LAYOUT
  5
D3
102
{ACAD_XDICTIONARY
360
2BDA
102
}
102
{ACAD_REACTORS
330
1A
102
}
330
1A
100
AcDbPlotSettings
  1

  2
C:\Documents and Settings\basas\Application Data\Autodesk\AutoCAD 2005\R16.1\enu\plotters\Default Windows System Printer.pc3
  4

  6

 40
0.0
 41
0.0
 42
0.0
 43
0.0
 44
0.0
 45
0.0
 46
0.0
 47
0.0
 48
0.0
 49
0.0
140
0.0
141
0.0
142
1.0
143
1.0
 70
   688
 72
     0
 73
     0
 74
     5
  7

 75
    16
147
1.0
148
0.0
149
0.0
100
AcDbLayout
  1
Arkusz1
 70
     1
 71
     1
 10
0.0
 20
0.0
 11
12.0
 21
9.0
 12
0.0
 22
0.0
 32
0.0
 14
0.0
 24
0.0
 34
0.0
 15
0.0
 25
0.0
 35
0.0
146
0.0
 13
0.0
 23
0.0
 33
0.0
 16
1.0
 26
0.0
 36
0.0
 17
0.0
 27
1.0
 37
0.0
 76
     0
330
D2
  0
LAYOUT
  5
D7
102
{ACAD_XDICTIONARY
360
2BDC
102
}
102
{ACAD_REACTORS
330
1A
102
}
330
1A
100
AcDbPlotSettings
  1

  2
C:\Documents and Settings\basas\Application Data\Autodesk\AutoCAD 2005\R16.1\enu\plotters\Default Windows System Printer.pc3
  4

  6

 40
0.0
 41
0.0
 42
0.0
 43
0.0
 44
0.0
 45
0.0
 46
0.0
 47
0.0
 48
0.0
 49
0.0
140
0.0
141
0.0
142
1.0
143
1.0
 70
   688
 72
     0
 73
     0
 74
     5
  7

 75
    16
147
1.0
148
0.0
149
0.0
100
AcDbLayout
  1
Arkusz2
 70
     1
 71
     2
 10
0.0
 20
0.0
 11
12.0
 21
9.0
 12
0.0
 22
0.0
 32
0.0
 14
0.0
 24
0.0
 34
0.0
 15
0.0
 25
0.0
 35
0.0
146
0.0
 13
0.0
 23
0.0
 33
0.0
 16
1.0
 26
0.0
 36
0.0
 17
0.0
 27
1.0
 37
0.0
 76
     0
330
D6
  0
LAYOUT
  5
22
102
{ACAD_XDICTIONARY
360
2BD7
102
}
102
{ACAD_REACTORS
330
1A
102
}
330
1A
100
AcDbPlotSettings
  1

  2
none_device
  4
Letter_(8.50_x_11.00_Inches)
  6

 40
6.349999904632568
 41
6.349999904632568
 42
6.350006103515625
 43
6.350006103515625
 44
215.8999938964844
 45
279.3999938964844
 46
11.54999923706054
 47
-13.65000009536743
 48
0.0
 49
0.0
140
210.0
141
297.0
142
1.0
143
1.0
 70
 11936
 72
     1
 73
     0
 74
     4
  7

 75
     0
147
0.9999999999999998
148
0.0
149
0.0
100
AcDbLayout
  1
Model
 70
     1
 71
     0
 10
0.0
 20
0.0
 11
12.0
 21
9.0
 12
0.0
 22
0.0
 32
0.0
 14
0.0
 24
0.0
 34
0.0
 15
0.0
 25
0.0
 35
0.0
146
0.0
 13
0.0
 23
0.0
 33
0.0
 16
1.0
 26
0.0
 36
0.0
 17
0.0
 27
1.0
 37
0.0
 76
     0
330
1F
331
EA
1001
ACAD_PSEXT
1000
Brak
1000
Brak
1000
Nie można zastosować.
1000
Arkusz nie zostanie wydrukowany dopóki nie wybrano konfiguracji plotera.
1070
     0
  0
MATERIAL
  5
ED
102
{ACAD_XDICTIONARY
360
2BE0
102
}
102
{ACAD_REACTORS
330
6A
102
}
330
6A
100
AcDbMaterial
  1
ByBlock
 73
     2
 78
     2
172
     2
176
     2
270
     2
274
     2
  0
MATERIAL
  5
EC
102
{ACAD_XDICTIONARY
360
2BDE
102
}
102
{ACAD_REACTORS
330
6A
102
}
330
6A
100
AcDbMaterial
  1
ByLayer
 73
     2
 78
     2
172
     2
176
     2
270
     2
274
     2
  0
MATERIAL
  5
EE
102
{ACAD_XDICTIONARY
360
173
102
}
102
{ACAD_REACTORS
330
6A
102
}
330
6A
100
AcDbMaterial
  1
Global
 73
     2
 43
0.0007999999797903
 43
0.0
 43
0.0
 43
0.0
 43
0.0
 43
0.0007999999797903
 43
0.0
 43
0.0
 43
0.0
 43
0.0
 43
1.0
 43
0.0
 43
0.0
 43
0.0
 43
0.0
 43
1.0
 78
     2
172
     2
 49
0.0007999999797903
 49
0.0
 49
0.0
 49
0.0
 49
0.0
 49
0.0007999999797903
 49
0.0
 49
0.0
 49
0.0
 49
0.0
 49
1.0
 49
0.0
 49
0.0
 49
0.0
 49
0.0
 49
1.0
176
     2
142
0.0007999999797903
142
0.0
142
0.0
142
0.0
142
0.0
142
0.0007999999797903
142
0.0
142
0.0
142
0.0
142
0.0
142
1.0
142
0.0
142
0.0
142
0.0
142
0.0
142
1.0
270
     2
144
0.0007999999797903
144
0.0
144
0.0
144
0.0
144
0.0
144
0.0007999999797903
144
0.0
144
0.0
144
0.0
144
0.0
144
1.0
144
0.0
144
0.0
144
0.0
144
0.0
144
1.0
274
     2
1001
ACAD
1070
    -1
1070
     3
1070
     0
1000

1071
        0
1070
     0
  0
ACAD_PROXY_OBJECT
  5
12E
102
{ACAD_REACTORS
330
12D
102
}
330
12D
100
AcDbProxyObject
 90
      499
 91
      508
 95
       23
 70
     0
 93
      618
310
40901902A4063FBFFFFFE0000000000000020400000000000020404254DD185B99185C99000000000000000104090140501A0000000000000410000000000000004102576400000000000003903F
340
14
340
0
340
11
340
0
 94
        0
1001
ACAD_MLEADERVER
1070
     2
1001
ACAD
1000
AcRTDxfName
1000
MLEADERSTYLE
1000
AcRTDxfName
1000
MLEADERSTYLE
  0
MLINESTYLE
  5
7E9
102
{ACAD_REACTORS
330
17
102
}
330
17
100
AcDbMlineStyle
  2
SOLBET_IZOLACJA
 70
   272
  3

 62
   256
 51
90.0
 52
90.0
 71
     2
 49
0.008
 62
   256
  6
BYLAYER
 49
-0.008
 62
   256
  6
BYLAYER
  0
MLINESTYLE
  5
18
102
{ACAD_REACTORS
330
17
102
}
330
17
100
AcDbMlineStyle
  2
STANDARD
 70
     0
  3

 62
   256
 51
90.0
 52
90.0
 71
     2
 49
0.5
 62
   256
  6
BYLAYER
 49
-0.5
 62
   256
  6
BYLAYER
  0
ACDBPLACEHOLDER
  5
F
102
{ACAD_REACTORS
330
E
102
}
330
E
  0
ACAD_PROXY_OBJECT
  5
10D
102
{ACAD_REACTORS
330
10C
102
}
330
10C
100
AcDbProxyObject
 90
      499
 91
      507
 95
       23
 70
     0
 93
       49
310
904313A31005FF
 94
        0
1001
ACAD
1000
AcRTDxfName
1000
SCALE
1000
AcRTDxfName
1000
SCALE
  0
ACAD_PROXY_OBJECT
  5
188
102
{ACAD_REACTORS
330
10C
102
}
330
10C
100
AcDbProxyObject
 90
      499
 91
      507
 95
       23
 70
     0
 93
      113
310
904313A3200400000000000000407F
 94
        0
1001
ACAD
1000
AcRTDxfName
1000
SCALE
1000
AcRTDxfName
1000
SCALE
  0
ACAD_PROXY_OBJECT
  5
189
102
{ACAD_REACTORS
330
10C
102
}
330
10C
100
AcDbProxyObject
 90
      499
 91
      507
 95
       23
 70
     0
 93
      113
310
904313A3400400000000000010407F
 94
        0
1001
ACAD
1000
AcRTDxfName
1000
SCALE
1000
AcRTDxfName
1000
SCALE
  0
ACAD_PROXY_OBJECT
  5
18A
102
{ACAD_REACTORS
330
10C
102
}
330
10C
100
AcDbProxyObject
 90
      499
 91
      507
 95
       23
 70
     0
 93
      113
310
904313A3500400000000000014407F
 94
        0
1001
ACAD
1000
AcRTDxfName
1000
SCALE
1000
AcRTDxfName
1000
SCALE
  0
ACAD_PROXY_OBJECT
  5
18B
102
{ACAD_REACTORS
330
10C
102
}
330
10C
100
AcDbProxyObject
 90
      499
 91
      507
 95
       23
 70
     0
 93
      113
310
904313A3800400000000000020407F
 94
        0
1001
ACAD
1000
AcRTDxfName
1000
SCALE
1000
AcRTDxfName
1000
SCALE
  0
ACAD_PROXY_OBJECT
  5
18C
102
{ACAD_REACTORS
330
10C
102
}
330
10C
100
AcDbProxyObject
 90
      499
 91
      507
 95
       23
 70
     0
 93
      121
310
905313A313000400000000000024407F
 94
        0
1001
ACAD
1000
AcRTDxfName
1000
SCALE
1000
AcRTDxfName
1000
SCALE
  0
ACAD_PROXY_OBJECT
  5
18D
102
{ACAD_REACTORS
330
10C
102
}
330
10C
100
AcDbProxyObject
 90
      499
 91
      507
 95
       23
 70
     0
 93
      121
310
905313A313600400000000000030407F
 94
        0
1001
ACAD
1000
AcRTDxfName
1000
SCALE
1000
AcRTDxfName
1000
SCALE
  0
ACAD_PROXY_OBJECT
  5
18E
102
{ACAD_REACTORS
330
10C
102
}
330
10C
100
AcDbProxyObject
 90
      499
 91
      507
 95
       23
 70
     0
 93
      121
310
905313A323000400000000000034407F
 94
        0
1001
ACAD
1000
AcRTDxfName
1000
SCALE
1000
AcRTDxfName
1000
SCALE
  0
ACAD_PROXY_OBJECT
  5
18F
102
{ACAD_REACTORS
330
10C
102
}
330
10C
100
AcDbProxyObject
 90
      499
 91
      507
 95
       23
 70
     0
 93
      121
310
905313A33300040000000000003E407F
 94
        0
1001
ACAD
1000
AcRTDxfName
1000
SCALE
1000
AcRTDxfName
1000
SCALE
  0
ACAD_PROXY_OBJECT
  5
190
102
{ACAD_REACTORS
330
10C
102
}
330
10C
100
AcDbProxyObject
 90
      499
 91
      507
 95
       23
 70
     0
 93
      121
310
905313A343000400000000000044407F
 94
        0
1001
ACAD
1000
AcRTDxfName
1000
SCALE
1000
AcRTDxfName
1000
SCALE
  0
ACAD_PROXY_OBJECT
  5
191
102
{ACAD_REACTORS
330
10C
102
}
330
10C
100
AcDbProxyObject
 90
      499
 91
      507
 95
       23
 70
     0
 93
      121
310
905313A353000400000000000049407F
 94
        0
1001
ACAD
1000
AcRTDxfName
1000
SCALE
1000
AcRTDxfName
1000
SCALE
  0
ACAD_PROXY_OBJECT
  5
192
102
{ACAD_REACTORS
330
10C
102
}
330
10C
100
AcDbProxyObject
 90
      499
 91
      507
 95
       23
 70
     0
 93
      129
310
906313A31303000400000000000059407F
 94
        0
1001
ACAD
1000
AcRTDxfName
1000
SCALE
1000
AcRTDxfName
1000
SCALE
  0
ACAD_PROXY_OBJECT
  5
193
102
{ACAD_REACTORS
330
10C
102
}
330
10C
100
AcDbProxyObject
 90
      499
 91
      507
 95
       23
 70
     0
 93
      113
310
904323A3100000000000000001017F
 94
        0
1001
ACAD
1000
AcRTDxfName
1000
SCALE
1000
AcRTDxfName
1000
SCALE
  0
ACAD_PROXY_OBJECT
  5
194
102
{ACAD_REACTORS
330
10C
102
}
330
10C
100
AcDbProxyObject
 90
      499
 91
      507
 95
       23
 70
     0
 93
      113
310
904343A3100000000000000041017F
 94
        0
1001
ACAD
1000
AcRTDxfName
1000
SCALE
1000
AcRTDxfName
1000
SCALE
  0
ACAD_PROXY_OBJECT
  5
195
102
{ACAD_REACTORS
330
10C
102
}
330
10C
100
AcDbProxyObject
 90
      499
 91
      507
 95
       23
 70
     0
 93
      113
310
904383A3100000000000000081017F
 94
        0
1001
ACAD
1000
AcRTDxfName
1000
SCALE
1000
AcRTDxfName
1000
SCALE
  0
ACAD_PROXY_OBJECT
  5
196
102
{ACAD_REACTORS
330
10C
102
}
330
10C
100
AcDbProxyObject
 90
      499
 91
      507
 95
       23
 70
     0
 93
      121
310
90531303A3100000000000000091017F
 94
        0
1001
ACAD
1000
AcRTDxfName
1000
SCALE
1000
AcRTDxfName
1000
SCALE
  0
ACAD_PROXY_OBJECT
  5
197
102
{ACAD_REACTORS
330
10C
102
}
330
10C
100
AcDbProxyObject
 90
      499
 91
      507
 95
       23
 70
     0
 93
      129
310
9063130303A3100000000000000165017F
 94
        0
1001
ACAD
1000
AcRTDxfName
1000
SCALE
1000
AcRTDxfName
1000
SCALE
  0
ACAD_PROXY_OBJECT
  5
198
102
{ACAD_REACTORS
330
10C
102
}
330
10C
100
AcDbProxyObject
 90
      499
 91
      507
 95
       23
 70
     0
 93
      265
310
90F312F31323822203D2031272D302200000000000000200FC00000000000028407F
 94
        0
1001
ACAD
1000
AcRTDxfName
1000
SCALE
1000
AcRTDxfName
1000
SCALE
  0
ACAD_PROXY_OBJECT
  5
199
102
{ACAD_REACTORS
330
10C
102
}
330
10C
100
AcDbProxyObject
 90
      499
 91
      507
 95
       23
 70
     0
 93
      257
310
90E312F363422203D2031272D302200000000000000240FC00000000000028407F
 94
        0
1001
ACAD
1000
AcRTDxfName
1000
SCALE
1000
AcRTDxfName
1000
SCALE
  0
ACAD_PROXY_OBJECT
  5
19A
102
{ACAD_REACTORS
330
10C
102
}
330
10C
100
AcDbProxyObject
 90
      499
 91
      507
 95
       23
 70
     0
 93
      257
310
90E312F333222203D2031272D302200000000000000280FC00000000000028407F
 94
        0
1001
ACAD
1000
AcRTDxfName
1000
SCALE
1000
AcRTDxfName
1000
SCALE
  0
ACAD_PROXY_OBJECT
  5
19B
102
{ACAD_REACTORS
330
10C
102
}
330
10C
100
AcDbProxyObject
 90
      499
 91
      507
 95
       23
 70
     0
 93
      257
310
90E312F313622203D2031272D3022000000000000002C0FC00000000000028407F
 94
        0
1001
ACAD
1000
AcRTDxfName
1000
SCALE
1000
AcRTDxfName
1000
SCALE
  0
ACAD_PROXY_OBJECT
  5
19C
102
{ACAD_REACTORS
330
10C
102
}
330
10C
100
AcDbProxyObject
 90
      499
 91
      507
 95
       23
 70
     0
 93
      257
310
90E332F333222203D2031272D3022000000000000002E0FC00000000000028407F
 94
        0
1001
ACAD
1000
AcRTDxfName
1000
SCALE
1000
AcRTDxfName
1000
SCALE
  0
ACAD_PROXY_OBJECT
  5
19D
102
{ACAD_REACTORS
330
10C
102
}
330
10C
100
AcDbProxyObject
 90
      499
 91
      507
 95
       23
 70
     0
 93
      249
310
90D312F3822203D2031272D302200000000000000300FC00000000000028407F
 94
        0
1001
ACAD
1000
AcRTDxfName
1000
SCALE
1000
AcRTDxfName
1000
SCALE
  0
ACAD_PROXY_OBJECT
  5
19E
102
{ACAD_REACTORS
330
10C
102
}
330
10C
100
AcDbProxyObject
 90
      499
 91
      507
 95
       23
 70
     0
 93
      257
310
90E332F313622203D2031272D302200000000000000320FC00000000000028407F
 94
        0
1001
ACAD
1000
AcRTDxfName
1000
SCALE
1000
AcRTDxfName
1000
SCALE
  0
ACAD_PROXY_OBJECT
  5
19F
102
{ACAD_REACTORS
330
10C
102
}
330
10C
100
AcDbProxyObject
 90
      499
 91
      507
 95
       23
 70
     0
 93
      249
310
90D312F3422203D2031272D302200000000000000340FC00000000000028407F
 94
        0
1001
ACAD
1000
AcRTDxfName
1000
SCALE
1000
AcRTDxfName
1000
SCALE
  0
ACAD_PROXY_OBJECT
  5
1A0
102
{ACAD_REACTORS
330
10C
102
}
330
10C
100
AcDbProxyObject
 90
      499
 91
      507
 95
       23
 70
     0
 93
      249
310
90D332F3822203D2031272D302200000000000000360FC00000000000028407F
 94
        0
1001
ACAD
1000
AcRTDxfName
1000
SCALE
1000
AcRTDxfName
1000
SCALE
  0
ACAD_PROXY_OBJECT
  5
1A1
102
{ACAD_REACTORS
330
10C
102
}
330
10C
100
AcDbProxyObject
 90
      499
 91
      507
 95
       23
 70
     0
 93
      249
310
90D312F3222203D2031272D302200000000000000380FC00000000000028407F
 94
        0
1001
ACAD
1000
AcRTDxfName
1000
SCALE
1000
AcRTDxfName
1000
SCALE
  0
ACAD_PROXY_OBJECT
  5
1A2
102
{ACAD_REACTORS
330
10C
102
}
330
10C
100
AcDbProxyObject
 90
      499
 91
      507
 95
       23
 70
     0
 93
      249
310
90D332F3422203D2031272D3022000000000000003A0FC00000000000028407F
 94
        0
1001
ACAD
1000
AcRTDxfName
1000
SCALE
1000
AcRTDxfName
1000
SCALE
  0
ACAD_PROXY_OBJECT
  5
1A3
102
{ACAD_REACTORS
330
10C
102
}
330
10C
100
AcDbProxyObject
 90
      499
 91
      507
 95
       23
 70
     0
 93
      169
310
90B3122203D2031272D302200400000000000028407F
 94
        0
1001
ACAD
1000
AcRTDxfName
1000
SCALE
1000
AcRTDxfName
1000
SCALE
  0
ACAD_PROXY_OBJECT
  5
1A4
102
{ACAD_REACTORS
330
10C
102
}
330
10C
100
AcDbProxyObject
 90
      499
 91
      507
 95
       23
 70
     0
 93
      265
310
90F312D312F3222203D2031272D3022000000000000003E0FC00000000000028407F
 94
        0
1001
ACAD
1000
AcRTDxfName
1000
SCALE
1000
AcRTDxfName
1000
SCALE
  0
ACAD_PROXY_OBJECT
  5
1A5
102
{ACAD_REACTORS
330
10C
102
}
330
10C
100
AcDbProxyObject
 90
      499
 91
      507
 95
       23
 70
     0
 93
      233
310
90B3322203D2031272D3022000000000000000210000000000000028407F
 94
        0
1001
ACAD
1000
AcRTDxfName
1000
SCALE
1000
AcRTDxfName
1000
SCALE
  0
ACAD_PROXY_OBJECT
  5
1A6
102
{ACAD_REACTORS
330
10C
102
}
330
10C
100
AcDbProxyObject
 90
      499
 91
      507
 95
       23
 70
     0
 93
      233
310
90B3622203D2031272D3022000000000000000610000000000000028407F
 94
        0
1001
ACAD
1000
AcRTDxfName
1000
SCALE
1000
AcRTDxfName
1000
SCALE
  0
ACAD_PROXY_OBJECT
  5
1A7
102
{ACAD_REACTORS
330
10C
102
}
330
10C
100
AcDbProxyObject
 90
      499
 91
      507
 95
       23
 70
     0
 93
      257
310
90E31272D3022203D2031272D3022000000000000000A10000000000000028407F
 94
        0
1001
ACAD
1000
AcRTDxfName
1000
SCALE
1000
AcRTDxfName
1000
SCALE
  0
TABLESTYLE
  5
7F
102
{ACAD_XDICTIONARY
360
162
102
}
102
{ACAD_REACTORS
330
7E
102
}
330
7E
100
AcDbTableStyle
  3
Standard
 70
     0
 71
     0
 40
1.5
 41
1.5
280
     0
281
     0
  7
Standard
140
4.5
170
     2
 62
     0
 63
     7
283
     0
274
    -2
284
     1
 64
     0
275
    -2
285
     1
 65
     0
276
    -2
286
     1
 66
     0
277
    -2
287
     1
 67
     0
278
    -2
288
     1
 68
     0
279
    -2
289
     1
 69
     0
  7
Standard
140
6.0
170
     5
 62
     0
 63
     7
283
     0
274
    -2
284
     1
 64
     0
275
    -2
285
     1
 65
     0
276
    -2
286
     1
 66
     0
277
    -2
287
     1
 67
     0
278
    -2
288
     1
 68
     0
279
    -2
289
     1
 69
     0
  7
Standard
140
4.5
170
     5
 62
     0
 63
     7
283
     0
274
    -2
284
     1
 64
     0
275
    -2
285
     1
 65
     0
276
    -2
286
     1
 66
     0
277
    -2
287
     1
 67
     0
278
    -2
288
     1
 68
     0
279
    -2
289
     1
 69
     0
  0
VISUALSTYLE
  5
F5
102
{ACAD_REACTORS
330
EF
102
}
330
EF
100
AcDbVisualStyle
  2
2dWireframe
 70
     4
 71
     0
 72
     2
 73
     1
 90
        0
 40
-0.6
 41
-30.0
 62
     5
 63
     7
 74
     1
 91
        4
 64
     7
 65
   257
 75
     1
175
     1
 42
1.0
 92
        0
 66
   257
 43
1.0
 76
     1
 77
     6
 78
     2
 67
     7
 79
     5
170
     0
171
     0
290
     0
174
     0
 93
        1
 44
0.0
173
     0
291
     0
 45
0.0
1001
ACAD
1000
AcDbSavedByObjectVersion
1070
     0
  0
VISUALSTYLE
  5
F7
102
{ACAD_REACTORS
330
EF
102
}
330
EF
100
AcDbVisualStyle
  2
3D Hidden
 70
     6
 71
     1
 72
     2
 73
     2
 90
        0
 40
-0.6
 41
-30.0
 62
     5
 63
     7
 74
     2
 91
        2
 64
     7
 65
   257
 75
     2
175
     1
 42
40.0
 92
        0
 66
   257
 43
1.0
 76
     1
 77
     6
 78
     2
 67
     7
 79
     3
170
     0
171
     0
290
     0
174
     0
 93
        1
 44
0.0
173
     0
291
     0
 45
0.0
1001
ACAD
1000
AcDbSavedByObjectVersion
1070
     0
  0
VISUALSTYLE
  5
F6
102
{ACAD_REACTORS
330
EF
102
}
330
EF
100
AcDbVisualStyle
  2
3dWireframe
 70
     5
 71
     0
 72
     2
 73
     1
 90
        0
 40
-0.6
 41
-30.0
 62
     5
 63
     7
 74
     1
 91
        4
 64
     7
 65
   257
 75
     1
175
     1
 42
1.0
 92
        0
 66
   257
 43
1.0
 76
     1
 77
     6
 78
     2
 67
     7
 79
     5
170
     0
171
     0
290
     0
174
     0
 93
        1
 44
0.0
173
     0
291
     0
 45
0.0
1001
ACAD
1000
AcDbSavedByObjectVersion
1070
     0
  0
VISUALSTYLE
  5
F4
102
{ACAD_REACTORS
330
EF
102
}
330
EF
100
AcDbVisualStyle
  2
Basic
 70
     7
 71
     1
 72
     0
 73
     1
 90
        0
 40
-0.6
 41
-30.0
 62
     5
 63
     7
 74
     0
 91
        4
 64
     7
 65
   257
 75
     1
175
     1
 42
1.0
 92
        8
 66
     7
 43
1.0
 76
     1
 77
     6
 78
     2
 67
     7
 79
     5
170
     0
171
     0
290
     0
174
     0
 93
        1
 44
0.0
173
     0
291
     1
 45
0.0
1001
ACAD
1000
AcDbSavedByObjectVersion
1070
     0
  0
VISUALSTYLE
  5
FB
102
{ACAD_REACTORS
330
EF
102
}
330
EF
100
AcDbVisualStyle
  2
Brighten
 70
    12
 71
     2
 72
     2
 73
     1
 90
        0
 40
-0.6
 41
-30.0
 62
     5
 63
     7
 74
     1
 91
        4
 64
     7
 65
   257
 75
     1
175
     1
 42
1.0
 92
        8
 66
     7
 43
1.0
 76
     1
 77
     6
 78
     2
 67
     7
 79
     5
170
     0
171
     0
290
     0
174
     0
 93
        1
 44
50.0
173
     0
291
     1
 45
0.0
1001
ACAD
1000
AcDbSavedByObjectVersion
1070
     0
  0
VISUALSTYLE
  5
FF
102
{ACAD_REACTORS
330
EF
102
}
330
EF
100
AcDbVisualStyle
  2
ColorChange
 70
    16
 71
     2
 72
     2
 73
     3
 90
        0
 40
-0.6
 41
-30.0
 62
     5
 63
     8
 74
     1
 91
        4
 64
     7
 65
   257
 75
     1
175
     1
 42
1.0
 92
        8
 66
     8
 43
1.0
 76
     1
 77
     6
 78
     2
 67
     7
 79
     5
170
     0
171
     0
290
     0
174
     0
 93
        1
 44
0.0
173
     0
291
     1
 45
0.0
1001
ACAD
1000
AcDbSavedByObjectVersion
1070
     0
  0
VISUALSTYLE
  5
F8
102
{ACAD_REACTORS
330
EF
102
}
330
EF
100
AcDbVisualStyle
  2
Conceptual
 70
     9
 71
     3
 72
     2
 73
     1
 90
        0
 40
-0.6
 41
-30.0
 62
     5
 63
     7
 74
     2
 91
        2
 64
     7
 65
   257
 75
     1
175
     1
 42
40.0
 92
        8
 66
     7
 43
1.0
 76
     1
 77
     6
 78
     2
 67
     7
 79
     3
170
     0
171
     0
290
     0
174
     0
 93
        1
 44
0.0
173
     0
291
     0
 45
0.0
1001
ACAD
1000
AcDbSavedByObjectVersion
1070
     0
  0
VISUALSTYLE
  5
FA
102
{ACAD_REACTORS
330
EF
102
}
330
EF
100
AcDbVisualStyle
  2
Dim
 70
    11
 71
     2
 72
     2
 73
     1
 90
        0
 40
-0.6
 41
-30.0
 62
     5
 63
     7
 74
     1
 91
        4
 64
     7
 65
   257
 75
     1
175
     1
 42
1.0
 92
        8
 66
     7
 43
1.0
 76
     1
 77
     6
 78
     2
 67
     7
 79
     5
170
     0
171
     0
290
     0
174
     0
 93
        1
 44
-50.0
173
     0
291
     1
 45
0.0
1001
ACAD
1000
AcDbSavedByObjectVersion
1070
     0
  0
VISUALSTYLE
  5
FE
102
{ACAD_REACTORS
330
EF
102
}
330
EF
100
AcDbVisualStyle
  2
Facepattern
 70
    15
 71
     2
 72
     2
 73
     1
 90
        0
 40
-0.6
 41
-30.0
 62
     5
 63
     7
 74
     1
 91
        4
 64
     7
 65
   257
 75
     1
175
     1
 42
1.0
 92
        8
 66
     7
 43
1.0
 76
     1
 77
     6
 78
     2
 67
     7
 79
     5
170
     0
171
     0
290
     0
174
     0
 93
        1
 44
0.0
173
     0
291
     1
 45
0.0
1001
ACAD
1000
AcDbSavedByObjectVersion
1070
     0
  0
VISUALSTYLE
  5
F0
102
{ACAD_REACTORS
330
EF
102
}
330
EF
100
AcDbVisualStyle
  2
Flat
 70
     0
 71
     2
 72
     1
 73
     1
 90
        2
 40
-0.6
 41
30.0
 62
     5
 63
     7
 74
     0
 91
        4
 64
     7
 65
   257
 75
     1
175
     1
 42
1.0
 92
        8
 66
     7
 43
1.0
 76
     1
 77
     6
 78
     2
 67
     7
 79
     5
170
     0
171
     0
290
     0
174
     0
 93
        1
 44
0.0
173
     0
291
     1
 45
0.0
1001
ACAD
1000
AcDbSavedByObjectVersion
1070
     0
  0
VISUALSTYLE
  5
F1
102
{ACAD_REACTORS
330
EF
102
}
330
EF
100
AcDbVisualStyle
  2
FlatWithEdges
 70
     1
 71
     2
 72
     1
 73
     1
 90
        2
 40
-0.6
 41
30.0
 62
     5
 63
     7
 74
     1
 91
        4
 64
     7
 65
   257
 75
     1
175
     1
 42
1.0
 92
        0
 66
   257
 43
1.0
 76
     1
 77
     6
 78
     2
 67
     7
 79
     5
170
     0
171
     0
290
     0
174
     0
 93
        1
 44
0.0
173
     0
291
     1
 45
0.0
1001
ACAD
1000
AcDbSavedByObjectVersion
1070
     0
  0
VISUALSTYLE
  5
F2
102
{ACAD_REACTORS
330
EF
102
}
330
EF
100
AcDbVisualStyle
  2
Gouraud
 70
     2
 71
     2
 72
     2
 73
     1
 90
        2
 40
-0.6
 41
30.0
 62
     5
 63
     7
 74
     0
 91
        4
 64
     7
 65
   257
 75
     1
175
     1
 42
1.0
 92
        0
 66
     7
 43
1.0
 76
     1
 77
     6
 78
     2
 67
     7
 79
     5
170
     0
171
     0
290
     0
174
     0
 93
        1
 44
0.0
173
     0
291
     1
 45
0.0
1001
ACAD
1000
AcDbSavedByObjectVersion
1070
     0
  0
VISUALSTYLE
  5
F3
102
{ACAD_REACTORS
330
EF
102
}
330
EF
100
AcDbVisualStyle
  2
GouraudWithEdges
 70
     3
 71
     2
 72
     2
 73
     1
 90
        2
 40
-0.6
 41
30.0
 62
     5
 63
     7
 74
     1
 91
        4
 64
     7
 65
   257
 75
     1
175
     1
 42
1.0
 92
        0
 66
   257
 43
1.0
 76
     1
 77
     6
 78
     2
 67
     7
 79
     5
170
     0
171
     0
290
     0
174
     0
 93
        1
 44
0.0
173
     0
291
     1
 45
0.0
1001
ACAD
1000
AcDbSavedByObjectVersion
1070
     0
  0
VISUALSTYLE
  5
FD
102
{ACAD_REACTORS
330
EF
102
}
330
EF
100
AcDbVisualStyle
  2
Linepattern
 70
    14
 71
     2
 72
     2
 73
     1
 90
        0
 40
-0.6
 41
-30.0
 62
     5
 63
     7
 74
     1
 91
        4
 64
     7
 65
   257
 75
     7
175
     7
 42
1.0
 92
        8
 66
     7
 43
1.0
 76
     1
 77
     6
 78
     2
 67
     7
 79
     5
170
     0
171
     0
290
     0
174
     0
 93
        1
 44
0.0
173
     0
291
     1
 45
0.0
1001
ACAD
1000
AcDbSavedByObjectVersion
1070
     0
  0
VISUALSTYLE
  5
F9
102
{ACAD_REACTORS
330
EF
102
}
330
EF
100
AcDbVisualStyle
  2
Realistic
 70
     8
 71
     2
 72
     2
 73
     1
 90
        0
 40
-0.6
 41
-30.0
 62
     5
 63
     7
 74
     1
 91
        0
 64
     7
 65
   257
 75
     1
175
     1
 42
1.0
 92
        8
 66
     8
 43
1.0
 76
     1
 77
     6
 78
     2
 67
     7
 79
     5
170
     0
171
     0
290
     0
174
     0
 93
       13
 44
0.0
173
     0
291
     0
 45
0.0
1001
ACAD
1000
AcDbSavedByObjectVersion
1070
     0
  0
VISUALSTYLE
  5
FC
102
{ACAD_REACTORS
330
EF
102
}
330
EF
100
AcDbVisualStyle
  2
Thicken
 70
    13
 71
     2
 72
     2
 73
     1
 90
        0
 40
-0.6
 41
-30.0
 62
     5
 63
     7
 74
     1
 91
        4
 64
     7
 65
   257
 75
     1
175
     1
 42
1.0
 92
       12
 66
     7
 43
1.0
 76
     1
 77
     6
 78
     2
 67
     7
 79
     5
170
     0
171
     0
290
     0
174
     0
 93
        1
 44
0.0
173
     0
291
     1
 45
0.0
1001
ACAD
1000
AcDbSavedByObjectVersion
1070
     0
  0
DICTIONARYVAR
  5
146
102
{ACAD_REACTORS
330
5E
102
}
330
5E
100
DictionaryVariables
280
     0
  1
1:1
  0
DICTIONARYVAR
  5
145
102
{ACAD_REACTORS
330
5E
102
}
330
5E
100
DictionaryVariables
280
     0
  1
STANDARD
  0
DICTIONARYVAR
  5
84
102
{ACAD_REACTORS
330
5E
102
}
330
5E
100
DictionaryVariables
280
     0
  1
STANDARD
  0
DICTIONARYVAR
  5
5F
102
{ACAD_REACTORS
330
5E
102
}
330
5E
100
DictionaryVariables
280
     0
  1
2
  0
DICTIONARYVAR
  5
63
102
{ACAD_REACTORS
330
5E
102
}
330
5E
100
DictionaryVariables
280
     0
  1
1
  0
DICTIONARYVAR
  5
466
102
{ACAD_REACTORS
330
5E
102
}
330
5E
100
DictionaryVariables
280
     0
  1
0
  0
DICTIONARYVAR
  5
464
102
{ACAD_REACTORS
330
5E
102
}
330
5E
100
DictionaryVariables
280
     0
  1
2
  0
DICTIONARYVAR
  5
463
102
{ACAD_REACTORS
330
5E
102
}
330
5E
100
DictionaryVariables
280
     0
  1
1
  0
DICTIONARYVAR
  5
2BD5
102
{ACAD_REACTORS
330
5E
102
}
330
5E
100
DictionaryVariables
280
     0
  1
80.000000
  0
DICTIONARYVAR
  5
2BD4
102
{ACAD_REACTORS
330
5E
102
}
330
5E
100
DictionaryVariables
280
     0
  1
5.000000
  0
DICTIONARYVAR
  5
465
102
{ACAD_REACTORS
330
5E
102
}
330
5E
100
DictionaryVariables
280
     0
  1
127
  0
DICTIONARY
  5
2318
102
{ACAD_REACTORS
330
2317
102
}
330
2317
100
AcDbDictionary
281
     1
  0
DICTIONARY
  5
2BDA
330
D3
100
AcDbDictionary
280
     1
281
     1
  3
ACAD_XREC_ROUNDTRIP
360
2BDB
  0
DICTIONARY
  5
2BDC
330
D7
100
AcDbDictionary
280
     1
281
     1
  3
ACAD_XREC_ROUNDTRIP
360
2BDD
  0
DICTIONARY
  5
2BD7
330
22
100
AcDbDictionary
280
     1
281
     1
  3
ACAD_XREC_ROUNDTRIP
360
2BD8
  0
DICTIONARY
  5
2BE0
330
ED
100
AcDbDictionary
280
     1
281
     1
  3
ACAD_XREC_ROUNDTRIP
360
2BE1
  0
DICTIONARY
  5
2BDE
330
EC
100
AcDbDictionary
280
     1
281
     1
  3
ACAD_XREC_ROUNDTRIP
360
2BDF
  0
DICTIONARY
  5
173
330
EE
100
AcDbDictionary
280
     1
281
     1
  3
ACAD_XREC_ROUNDTRIP
360
2BE2
  3
BUMPTILE
360
175
  3
DIFFUSETILE
360
174
  3
OPACITYTILE
360
176
  3
REFLECTIONTILE
360
177
  0
DICTIONARY
  5
162
330
7F
100
AcDbDictionary
280
     1
281
     1
  3
ACAD_ROUNDTRIP_2008_TABLESTYLE_CELLSTYLEMAP
360
2A89
  3
ACAD_XREC_ROUNDTRIP
360
2BD9
  0
XRECORD
  5
2BDB
102
{ACAD_REACTORS
330
2BDA
102
}
330
2BDA
100
AcDbXrecord
280
     1
102
SHADEPLOT
 70
     0
102
SHADEPLOTRESLEVEL
 70
     2
102
SHADEPLOTCUSTOMDPI
 70
   300
  0
XRECORD
  5
2BDD
102
{ACAD_REACTORS
330
2BDC
102
}
330
2BDC
100
AcDbXrecord
280
     1
102
SHADEPLOT
 70
     0
102
SHADEPLOTRESLEVEL
 70
     2
102
SHADEPLOTCUSTOMDPI
 70
   300
  0
XRECORD
  5
2BD8
102
{ACAD_REACTORS
330
2BD7
102
}
330
2BD7
100
AcDbXrecord
280
     1
102
SHADEPLOT
 70
     0
102
SHADEPLOTRESLEVEL
 70
     2
102
SHADEPLOTCUSTOMDPI
 70
   300
  0
XRECORD
  5
2BE1
102
{ACAD_REACTORS
330
2BE0
102
}
330
2BE0
100
AcDbXrecord
280
     1
102
MATERIAL
148
0.0
149
0.0
149
0.0
 93
        0
 94
       63
282
     0
 72
     1
 77
     1
171
     1
175
     1
179
     1
273
     0
  0
XRECORD
  5
2BDF
102
{ACAD_REACTORS
330
2BDE
102
}
330
2BDE
100
AcDbXrecord
280
     1
102
MATERIAL
148
0.0
149
0.0
149
0.0
 93
        0
 94
       63
282
     0
 72
     1
 77
     1
171
     1
175
     1
179
     1
273
     0
  0
XRECORD
  5
2BE2
102
{ACAD_REACTORS
330
173
102
}
330
173
100
AcDbXrecord
280
     1
102
MATERIAL
148
0.0
149
0.0
149
0.0
 93
        0
 94
       63
282
     0
 72
     1
 77
     1
171
     1
175
     1
179
     1
273
     0
  0
XRECORD
  5
175
102
{ACAD_REACTORS
330
173
102
}
330
173
100
AcDbXrecord
280
     1
270
     1
271
     1
  0
XRECORD
  5
174
102
{ACAD_REACTORS
330
173
102
}
330
173
100
AcDbXrecord
280
     1
270
     1
271
     1
  0
XRECORD
  5
176
102
{ACAD_REACTORS
330
173
102
}
330
173
100
AcDbXrecord
280
     1
270
     1
271
     1
  0
XRECORD
  5
177
102
{ACAD_REACTORS
330
173
102
}
330
173
100
AcDbXrecord
280
     1
270
     1
271
     1
  0
ACAD_PROXY_OBJECT
  5
2A89
102
{ACAD_REACTORS
330
162
102
}
330
162
100
AcDbProxyObject
 90
      499
 91
      509
 95
       23
 70
     0
 93
     5304
310
40D054060020000020000003200101A000080002A5058000000C10000000000000006101010000000000003E0FC000000000000F83F0000000000003E0FC000000000000F83F000000000000049000000000000001240419019018000000C1003FBFFFFFE0000000000003C8FD029018000000C1003FBFFFFFE00000000000
310
03C8FD049018000000C1003FBFFFFFE0000000000003C8FD089018000000C1003FBFFFFFE0000000000003C8FD109018000000C1003FBFFFFFE0000000000003C8FD209018000000C1003FBFFFFFE0000000000003C8FD01405075F5449544C450041501A8000000C800406800020000A94160000003040000000000000012
310
40404000000000000F83F0000000000003E0FC000000000000F83F0000000000003E0FC0000000000001240000000000000049010640640600000030400FEFFFFFF8000000000000F23F40A40600000030400FEFFFFFF8000000000000F23F41240600000030400FEFFFFFF8000000000000F23F42240600000030400FEFFF
310
FFF8000000000000F23F44240600000030400FEFFFFFF8000000000000F23F48240600000030400FEFFFFFF8000000000000F23F409014217D2115051115480105406A0000003200101A000080002A5028000000C10000000000000004901010000000000003E0FC000000000000F83F0000000000003E0FC000000000000F
310
83F000000000000049000000000000001240419019018000000C1003FBFFFFFE0000000000003C8FD029018000000C1003FBFFFFFE0000000000003C8FD049018000000C1003FBFFFFFE0000000000003C8FD089018000000C1003FBFFFFFE0000000000003C8FD109018000000C1003FBFFFFFE0000000000003C8FD20901
310
8000000C1003FBFFFFFE0000000000003C8FD03409065F444154410000
340
11
340
14
340
14
340
14
340
14
340
14
340
14
340
11
340
14
340
14
340
14
340
14
340
14
340
14
340
11
340
14
340
14
340
14
340
14
340
14
340
14
 94
        0
1001
ACAD
1000
AcRTDxfName
1000
CELLSTYLEMAP
1000
AcRTDxfName
1000
CELLSTYLEMAP
  0
XRECORD
  5
2BD9
102
{ACAD_REACTORS
330
162
102
}
330
162
100
AcDbXrecord
280
     1
102
ACAD_ROUNDTRIP_PRE2007_TABLESTYLE
 90
      512
 91
        0
  1

 92
      512
 93
        0
  2

 94
      512
 95
        0
  3

  0
ENDSEC
  0
EOF
