  0
SECTION
  2
HEADER
  9
$ACADVER
  1
AC1015
  9
$ACADMAINTVER
 70
    20
  9
$DWGCODEPAGE
  3
ANSI_1250
  9
$INSBASE
 10
0.0
 20
0.0
 30
0.0
  9
$EXTMIN
 10
-0.1738048430415802
 20
-0.01109501908104
 30
-0.0000000349181948
  9
$EXTMAX
 10
334.2187849202018
 20
297.0181337918856
 30
0.0000000814935746
  9
$LIMMIN
 10
-0.1533985644591667
 20
0.0
  9
$LIMMAX
 10
334.1983755276308
 20
297.0
  9
$ORTHOMODE
 70
     0
  9
$REGENMODE
 70
     1
  9
$FILLMODE
 70
     1
  9
$QTEXTMODE
 70
     0
  9
$MIRRTEXT
 70
     0
  9
$LTSCALE
 40
1.0
  9
$ATTMODE
 70
     2
  9
$TEXTSIZE
 40
5.0
  9
$TRACEWID
 40
1.0
  9
$TEXTSTYLE
  7
Solbet_5
  9
$CLAYER
  8
SOLBET_Bloczki
  9
$CELTYPE
  6
ByLayer
  9
$CECOLOR
 62
   256
  9
$CELTSCALE
 40
1.0
  9
$DISPSILH
 70
     0
  9
$DIMSCALE
 40
1.0
  9
$DIMASZ
 40
2.5
  9
$DIMEXO
 40
0.0
  9
$DIMDLI
 40
3.75
  9
$DIMRND
 40
0.0
  9
$DIMDLE
 40
0.0
  9
$DIMEXE
 40
1.25
  9
$DIMTP
 40
0.0
  9
$DIMTM
 40
0.0
  9
$DIMTXT
 40
2.5
  9
$DIMCEN
 40
2.5
  9
$DIMTSZ
 40
0.0
  9
$DIMTOL
 70
     0
  9
$DIMLIM
 70
     0
  9
$DIMTIH
 70
     0
  9
$DIMTOH
 70
     0
  9
$DIMSE1
 70
     0
  9
$DIMSE2
 70
     0
  9
$DIMTAD
 70
     1
  9
$DIMZIN
 70
     8
  9
$DIMBLK
  1

  9
$DIMASO
 70
     1
  9
$DIMSHO
 70
     1
  9
$DIMPOST
  1

  9
$DIMAPOST
  1

  9
$DIMALT
 70
     0
  9
$DIMALTD
 70
     3
  9
$DIMALTF
 40
0.03937007874016
  9
$DIMLFAC
 40
1.0
  9
$DIMTOFL
 70
     1
  9
$DIMTVP
 40
0.0
  9
$DIMTIX
 70
     0
  9
$DIMSOXD
 70
     0
  9
$DIMSAH
 70
     0
  9
$DIMBLK1
  1

  9
$DIMBLK2
  1

  9
$DIMSTYLE
  2
Solbet
  9
$DIMCLRD
 70
     0
  9
$DIMCLRE
 70
     0
  9
$DIMCLRT
 70
     0
  9
$DIMTFAC
 40
1.0
  9
$DIMGAP
 40
0.625
  9
$DIMJUST
 70
     0
  9
$DIMSD1
 70
     0
  9
$DIMSD2
 70
     0
  9
$DIMTOLJ
 70
     0
  9
$DIMTZIN
 70
     8
  9
$DIMALTZ
 70
     0
  9
$DIMALTTZ
 70
     0
  9
$DIMUPT
 70
     0
  9
$DIMDEC
 70
     2
  9
$DIMTDEC
 70
     2
  9
$DIMALTU
 70
     2
  9
$DIMALTTD
 70
     3
  9
$DIMTXSTY
  7
Solbet_2_5
  9
$DIMAUNIT
 70
     0
  9
$DIMADEC
 70
     0
  9
$DIMALTRND
 40
0.0
  9
$DIMAZIN
 70
     0
  9
$DIMDSEP
 70
    44
  9
$DIMATFIT
 70
     3
  9
$DIMFRAC
 70
     0
  9
$DIMLDRBLK
  1

  9
$DIMLUNIT
 70
     2
  9
$DIMLWD
 70
    -2
  9
$DIMLWE
 70
    -2
  9
$DIMTMOVE
 70
     0
  9
$LUNITS
 70
     2
  9
$LUPREC
 70
     4
  9
$SKETCHINC
 40
1.0
  9
$FILLETRAD
 40
0.0
  9
$AUNITS
 70
     0
  9
$AUPREC
 70
     0
  9
$MENU
  1
.
  9
$ELEVATION
 40
0.0
  9
$PELEVATION
 40
0.0
  9
$THICKNESS
 40
0.0
  9
$LIMCHECK
 70
     0
  9
$CHAMFERA
 40
0.0
  9
$CHAMFERB
 40
0.0
  9
$CHAMFERC
 40
0.0
  9
$CHAMFERD
 40
0.0
  9
$SKPOLY
 70
     0
  9
$TDCREATE
 40
2454690.075573148
  9
$TDUCREATE
 40
2454690.033906482
  9
$TDUPDATE
 40
2454848.862021574
  9
$TDUUPDATE
 40
2454848.820354908
  9
$TDINDWG
 40
0.4628488542
  9
$TDUSRTIMER
 40
0.4628443287
  9
$USRTIMER
 70
     1
  9
$ANGBASE
 50
0.0
  9
$ANGDIR
 70
     0
  9
$PDMODE
 70
     0
  9
$PDSIZE
 40
0.0
  9
$PLINEWID
 40
0.0
  9
$SPLFRAME
 70
     0
  9
$SPLINETYPE
 70
     6
  9
$SPLINESEGS
 70
     8
  9
$HANDSEED
  5
2C29
  9
$SURFTAB1
 70
     6
  9
$SURFTAB2
 70
     6
  9
$SURFTYPE
 70
     6
  9
$SURFU
 70
     6
  9
$SURFV
 70
     6
  9
$UCSBASE
  2

  9
$UCSNAME
  2

  9
$UCSORG
 10
0.0
 20
0.0
 30
0.0
  9
$UCSXDIR
 10
1.0
 20
0.0
 30
0.0
  9
$UCSYDIR
 10
0.0
 20
1.0
 30
0.0
  9
$UCSORTHOREF
  2

  9
$UCSORTHOVIEW
 70
     0
  9
$UCSORGTOP
 10
0.0
 20
0.0
 30
0.0
  9
$UCSORGBOTTOM
 10
0.0
 20
0.0
 30
0.0
  9
$UCSORGLEFT
 10
0.0
 20
0.0
 30
0.0
  9
$UCSORGRIGHT
 10
0.0
 20
0.0
 30
0.0
  9
$UCSORGFRONT
 10
0.0
 20
0.0
 30
0.0
  9
$UCSORGBACK
 10
0.0
 20
0.0
 30
0.0
  9
$PUCSBASE
  2

  9
$PUCSNAME
  2

  9
$PUCSORG
 10
0.0
 20
0.0
 30
0.0
  9
$PUCSXDIR
 10
1.0
 20
0.0
 30
0.0
  9
$PUCSYDIR
 10
0.0
 20
1.0
 30
0.0
  9
$PUCSORTHOREF
  2

  9
$PUCSORTHOVIEW
 70
     0
  9
$PUCSORGTOP
 10
0.0
 20
0.0
 30
0.0
  9
$PUCSORGBOTTOM
 10
0.0
 20
0.0
 30
0.0
  9
$PUCSORGLEFT
 10
0.0
 20
0.0
 30
0.0
  9
$PUCSORGRIGHT
 10
0.0
 20
0.0
 30
0.0
  9
$PUCSORGFRONT
 10
0.0
 20
0.0
 30
0.0
  9
$PUCSORGBACK
 10
0.0
 20
0.0
 30
0.0
  9
$USERI1
 70
     0
  9
$USERI2
 70
     0
  9
$USERI3
 70
     0
  9
$USERI4
 70
     0
  9
$USERI5
 70
     0
  9
$USERR1
 40
0.0
  9
$USERR2
 40
0.0
  9
$USERR3
 40
0.0
  9
$USERR4
 40
0.0
  9
$USERR5
 40
0.0
  9
$WORLDVIEW
 70
     1
  9
$SHADEDGE
 70
     3
  9
$SHADEDIF
 70
    70
  9
$TILEMODE
 70
     1
  9
$MAXACTVP
 70
    64
  9
$PINSBASE
 10
0.0
 20
0.0
 30
0.0
  9
$PLIMCHECK
 70
     0
  9
$PEXTMIN
 10
0.0
 20
0.0
 30
0.0
  9
$PEXTMAX
 10
0.0
 20
0.0
 30
0.0
  9
$PLIMMIN
 10
0.0
 20
0.0
  9
$PLIMMAX
 10
12.0
 20
9.0
  9
$UNITMODE
 70
     0
  9
$VISRETAIN
 70
     1
  9
$PLINEGEN
 70
     0
  9
$PSLTSCALE
 70
     1
  9
$TREEDEPTH
 70
  3020
  9
$CMLSTYLE
  2
SOLBET_IZOLACJA
  9
$CMLJUST
 70
     0
  9
$CMLSCALE
 40
20.0
  9
$PROXYGRAPHICS
 70
     1
  9
$MEASUREMENT
 70
     1
  9
$CELWEIGHT
370
    -1
  9
$ENDCAPS
280
     0
  9
$JOINSTYLE
280
     0
  9
$LWDISPLAY
290
     1
  9
$INSUNITS
 70
     4
  9
$HYPERLINKBASE
  1

  9
$STYLESHEET
  1

  9
$XEDIT
290
     1
  9
$CEPSNTYPE
380
     0
  9
$PSTYLEMODE
290
     1
  9
$FINGERPRINTGUID
  2
{6B12AB33-8E39-428E-8E85-461C8D99A3CB}
  9
$VERSIONGUID
  2
{9E59A7A9-6DEA-4237-9E48-C246C590EA06}
  9
$EXTNAMES
290
     1
  9
$PSVPSCALE
 40
0.0
  9
$OLESTARTUP
290
     0
  0
ENDSEC
  0
SECTION
  2
CLASSES
  0
CLASS
  1
ACDBDICTIONARYWDFLT
  2
AcDbDictionaryWithDefault
  3
ObjectDBX Classes
 90
        0
280
     0
281
     0
  0
CLASS
  1
ACDBPLACEHOLDER
  2
AcDbPlaceHolder
  3
ObjectDBX Classes
 90
        0
280
     0
281
     0
  0
CLASS
  1
LAYOUT
  2
AcDbLayout
  3
ObjectDBX Classes
 90
        0
280
     0
281
     0
  0
CLASS
  1
DICTIONARYVAR
  2
AcDbDictionaryVar
  3
ObjectDBX Classes
 90
        0
280
     0
281
     0
  0
CLASS
  1
TABLESTYLE
  2
AcDbTableStyle
  3
ObjectDBX Classes
 90
     4095
280
     0
281
     0
  0
CLASS
  1
MATERIAL
  2
AcDbMaterial
  3
ObjectDBX Classes
 90
     1024
280
     0
281
     0
  0
CLASS
  1
VISUALSTYLE
  2
AcDbVisualStyle
  3
ObjectDBX Classes
 90
     4095
280
     0
281
     0
  0
CLASS
  1
SCALE
  2
AcDbScale
  3
ObjectDBX Classes
 90
     1153
280
     0
281
     0
  0
CLASS
  1
MLEADERSTYLE
  2
AcDbMLeaderStyle
  3
ACDB_MLEADERSTYLE_CLASS
 90
     4095
280
     0
281
     0
  0
CLASS
  1
CELLSTYLEMAP
  2
AcDbCellStyleMap
  3
ObjectDBX Classes
 90
     1152
280
     0
281
     0
  0
CLASS
  1
DIMASSOC
  2
AcDbDimAssoc
  3
"AcDbDimAssoc|Product Desc:     AcDim ARX App For Dimension|Company:          Autodesk, Inc.|WEB Address:      www.autodesk.com"
 90
    32768
280
     0
281
     0
  0
CLASS
  1
SORTENTSTABLE
  2
AcDbSortentsTable
  3
ObjectDBX Classes
 90
        0
280
     0
281
     0
  0
CLASS
  1
MULTILEADER
  2
AcDbMLeader
  3
ACDB_MLEADER_CLASS
 90
    33793
280
     0
281
     1
  0
CLASS
  1
ACDB_MTEXTOBJECTCONTEXTDATA_CLASS
  2
AcDbMTextObjectContextData
  3
ObjectDBX Classes
 90
    33921
280
     0
281
     0
  0
CLASS
  1
ACAD_EVALUATION_GRAPH
  2
AcDbEvalGraph
  3
ObjectDBX Classes
 90
    33921
280
     0
281
     0
  0
CLASS
  1
ACAECUSTOBJ
  2
AcAeEditorObj
  3
AcAeEditorObj
 90
    33792
280
     0
281
     0
  0
ENDSEC
  0
SECTION
  2
TABLES
  0
TABLE
  2
VPORT
  5
8
102
{ACAD_XDICTIONARY
360
443
102
}
330
0
100
AcDbSymbolTable
 70
     1
  0
VPORT
  5
EA
330
8
100
AcDbSymbolTableRecord
100
AcDbViewportTableRecord
  2
*Active
 70
     0
 10
0.0
 20
0.0
 11
1.0
 21
1.0
 12
167.02249003858
 22
148.5035193864022
 13
0.0
 23
0.0
 14
10.0
 24
10.0
 15
10.0
 25
10.0
 16
0.0
 26
0.0
 36
1.0
 17
0.0
 27
0.0
 37
0.0
 40
300.3295535755329
 41
1.74582560296846
 42
50.0
 43
0.0
 44
0.0
 50
0.0
 51
0.0
 71
     0
 72
  1000
 73
     1
 74
     3
 75
     0
 76
     0
 77
     0
 78
     0
281
     0
 65
     1
110
0.0
120
0.0
130
0.0
111
1.0
121
0.0
131
0.0
112
0.0
122
1.0
132
0.0
 79
     0
146
0.0
  0
ENDTAB
  0
TABLE
  2
LTYPE
  5
5
330
0
100
AcDbSymbolTable
 70
     3
  0
LTYPE
  5
14
330
5
100
AcDbSymbolTableRecord
100
AcDbLinetypeTableRecord
  2
ByBlock
 70
     0
  3

 72
    65
 73
     0
 40
0.0
  0
LTYPE
  5
15
330
5
100
AcDbSymbolTableRecord
100
AcDbLinetypeTableRecord
  2
ByLayer
 70
     0
  3

 72
    65
 73
     0
 40
0.0
  0
LTYPE
  5
16
330
5
100
AcDbSymbolTableRecord
100
AcDbLinetypeTableRecord
  2
Continuous
 70
     0
  3
Solid line
 72
    65
 73
     0
 40
0.0
  0
LTYPE
  5
2B9
330
5
100
AcDbSymbolTableRecord
100
AcDbLinetypeTableRecord
  2
VERDECKT
 70
     0
  3
__ __ __ __ __ __ __ __ __ __ __ __ __ __ __ __
 72
    65
 73
     2
 40
0.375
 49
0.25
 74
     0
 49
-0.125
 74
     0
  0
LTYPE
  5
982
330
5
100
AcDbSymbolTableRecord
100
AcDbLinetypeTableRecord
  2
BATTING
 70
     0
  3
Batting SSSSSSSSSSSSSSSSSSSSSSSSSSSSSSSSSSSSSSSSSSSSSSS
 72
    65
 73
     4
 40
10.16254
 49
0.00254
 74
     0
 49
-2.54
 74
     4
 75
   134
340
7E7
 46
2.54
 50
0.0
 44
-2.54
 45
0.0
 49
-5.08
 74
     4
 75
   134
340
7E7
 46
2.54
 50
180.0
 44
2.54
 45
0.0
 49
-2.54
 74
     0
  0
ENDTAB
  0
TABLE
  2
LAYER
  5
2
102
{ACAD_XDICTIONARY
360
3E5
102
}
330
0
100
AcDbSymbolTable
 70
    13
  0
LAYER
  5
10
102
{ACAD_XDICTIONARY
360
13C
102
}
330
2
100
AcDbSymbolTableRecord
100
AcDbLayerTableRecord
  2
0
 70
     0
 62
     7
  6
Continuous
370
    -3
390
F
  0
LAYER
  5
2BB
330
2
100
AcDbSymbolTableRecord
100
AcDbLayerTableRecord
  2
DEFPOINTS
 70
     0
 62
     7
  6
Continuous
290
     0
370
    -3
390
F
  0
LAYER
  5
3DD
102
{ACAD_XDICTIONARY
360
403
102
}
330
2
100
AcDbSymbolTableRecord
100
AcDbLayerTableRecord
  2
SOLBET_Bloczki
 70
     0
 62
   140
  6
Continuous
370
    -3
390
F
1001
AcAecLayerStandard
1000

1000

  0
LAYER
  5
3DF
102
{ACAD_XDICTIONARY
360
405
102
}
330
2
100
AcDbSymbolTableRecord
100
AcDbLayerTableRecord
  2
SOLBET_Wymiary_Opisy
 70
     0
 62
     1
  6
Continuous
370
    -3
390
F
1001
AcAecLayerStandard
1000

1000

  0
LAYER
  5
3E0
102
{ACAD_XDICTIONARY
360
407
102
}
330
2
100
AcDbSymbolTableRecord
100
AcDbLayerTableRecord
  2
SOLBET_Beton
 70
     0
 62
     9
  6
Continuous
370
    -3
390
F
1001
AcAecLayerStandard
1000

1000

  0
LAYER
  5
3E1
102
{ACAD_XDICTIONARY
360
409
102
}
330
2
100
AcDbSymbolTableRecord
100
AcDbLayerTableRecord
  2
SOLBET_Izolacja
 70
     0
 62
    40
  6
Continuous
370
    -3
390
F
1001
AcAecLayerStandard
1000

1000

  0
LAYER
  5
3E2
102
{ACAD_XDICTIONARY
360
40B
102
}
330
2
100
AcDbSymbolTableRecord
100
AcDbLayerTableRecord
  2
SOLBET_Zbrojenie_Konstrukcja
 70
     0
 62
     7
  6
Continuous
370
    -3
390
F
1001
AcAecLayerStandard
1000

1000

  0
LAYER
  5
3E4
102
{ACAD_XDICTIONARY
360
40F
102
}
330
2
100
AcDbSymbolTableRecord
100
AcDbLayerTableRecord
  2
SOLBET_Tynki_Posadzki
 70
     0
 62
     3
  6
Continuous
370
    -3
390
F
1001
AcAecLayerStandard
1000

1000

  0
LAYER
  5
3E8
102
{ACAD_XDICTIONARY
360
411
102
}
330
2
100
AcDbSymbolTableRecord
100
AcDbLayerTableRecord
  2
SOLBET_Ramka_05
 70
     0
 62
     2
  6
Continuous
370
    -3
390
F
1001
AcAecLayerStandard
1000

1000

  0
LAYER
  5
472
330
2
100
AcDbSymbolTableRecord
100
AcDbLayerTableRecord
  2
SOLBET_Zaprawy
 70
     0
 62
     4
  6
Continuous
370
    -3
390
F
1001
AcAecLayerStandard
1000

1000

  0
LAYER
  5
4E2
330
2
100
AcDbSymbolTableRecord
100
AcDbLayerTableRecord
  2
SOLBET_Emulsje_Folie
 70
     0
 62
     6
  6
Continuous
370
    -3
390
F
1001
AcAecLayerStandard
1000

1000

  0
LAYER
  5
23E1
330
2
100
AcDbSymbolTableRecord
100
AcDbLayerTableRecord
  2
SOLBET_Stolarka_Okna
 70
     0
 62
     2
  6
Continuous
370
    -3
390
F
1001
AcAecLayerStandard
1000

1000

  0
LAYER
  5
2A9D
102
{ACAD_XDICTIONARY
360
2A9E
102
}
330
2
100
AcDbSymbolTableRecord
100
AcDbLayerTableRecord
  2
SOLBET_Wymiary_Opisy @ 1
 70
     0
 62
     1
  6
Continuous
370
    -3
390
F
1001
AcAecLayerStandard
1000

1000

1001
AcadAnnotativeDecomposition
1000
AnnotativeData
1002
{
1070
     1
1070
     1
1002
}
  0
ENDTAB
  0
TABLE
  2
STYLE
  5
3
330
0
100
AcDbSymbolTable
 70
     5
  0
STYLE
  5
11
330
3
100
AcDbSymbolTableRecord
100
AcDbTextStyleTableRecord
  2
Standard
 70
     0
 40
0.0
 41
1.0
 50
0.0
 71
     0
 42
2.5
  3
txt.shx
  4

  0
STYLE
  5
7D7
330
3
100
AcDbSymbolTableRecord
100
AcDbTextStyleTableRecord
  2
Solbet_5
 70
     0
 40
5.0
 41
1.0
 50
0.0
 71
     0
 42
5.0
  3
isocpeur.ttf
  4

1001
ACAD
1000
ISOCPEUR
1071
       34
  0
STYLE
  5
7D9
330
3
100
AcDbSymbolTableRecord
100
AcDbTextStyleTableRecord
  2
Solbet_2_5
 70
     0
 40
2.5
 41
1.0
 50
0.0
 71
     0
 42
2.5
  3
isocpeur.ttf
  4

1001
ACAD
1000
ISOCPEUR
1071
       34
  0
STYLE
  5
7E7
330
3
100
AcDbSymbolTableRecord
100
AcDbTextStyleTableRecord
  2

 70
     1
 40
0.0
 41
1.0
 50
0.0
 71
     0
 42
2.5
  3
ltypeshp.shx
  4

  0
STYLE
  5
2372
330
3
100
AcDbSymbolTableRecord
100
AcDbTextStyleTableRecord
  2
Solbet_1
 70
     0
 40
1.0
 41
1.0
 50
0.0
 71
     0
 42
2.5
  3
isocpeur.ttf
  4

1001
ACAD
1000
ISOCPEUR
1071
       34
  0
ENDTAB
  0
TABLE
  2
VIEW
  5
6
330
0
100
AcDbSymbolTable
 70
     0
  0
ENDTAB
  0
TABLE
  2
UCS
  5
7
330
0
100
AcDbSymbolTable
 70
     0
  0
ENDTAB
  0
TABLE
  2
APPID
  5
9
330
0
100
AcDbSymbolTable
 70
    13
  0
APPID
  5
12
330
9
100
AcDbSymbolTableRecord
100
AcDbRegAppTableRecord
  2
ACAD
 70
     0
  0
APPID
  5
9E
330
9
100
AcDbSymbolTableRecord
100
AcDbRegAppTableRecord
  2
ACAD_PSEXT
 70
     0
  0
APPID
  5
133
330
9
100
AcDbSymbolTableRecord
100
AcDbRegAppTableRecord
  2
AcadAnnoPO
 70
     0
  0
APPID
  5
134
330
9
100
AcDbSymbolTableRecord
100
AcDbRegAppTableRecord
  2
AcadAnnotative
 70
     0
  0
APPID
  5
135
330
9
100
AcDbSymbolTableRecord
100
AcDbRegAppTableRecord
  2
ACAD_DSTYLE_DIMJAG
 70
     0
  0
APPID
  5
136
330
9
100
AcDbSymbolTableRecord
100
AcDbRegAppTableRecord
  2
ACAD_DSTYLE_DIMTALN
 70
     0
  0
APPID
  5
165
330
9
100
AcDbSymbolTableRecord
100
AcDbRegAppTableRecord
  2
ACAD_MLEADERVER
 70
     0
  0
APPID
  5
2C4
330
9
100
AcDbSymbolTableRecord
100
AcDbRegAppTableRecord
  2
ASO_SCHRAFF
 70
     0
  0
APPID
  5
3DE
330
9
100
AcDbSymbolTableRecord
100
AcDbRegAppTableRecord
  2
AcAecLayerStandard
 70
     0
  0
APPID
  5
7DE
330
9
100
AcDbSymbolTableRecord
100
AcDbRegAppTableRecord
  2
ACAD_EXEMPT_FROM_CAD_STANDARDS
 70
     0
  0
APPID
  5
948
330
9
100
AcDbSymbolTableRecord
100
AcDbRegAppTableRecord
  2
ACAD_DSTYLE_DIMBREAK
 70
     0
  0
APPID
  5
1D0A
330
9
100
AcDbSymbolTableRecord
100
AcDbRegAppTableRecord
  2
AcadAnnotativeDecomposition
 70
     0
  0
APPID
  5
2373
330
9
100
AcDbSymbolTableRecord
100
AcDbRegAppTableRecord
  2
AcDbAttr
 70
     0
  0
ENDTAB
  0
TABLE
  2
DIMSTYLE
  5
A
330
0
100
AcDbSymbolTable
 70
     2
100
AcDbDimStyleTable
 71
     1
340
949
  0
DIMSTYLE
105
949
330
A
100
AcDbSymbolTableRecord
100
AcDbDimStyleTableRecord
  2
Solbet
 70
     0
 41
2.5
 42
0.0
 43
3.75
 44
1.25
 73
     0
 74
     0
 77
     1
 78
     8
140
2.5
141
2.5
143
0.03937007874016
147
0.625
171
     3
172
     1
271
     2
272
     2
274
     3
278
    44
283
     0
284
     8
340
7D9
1001
ACAD_DSTYLE_DIMBREAK
1070
   391
1040
3.75
1001
ACAD_DSTYLE_DIMJAG
1070
   388
1040
1.5
1001
ACAD_DSTYLE_DIMTALN
1070
   392
1070
     0
  0
DIMSTYLE
105
954
330
A
100
AcDbSymbolTableRecord
100
AcDbDimStyleTableRecord
  2
Solbet$7
 70
     0
 41
2.5
 42
0.0
 43
3.75
 44
1.25
 73
     0
 74
     0
 77
     1
 78
     8
140
2.5
141
2.5
143
0.03937007874016
147
0.625
171
     3
172
     1
271
     2
272
     2
274
     3
278
    44
283
     0
284
     8
340
7D9
341
958
1001
ACAD_DSTYLE_DIMBREAK
1070
   391
1040
3.75
1001
ACAD_DSTYLE_DIMJAG
1070
   388
1040
1.5
1001
ACAD_DSTYLE_DIMTALN
1070
   392
1070
     0
  0
ENDTAB
  0
TABLE
  2
BLOCK_RECORD
  5
1
330
0
100
AcDbSymbolTable
 70
    15
  0
BLOCK_RECORD
  5
1F
102
{ACAD_XDICTIONARY
360
4A3
102
}
330
1
100
AcDbSymbolTableRecord
100
AcDbBlockTableRecord
  2
*Model_Space
340
22
  0
BLOCK_RECORD
  5
D2
330
1
100
AcDbSymbolTableRecord
100
AcDbBlockTableRecord
  2
*Paper_Space
340
D3
  0
BLOCK_RECORD
  5
D6
330
1
100
AcDbSymbolTableRecord
100
AcDbBlockTableRecord
  2
*Paper_Space0
340
D7
  0
BLOCK_RECORD
  5
1C2
330
1
100
AcDbSymbolTableRecord
100
AcDbBlockTableRecord
  2
ASOWDBLK
340
0
102
{BLKREFS
331
2444
331
2445
331
2446
331
2447
331
2448
331
2449
331
244A
331
244B
331
244C
331
244D
331
244E
331
244F
331
2450
331
2451
331
2452
331
2453
331
2454
331
2455
102
}
  0
BLOCK_RECORD
  5
958
330
1
100
AcDbSymbolTableRecord
100
AcDbBlockTableRecord
  2
_DotSmall
340
0
102
{BLKREFS
331
2753
331
276E
331
27A0
102
}
  0
BLOCK_RECORD
  5
1EF2
330
1
100
AcDbSymbolTableRecord
100
AcDbBlockTableRecord
  2
_None
340
0
  0
BLOCK_RECORD
  5
202E
330
1
100
AcDbSymbolTableRecord
100
AcDbBlockTableRecord
  2
*X4
340
0
102
{BLKREFS
331
23D0
102
}
  0
BLOCK_RECORD
  5
2103
330
1
100
AcDbSymbolTableRecord
100
AcDbBlockTableRecord
  2
*U5
340
0
102
{BLKREFS
331
228E
331
2291
102
}
  0
BLOCK_RECORD
  5
2120
330
1
100
AcDbSymbolTableRecord
100
AcDbBlockTableRecord
  2
*U6
340
0
102
{BLKREFS
331
22E0
102
}
  0
BLOCK_RECORD
  5
2153
330
1
100
AcDbSymbolTableRecord
100
AcDbBlockTableRecord
  2
*U7
340
0
102
{BLKREFS
331
2356
102
}
  0
BLOCK_RECORD
  5
2374
102
{ACAD_XDICTIONARY
360
237F
102
}
330
1
100
AcDbSymbolTableRecord
100
AcDbBlockTableRecord
  2
SOLBET_Bloczek_OPTIMAL_240x240x590_brak_PRA
340
0
102
{BLKREFS
331
2389
102
}
1001
ACAD
1000
DesignCenter Data
1002
{
1070
     1
1070
     4
1002
}
  0
BLOCK_RECORD
  5
239B
102
{ACAD_XDICTIONARY
360
23A5
102
}
330
1
100
AcDbSymbolTableRecord
100
AcDbBlockTableRecord
  2
SOLBET_Nadproze_140_12_1400x240x120_PRA
340
0
1001
ACAD
1000
DesignCenter Data
1002
{
1070
     1
1070
     4
1002
}
  0
BLOCK_RECORD
  5
2495
330
1
100
AcDbSymbolTableRecord
100
AcDbBlockTableRecord
  2
*U10
340
0
102
{BLKREFS
331
2774
331
2775
102
}
  0
BLOCK_RECORD
  5
24C1
102
{ACAD_XDICTIONARY
360
24C2
102
}
330
1
100
AcDbSymbolTableRecord
100
AcDbBlockTableRecord
  2
SOLBET_Bloczek_OPTIMAL_240x240x590_P+W_PRA
340
0
1001
ACAD
1000
DesignCenter Data
1002
{
1070
     1
1070
     4
1002
}
  0
BLOCK_RECORD
  5
2B2E
102
{ACAD_XDICTIONARY
360
2B3F
102
}
330
1
100
AcDbSymbolTableRecord
100
AcDbBlockTableRecord
  2
SOLBET_Nadproze_120x240x1400_zz_PRA
340
0
102
{BLKREFS
331
2B43
331
2B44
102
}
1001
ACAD
1000
DesignCenter Data
1002
{
1070
     1
1070
     4
1002
}
  0
BLOCK_RECORD
  5
2B45
102
{ACAD_XDICTIONARY
360
2B50
102
}
330
1
100
AcDbSymbolTableRecord
100
AcDbBlockTableRecord
  2
SOLBET_Bloczek_Optimal_240x240x590_G_KG500_PRA
340
0
102
{BLKREFS
331
2B54
331
2B55
331
2B56
331
2B57
331
2B6C
102
}
1001
ACAD
1000
DesignCenter Data
1002
{
1070
     1
1070
     4
1002
}
  0
ENDTAB
  0
ENDSEC
  0
SECTION
  2
BLOCKS
  0
BLOCK
  5
20
330
1F
100
AcDbEntity
  8
0
100
AcDbBlockBegin
  2
*Model_Space
 70
     0
 10
0.0
 20
0.0
 30
0.0
  3
*Model_Space
  1

  0
ENDBLK
  5
21
330
1F
100
AcDbEntity
  8
0
100
AcDbBlockEnd
  0
BLOCK
  5
D4
330
D2
100
AcDbEntity
 67
     1
  8
0
100
AcDbBlockBegin
  2
*Paper_Space
 70
     0
 10
0.0
 20
0.0
 30
0.0
  3
*Paper_Space
  1

  0
ENDBLK
  5
D5
330
D2
100
AcDbEntity
 67
     1
  8
0
100
AcDbBlockEnd
  0
BLOCK
  5
D8
330
D6
100
AcDbEntity
 67
     1
  8
0
100
AcDbBlockBegin
  2
*Paper_Space0
 70
     0
 10
0.0
 20
0.0
 30
0.0
  3
*Paper_Space0
  1

  0
ENDBLK
  5
D9
330
D6
100
AcDbEntity
 67
     1
  8
0
100
AcDbBlockEnd
  0
BLOCK
  5
1C3
330
1C2
100
AcDbEntity
  8
0
100
AcDbBlockBegin
  2
ASOWDBLK
 70
     0
 10
0.0
 20
0.0
 30
0.0
  3
ASOWDBLK
  1
ASOWDBLK
  0
ARC
  5
1C4
330
1C2
100
AcDbEntity
  8
0
  6
Continuous
 62
     0
100
AcDbCircle
 10
0.0
 20
0.25
 30
0.0
 40
0.25
100
AcDbArc
 50
270.0000011238745
 51
36.86989141244799
  0
ARC
  5
1C5
330
1C2
100
AcDbEntity
  8
0
  6
Continuous
 62
     0
100
AcDbCircle
 10
0.25
 20
0.75
 30
0.0
 40
0.25
100
AcDbArc
 50
323.1300909874582
 51
216.8699112602908
  0
LINE
  5
1C6
330
1C2
100
AcDbEntity
  8
0
  6
Continuous
 62
     0
100
AcDbLine
 10
0.05
 20
0.6
 30
0.0
 11
0.2
 21
0.4
 31
0.0
  0
ARC
  5
1C7
330
1C2
100
AcDbEntity
  8
0
  6
Continuous
 62
     0
100
AcDbCircle
 10
0.5
 20
0.25
 30
0.0
 40
0.25
100
AcDbArc
 50
143.1301284353948
 51
270.0000011238745
  0
LINE
  5
1C8
330
1C2
100
AcDbEntity
  8
0
  6
Continuous
 62
     0
100
AcDbLine
 10
0.45
 20
0.6
 30
0.0
 11
0.3
 21
0.4
 31
0.0
  0
ENDBLK
  5
1C9
330
1C2
100
AcDbEntity
  8
0
100
AcDbBlockEnd
  0
BLOCK
  5
95A
330
958
100
AcDbEntity
  8
0
100
AcDbBlockBegin
  2
_DotSmall
 70
     0
 10
0.0
 20
0.0
 30
0.0
  3
_DotSmall
  1

  0
LWPOLYLINE
  5
959
330
958
100
AcDbEntity
  8
0
  6
ByBlock
 62
     0
100
AcDbPolyline
 90
        2
 70
     1
 43
0.5
 10
-0.0625
 20
0.0
 42
1.0
 10
0.0625
 20
0.0
 42
1.0
  0
ENDBLK
  5
95B
330
958
100
AcDbEntity
  8
0
100
AcDbBlockEnd
  0
BLOCK
  5
1EF3
330
1EF2
100
AcDbEntity
  8
0
100
AcDbBlockBegin
  2
_None
 70
     0
 10
0.0
 20
0.0
 30
0.0
  3
_None
  1

  0
ENDBLK
  5
1EF4
330
1EF2
100
AcDbEntity
  8
0
100
AcDbBlockEnd
  0
BLOCK
  5
202F
330
202E
100
AcDbEntity
  8
0
100
AcDbBlockBegin
  2
*X4
 70
     1
 10
0.0
 20
0.0
 30
0.0
  3
*X4
  1
ASOWDBLK
  0
LINE
  5
2030
330
202E
100
AcDbEntity
  8
0
 62
     0
100
AcDbLine
 10
11.99304811965889
 20
9.120426821088543
 30
0.0
 11
12.03304811965889
 21
9.16042682108854
 31
0.0
  0
LINE
  5
2031
330
202E
100
AcDbEntity
  8
0
 62
     0
100
AcDbLine
 10
11.94885394583473
 20
9.120426821088543
 30
0.0
 11
11.98885394583473
 21
9.16042682108854
 31
0.0
  0
LINE
  5
2032
330
202E
100
AcDbEntity
  8
0
 62
     0
100
AcDbLine
 10
11.90465977201057
 20
9.120426821088543
 30
0.0
 11
11.94465977201057
 21
9.16042682108854
 31
0.0
  0
LINE
  5
2033
330
202E
100
AcDbEntity
  8
0
 62
     0
100
AcDbLine
 10
11.86046559818641
 20
9.120426821088543
 30
0.0
 11
11.90046559818641
 21
9.16042682108854
 31
0.0
  0
LINE
  5
2034
330
202E
100
AcDbEntity
  8
0
 62
     0
100
AcDbLine
 10
11.81627142436225
 20
9.120426821088543
 30
0.0
 11
11.85627142436225
 21
9.16042682108854
 31
0.0
  0
LINE
  5
2035
330
202E
100
AcDbEntity
  8
0
 62
     0
100
AcDbLine
 10
11.77207725053809
 20
9.120426821088543
 30
0.0
 11
11.81207725053809
 21
9.16042682108854
 31
0.0
  0
LINE
  5
2036
330
202E
100
AcDbEntity
  8
0
 62
     0
100
AcDbLine
 10
11.72788307671393
 20
9.120426821088543
 30
0.0
 11
11.76788307671393
 21
9.16042682108854
 31
0.0
  0
LINE
  5
2037
330
202E
100
AcDbEntity
  8
0
 62
     0
100
AcDbLine
 10
11.68368890288977
 20
9.120426821088543
 30
0.0
 11
11.72368890288977
 21
9.16042682108854
 31
0.0
  0
LINE
  5
2038
330
202E
100
AcDbEntity
  8
0
 62
     0
100
AcDbLine
 10
11.63949472906562
 20
9.120426821088543
 30
0.0
 11
11.67949472906562
 21
9.16042682108854
 31
0.0
  0
LINE
  5
2039
330
202E
100
AcDbEntity
  8
0
 62
     0
100
AcDbLine
 10
11.59530055524146
 20
9.120426821088543
 30
0.0
 11
11.63530055524145
 21
9.16042682108854
 31
0.0
  0
LINE
  5
203A
330
202E
100
AcDbEntity
  8
0
 62
     0
100
AcDbLine
 10
11.5511063814173
 20
9.120426821088543
 30
0.0
 11
11.59110638141729
 21
9.16042682108854
 31
0.0
  0
LINE
  5
203B
330
202E
100
AcDbEntity
  8
0
 62
     0
100
AcDbLine
 10
11.50691220759314
 20
9.120426821088543
 30
0.0
 11
11.54691220759314
 21
9.16042682108854
 31
0.0
  0
LINE
  5
203C
330
202E
100
AcDbEntity
  8
0
 62
     0
100
AcDbLine
 10
11.46271803376898
 20
9.120426821088543
 30
0.0
 11
11.50271803376898
 21
9.16042682108854
 31
0.0
  0
LINE
  5
203D
330
202E
100
AcDbEntity
  8
0
 62
     0
100
AcDbLine
 10
11.41852385994482
 20
9.120426821088543
 30
0.0
 11
11.45852385994482
 21
9.16042682108854
 31
0.0
  0
LINE
  5
203E
330
202E
100
AcDbEntity
  8
0
 62
     0
100
AcDbLine
 10
11.39401831761913
 20
9.140115452587011
 30
0.0
 11
11.41432968612066
 21
9.16042682108854
 31
0.0
  0
LINE
  5
203F
330
202E
100
AcDbEntity
  8
0
 62
     0
100
AcDbLine
 10
12.03724229348305
 20
9.120426821088543
 30
0.0
 11
12.07724229348305
 21
9.16042682108854
 31
0.0
  0
LINE
  5
2040
330
202E
100
AcDbEntity
  8
0
 62
     0
100
AcDbLine
 10
12.08143646730721
 20
9.120426821088543
 30
0.0
 11
12.12143646730721
 21
9.16042682108854
 31
0.0
  0
LINE
  5
2041
330
202E
100
AcDbEntity
  8
0
 62
     0
100
AcDbLine
 10
12.12563064113137
 20
9.120426821088543
 30
0.0
 11
12.16563064113137
 21
9.16042682108854
 31
0.0
  0
LINE
  5
2042
330
202E
100
AcDbEntity
  8
0
 62
     0
100
AcDbLine
 10
12.16982481495553
 20
9.120426821088543
 30
0.0
 11
12.20982481495552
 21
9.16042682108854
 31
0.0
  0
LINE
  5
2043
330
202E
100
AcDbEntity
  8
0
 62
     0
100
AcDbLine
 10
12.21401898877969
 20
9.120426821088543
 30
0.0
 11
12.25401898877968
 21
9.16042682108854
 31
0.0
  0
LINE
  5
2044
330
202E
100
AcDbEntity
  8
0
 62
     0
100
AcDbLine
 10
12.25821316260385
 20
9.120426821088543
 30
0.0
 11
12.29821316260384
 21
9.16042682108854
 31
0.0
  0
LINE
  5
2045
330
202E
100
AcDbEntity
  8
0
 62
     0
100
AcDbLine
 10
12.302407336428
 20
9.120426821088543
 30
0.0
 11
12.342407336428
 21
9.16042682108854
 31
0.0
  0
LINE
  5
2046
330
202E
100
AcDbEntity
  8
0
 62
     0
100
AcDbLine
 10
12.34660151025216
 20
9.120426821088543
 30
0.0
 11
12.38660151025216
 21
9.16042682108854
 31
0.0
  0
LINE
  5
2047
330
202E
100
AcDbEntity
  8
0
 62
     0
100
AcDbLine
 10
12.39079568407632
 20
9.120426821088543
 30
0.0
 11
12.43079568407632
 21
9.16042682108854
 31
0.0
  0
LINE
  5
2048
330
202E
100
AcDbEntity
  8
0
 62
     0
100
AcDbLine
 10
12.43498985790048
 20
9.120426821088543
 30
0.0
 11
12.47498985790048
 21
9.16042682108854
 31
0.0
  0
LINE
  5
2049
330
202E
100
AcDbEntity
  8
0
 62
     0
100
AcDbLine
 10
12.47918403172464
 20
9.120426821088543
 30
0.0
 11
12.51918403172464
 21
9.16042682108854
 31
0.0
  0
LINE
  5
204A
330
202E
100
AcDbEntity
  8
0
 62
     0
100
AcDbLine
 10
12.5233782055488
 20
9.120426821088543
 30
0.0
 11
12.5633782055488
 21
9.16042682108854
 31
0.0
  0
LINE
  5
204B
330
202E
100
AcDbEntity
  8
0
 62
     0
100
AcDbLine
 10
12.56757237937296
 20
9.120426821088543
 30
0.0
 11
12.60757237937296
 21
9.16042682108854
 31
0.0
  0
LINE
  5
204C
330
202E
100
AcDbEntity
  8
0
 62
     0
100
AcDbLine
 10
12.61176655319712
 20
9.120426821088543
 30
0.0
 11
12.65176655319712
 21
9.16042682108854
 31
0.0
  0
LINE
  5
204D
330
202E
100
AcDbEntity
  8
0
 62
     0
100
AcDbLine
 10
12.65596072702128
 20
9.120426821088543
 30
0.0
 11
12.68399674713724
 21
9.1484628412045
 31
0.0
  0
LINE
  5
204E
330
202E
100
AcDbEntity
  8
0
 62
     0
100
AcDbLine
 10
12.04858244068372
 20
9.120426821088543
 30
0.0
 11
12.00858244068372
 21
9.16042682108854
 31
0.0
  0
LINE
  5
204F
330
202E
100
AcDbEntity
  8
0
 62
     0
100
AcDbLine
 10
12.00438826685956
 20
9.120426821088543
 30
0.0
 11
11.96438826685956
 21
9.16042682108854
 31
0.0
  0
LINE
  5
2050
330
202E
100
AcDbEntity
  8
0
 62
     0
100
AcDbLine
 10
11.9601940930354
 20
9.120426821088543
 30
0.0
 11
11.9201940930354
 21
9.16042682108854
 31
0.0
  0
LINE
  5
2051
330
202E
100
AcDbEntity
  8
0
 62
     0
100
AcDbLine
 10
11.91599991921124
 20
9.120426821088543
 30
0.0
 11
11.87599991921124
 21
9.16042682108854
 31
0.0
  0
LINE
  5
2052
330
202E
100
AcDbEntity
  8
0
 62
     0
100
AcDbLine
 10
11.87180574538708
 20
9.120426821088543
 30
0.0
 11
11.83180574538708
 21
9.16042682108854
 31
0.0
  0
LINE
  5
2053
330
202E
100
AcDbEntity
  8
0
 62
     0
100
AcDbLine
 10
11.82761157156292
 20
9.120426821088543
 30
0.0
 11
11.78761157156293
 21
9.16042682108854
 31
0.0
  0
LINE
  5
2054
330
202E
100
AcDbEntity
  8
0
 62
     0
100
AcDbLine
 10
11.78341739773876
 20
9.120426821088543
 30
0.0
 11
11.74341739773877
 21
9.16042682108854
 31
0.0
  0
LINE
  5
2055
330
202E
100
AcDbEntity
  8
0
 62
     0
100
AcDbLine
 10
11.7392232239146
 20
9.120426821088543
 30
0.0
 11
11.69922322391461
 21
9.16042682108854
 31
0.0
  0
LINE
  5
2056
330
202E
100
AcDbEntity
  8
0
 62
     0
100
AcDbLine
 10
11.69502905009045
 20
9.120426821088543
 30
0.0
 11
11.65502905009045
 21
9.16042682108854
 31
0.0
  0
LINE
  5
2057
330
202E
100
AcDbEntity
  8
0
 62
     0
100
AcDbLine
 10
11.65083487626629
 20
9.120426821088543
 30
0.0
 11
11.61083487626629
 21
9.16042682108854
 31
0.0
  0
LINE
  5
2058
330
202E
100
AcDbEntity
  8
0
 62
     0
100
AcDbLine
 10
11.60664070244213
 20
9.120426821088543
 30
0.0
 11
11.56664070244213
 21
9.16042682108854
 31
0.0
  0
LINE
  5
2059
330
202E
100
AcDbEntity
  8
0
 62
     0
100
AcDbLine
 10
11.56244652861797
 20
9.120426821088543
 30
0.0
 11
11.52244652861797
 21
9.16042682108854
 31
0.0
  0
LINE
  5
205A
330
202E
100
AcDbEntity
  8
0
 62
     0
100
AcDbLine
 10
11.51825235479381
 20
9.120426821088543
 30
0.0
 11
11.47825235479381
 21
9.16042682108854
 31
0.0
  0
LINE
  5
205B
330
202E
100
AcDbEntity
  8
0
 62
     0
100
AcDbLine
 10
11.47405818096965
 20
9.120426821088543
 30
0.0
 11
11.43405818096965
 21
9.16042682108854
 31
0.0
  0
LINE
  5
205C
330
202E
100
AcDbEntity
  8
0
 62
     0
100
AcDbLine
 10
11.42986400714549
 20
9.120426821088543
 30
0.0
 11
11.39401831761913
 21
9.156272510614906
 31
0.0
  0
LINE
  5
205D
330
202E
100
AcDbEntity
  8
0
 62
     0
100
AcDbLine
 10
12.09277661450788
 20
9.120426821088543
 30
0.0
 11
12.05277661450788
 21
9.16042682108854
 31
0.0
  0
LINE
  5
205E
330
202E
100
AcDbEntity
  8
0
 62
     0
100
AcDbLine
 10
12.13697078833203
 20
9.120426821088543
 30
0.0
 11
12.09697078833204
 21
9.16042682108854
 31
0.0
  0
LINE
  5
205F
330
202E
100
AcDbEntity
  8
0
 62
     0
100
AcDbLine
 10
12.1811649621562
 20
9.120426821088543
 30
0.0
 11
12.1411649621562
 21
9.16042682108854
 31
0.0
  0
LINE
  5
2060
330
202E
100
AcDbEntity
  8
0
 62
     0
100
AcDbLine
 10
12.22535913598036
 20
9.120426821088543
 30
0.0
 11
12.18535913598036
 21
9.16042682108854
 31
0.0
  0
LINE
  5
2061
330
202E
100
AcDbEntity
  8
0
 62
     0
100
AcDbLine
 10
12.26955330980451
 20
9.120426821088543
 30
0.0
 11
12.22955330980451
 21
9.16042682108854
 31
0.0
  0
LINE
  5
2062
330
202E
100
AcDbEntity
  8
0
 62
     0
100
AcDbLine
 10
12.31374748362867
 20
9.120426821088543
 30
0.0
 11
12.27374748362868
 21
9.16042682108854
 31
0.0
  0
LINE
  5
2063
330
202E
100
AcDbEntity
  8
0
 62
     0
100
AcDbLine
 10
12.35794165745283
 20
9.120426821088543
 30
0.0
 11
12.31794165745283
 21
9.16042682108854
 31
0.0
  0
LINE
  5
2064
330
202E
100
AcDbEntity
  8
0
 62
     0
100
AcDbLine
 10
12.40213583127699
 20
9.120426821088543
 30
0.0
 11
12.36213583127699
 21
9.16042682108854
 31
0.0
  0
LINE
  5
2065
330
202E
100
AcDbEntity
  8
0
 62
     0
100
AcDbLine
 10
12.44633000510115
 20
9.120426821088543
 30
0.0
 11
12.40633000510115
 21
9.16042682108854
 31
0.0
  0
LINE
  5
2066
330
202E
100
AcDbEntity
  8
0
 62
     0
100
AcDbLine
 10
12.49052417892531
 20
9.120426821088543
 30
0.0
 11
12.45052417892531
 21
9.16042682108854
 31
0.0
  0
LINE
  5
2067
330
202E
100
AcDbEntity
  8
0
 62
     0
100
AcDbLine
 10
12.53471835274947
 20
9.120426821088543
 30
0.0
 11
12.49471835274947
 21
9.16042682108854
 31
0.0
  0
LINE
  5
2068
330
202E
100
AcDbEntity
  8
0
 62
     0
100
AcDbLine
 10
12.57891252657363
 20
9.120426821088543
 30
0.0
 11
12.53891252657363
 21
9.16042682108854
 31
0.0
  0
LINE
  5
2069
330
202E
100
AcDbEntity
  8
0
 62
     0
100
AcDbLine
 10
12.62310670039779
 20
9.120426821088543
 30
0.0
 11
12.58310670039779
 21
9.16042682108854
 31
0.0
  0
LINE
  5
206A
330
202E
100
AcDbEntity
  8
0
 62
     0
100
AcDbLine
 10
12.66730087422195
 20
9.120426821088543
 30
0.0
 11
12.62730087422195
 21
9.16042682108854
 31
0.0
  0
LINE
  5
206B
330
202E
100
AcDbEntity
  8
0
 62
     0
100
AcDbLine
 10
12.68399674713724
 20
9.147925121997415
 30
0.0
 11
12.67149504804611
 21
9.16042682108854
 31
0.0
  0
ENDBLK
  5
206C
330
202E
100
AcDbEntity
  8
0
100
AcDbBlockEnd
  0
BLOCK
  5
2104
330
2103
100
AcDbEntity
  8
0
100
AcDbBlockBegin
  2
*U5
 70
     1
 10
0.0
 20
0.0
 30
0.0
  3
*U5
  1
*ANON
  0
SOLID
  5
2105
330
2103
100
AcDbEntity
  8
0
 62
     0
100
AcDbTrace
 10
8.138963202893219
 20
4.153110275044026
 30
0.0
 11
8.139143255728106
 21
4.152782880701087
 31
0.0
 12
8.138963202893224
 22
4.152372156093623
 32
0.0
 13
8.138963202893224
 23
4.152372156093623
 33
0.0
  0
SOLID
  5
2106
330
2103
100
AcDbEntity
  8
0
 62
     0
100
AcDbTrace
 10
8.138963202893224
 20
4.152372156093623
 30
0.0
 11
8.138028867975624
 21
4.151884078297518
 31
0.0
 12
8.136896703462809
 22
4.151631537884072
 32
0.0
 13
8.136896703462809
 23
4.151631537884072
 33
0.0
  0
SOLID
  5
2107
330
2103
100
AcDbEntity
  8
0
 62
     0
100
AcDbTrace
 10
8.138963202893224
 20
4.152372156093623
 30
0.0
 11
8.136896703462809
 21
4.151631537884072
 31
0.0
 12
8.135333985407216
 22
4.151529040414927
 32
0.0
 13
8.135333985407216
 23
4.151529040414927
 33
0.0
  0
SOLID
  5
2108
330
2103
100
AcDbEntity
  8
0
 62
     0
100
AcDbTrace
 10
8.138963202893224
 20
4.152372156093623
 30
0.0
 11
8.135333985407216
 21
4.151529040414927
 31
0.0
 12
8.133771267351626
 22
4.151631537884071
 32
0.0
 13
8.133771267351626
 23
4.151631537884071
 33
0.0
  0
SOLID
  5
2109
330
2103
100
AcDbEntity
  8
0
 62
     0
100
AcDbTrace
 10
8.138963202893224
 20
4.152372156093623
 30
0.0
 11
8.133771267351626
 21
4.151631537884071
 31
0.0
 12
8.132639102838806
 22
4.15188407829752
 32
0.0
 13
8.132639102838806
 23
4.15188407829752
 33
0.0
  0
SOLID
  5
210A
330
2103
100
AcDbEntity
  8
0
 62
     0
100
AcDbTrace
 10
8.138963202893224
 20
4.152372156093623
 30
0.0
 11
8.132639102838806
 21
4.15188407829752
 31
0.0
 12
8.131704767921211
 22
4.152372156093618
 32
0.0
 13
8.131704767921211
 23
4.152372156093618
 33
0.0
  0
SOLID
  5
210B
330
2103
100
AcDbEntity
  8
0
 62
     0
100
AcDbTrace
 10
8.138963202893224
 20
4.152372156093623
 30
0.0
 11
8.131704767921211
 21
4.152372156093618
 31
0.0
 12
8.131522845929975
 22
4.152741215568822
 32
0.0
 13
8.131522845929975
 23
4.152741215568822
 33
0.0
  0
SOLID
  5
210C
330
2103
100
AcDbEntity
  8
0
 62
     0
100
AcDbTrace
 10
8.138963202893224
 20
4.152372156093623
 30
0.0
 11
8.131522845929975
 21
4.152741215568822
 31
0.0
 12
8.13170476792121
 22
4.153110275044022
 32
0.0
 13
8.13170476792121
 23
4.153110275044022
 33
0.0
  0
SOLID
  5
210D
330
2103
100
AcDbEntity
  8
0
 62
     0
100
AcDbTrace
 10
8.138963202893224
 20
4.152372156093623
 30
0.0
 11
8.13170476792121
 21
4.153110275044022
 31
0.0
 12
8.132639102838815
 22
4.153598352840128
 32
0.0
 13
8.132639102838815
 23
4.153598352840128
 33
0.0
  0
SOLID
  5
210E
330
2103
100
AcDbEntity
  8
0
 62
     0
100
AcDbTrace
 10
8.138963202893224
 20
4.152372156093623
 30
0.0
 11
8.132639102838815
 21
4.153598352840128
 31
0.0
 12
8.133771267351617
 22
4.153850893253571
 32
0.0
 13
8.133771267351617
 23
4.153850893253571
 33
0.0
  0
SOLID
  5
210F
330
2103
100
AcDbEntity
  8
0
 62
     0
100
AcDbTrace
 10
8.138963202893224
 20
4.152372156093623
 30
0.0
 11
8.133771267351617
 21
4.153850893253571
 31
0.0
 12
8.135333985407216
 22
4.153953390722717
 32
0.0
 13
8.135333985407216
 23
4.153953390722717
 33
0.0
  0
SOLID
  5
2110
330
2103
100
AcDbEntity
  8
0
 62
     0
100
AcDbTrace
 10
8.138963202893224
 20
4.152372156093623
 30
0.0
 11
8.135333985407216
 21
4.153953390722717
 31
0.0
 12
8.136896703462786
 22
4.153850893253575
 32
0.0
 13
8.136896703462786
 23
4.153850893253575
 33
0.0
  0
SOLID
  5
2111
330
2103
100
AcDbEntity
  8
0
 62
     0
100
AcDbTrace
 10
8.138963202893224
 20
4.152372156093623
 30
0.0
 11
8.136896703462786
 21
4.153850893253575
 31
0.0
 12
8.138028867975622
 22
4.153598352840125
 32
0.0
 13
8.138028867975622
 23
4.153598352840125
 33
0.0
  0
SOLID
  5
2112
330
2103
100
AcDbEntity
  8
0
 62
     0
100
AcDbTrace
 10
8.138963202893224
 20
4.152372156093623
 30
0.0
 11
8.138028867975622
 21
4.153598352840125
 31
0.0
 12
8.138963202829472
 22
4.153110275044026
 32
0.0
 13
8.138963202829472
 23
4.153110275044026
 33
0.0
  0
ENDBLK
  5
2113
330
2103
100
AcDbEntity
  8
0
100
AcDbBlockEnd
  0
BLOCK
  5
2121
330
2120
100
AcDbEntity
  8
0
100
AcDbBlockBegin
  2
*U6
 70
     1
 10
0.0
 20
0.0
 30
0.0
  3
*U6
  1
*ANON
  0
SOLID
  5
2122
330
2120
100
AcDbEntity
  8
0
 62
     0
100
AcDbTrace
 10
10.74374552241409
 20
1.468978086593871
 30
0.0
 11
10.79790404618198
 21
1.468978086593871
 31
0.0
 12
10.79790404618198
 22
1.47897808659387
 32
0.0
 13
10.79790404618198
 23
1.47897808659387
 33
0.0
  0
SOLID
  5
2123
330
2120
100
AcDbEntity
  8
0
 62
     0
100
AcDbTrace
 10
10.74374552241409
 20
1.468978086593871
 30
0.0
 11
10.79790404618198
 21
1.47897808659387
 31
0.0
 12
10.74374552241409
 22
1.47897808659387
 32
0.0
 13
10.74374552241409
 23
1.47897808659387
 33
0.0
  0
ENDBLK
  5
2124
330
2120
100
AcDbEntity
  8
0
100
AcDbBlockEnd
  0
BLOCK
  5
2154
330
2153
100
AcDbEntity
  8
0
100
AcDbBlockBegin
  2
*U7
 70
     1
 10
0.0
 20
0.0
 30
0.0
  3
*U7
  1
*ANON
  0
ARC
  5
2155
330
2153
100
AcDbEntity
  8
0
  6
ByBlock
 62
     0
100
AcDbCircle
 10
23.47750690782989
 20
5.949831120719666
 30
0.0
 40
0.0273333333333337
100
AcDbArc
 50
209.1964044112009
 51
270.0
  0
ARC
  5
2156
330
2153
100
AcDbEntity
  8
0
  6
ByBlock
 62
     0
100
AcDbCircle
 10
23.47750690782989
 20
5.949831120719666
 30
0.0
 40
0.0553333333333336
100
AcDbArc
 50
193.9434348608393
 51
254.5483065683884
  0
ARC
  5
2157
330
2153
100
AcDbEntity
  8
0
  6
ByBlock
 62
     0
100
AcDbCircle
 10
23.47750690782989
 20
5.949831120719666
 30
0.0
 40
0.0833333333333337
100
AcDbArc
 50
189.2068962213677
 51
219.791819499579
  0
ARC
  5
2158
330
2153
100
AcDbEntity
  8
0
  6
ByBlock
 62
     0
100
AcDbCircle
 10
23.47750690782989
 20
5.949831120719666
 30
0.0
 40
0.1113333333333336
100
AcDbArc
 50
186.8782793511769
 51
208.622846730036
  0
ARC
  5
2159
330
2153
100
AcDbEntity
  8
0
  6
ByBlock
 62
     0
100
AcDbCircle
 10
23.47750690782989
 20
5.949831120719666
 30
0.0
 40
0.1393333333333336
100
AcDbArc
 50
185.4912524022741
 51
202.5056862397999
  0
ARC
  5
215A
330
2153
100
AcDbEntity
  8
0
  6
ByBlock
 62
     0
100
AcDbCircle
 10
23.47750690782989
 20
5.949831120719666
 30
0.0
 40
0.1673333333333336
100
AcDbArc
 50
184.5702456483729
 51
198.5858418267756
  0
ARC
  5
215B
330
2153
100
AcDbEntity
  8
0
  6
ByBlock
 62
     0
100
AcDbCircle
 10
23.47750690782989
 20
5.949831120719666
 30
0.0
 40
0.1953333333333336
100
AcDbArc
 50
183.9140181923206
 51
195.8450985955696
  0
ARC
  5
215C
330
2153
100
AcDbEntity
  8
0
  6
ByBlock
 62
     0
100
AcDbCircle
 10
23.47750690782989
 20
5.949831120719666
 30
0.0
 40
0.2233333333333336
100
AcDbArc
 50
183.4226788343253
 51
193.8160784752728
  0
ARC
  5
215D
330
2153
100
AcDbEntity
  8
0
  6
ByBlock
 62
     0
100
AcDbCircle
 10
23.47750690782989
 20
5.949831120719666
 30
0.0
 40
0.2513333333333336
100
AcDbArc
 50
183.0409914386516
 51
192.2514024131525
  0
ARC
  5
215E
330
2153
100
AcDbEntity
  8
0
  6
ByBlock
 62
     0
100
AcDbCircle
 10
23.47750690782989
 20
5.949831120719666
 30
0.0
 40
0.2793333333333336
100
AcDbArc
 50
182.735921673841
 51
191.0071088739897
  0
ARC
  5
215F
330
2153
100
AcDbEntity
  8
0
  6
ByBlock
 62
     0
100
AcDbCircle
 10
23.47750690782989
 20
5.949831120719666
 30
0.0
 40
0.3073333333333337
100
AcDbArc
 50
182.4864975324732
 51
189.9934614918301
  0
ARC
  5
2160
330
2153
100
AcDbEntity
  8
0
  6
ByBlock
 62
     0
100
AcDbCircle
 10
23.47750690782989
 20
5.949831120719666
 30
0.0
 40
0.3353333333333337
100
AcDbArc
 50
182.2787629196404
 51
189.1515110768931
  0
ENDBLK
  5
2161
330
2153
100
AcDbEntity
  8
0
100
AcDbBlockEnd
  0
BLOCK
  5
2381
330
2374
100
AcDbEntity
  8
0
100
AcDbBlockBegin
  2
SOLBET_Bloczek_OPTIMAL_240x240x590_brak_PRA
 70
     2
 10
0.0
 20
0.0
 30
0.0
  3
SOLBET_Bloczek_OPTIMAL_240x240x590_brak_PRA
  1

  0
ATTDEF
  5
2375
330
2374
100
AcDbEntity
  8
SOLBET_Wymiary_Opisy
100
AcDbText
 10
0.0000001757484824
 20
4.927022981232882
 30
0.0
 40
0.9913121336814832
  1
240x240x590
  7
Solbet_1
100
AcDbAttributeDefinition
  3

  2
WYMIARY
 70
     3
1001
AcDbAttr
1070
     0
1070
     1
  0
ATTDEF
  5
2376
330
2374
100
AcDbEntity
  8
SOLBET_Wymiary_Opisy
100
AcDbText
 10
0.0000001757484824
 20
3.414503573516785
 30
0.0
 40
0.9913121336814832
  1
400, 500, 600, 700
  7
Solbet_1
100
AcDbAttributeDefinition
  3

  2
KLASA_GĘSTOŚCI
 70
     9
1001
AcDbAttr
1070
     0
1070
     1
  0
ATTDEF
  5
2377
330
2374
100
AcDbEntity
  8
SOLBET_Wymiary_Opisy
100
AcDbText
 10
-0.0000000878742412
 20
0.2448647517692188
 30
0.0
 40
0.9913121336814832
  1
SOLBET
  7
Solbet_1
100
AcDbAttributeDefinition
  3

  2
FIRMA
 70
     3
1001
AcDbAttr
1070
     0
1070
     1
  0
ATTDEF
  5
2378
330
2374
100
AcDbEntity
  8
SOLBET_Wymiary_Opisy
100
AcDbText
 10
0.0000001757484824
 20
7.957332979580714
 30
0.0
 40
0.9913121336814832
  1
Bloczek
  7
Solbet_1
100
AcDbAttributeDefinition
  3
Nazwa
  2
NAZWA
 70
     3
1001
AcDbAttr
1070
     0
1070
     1
  0
ATTDEF
  5
2379
330
2374
100
AcDbEntity
  8
SOLBET_Wymiary_Opisy
100
AcDbText
 10
0.0000001757484824
 20
6.418284799346509
 30
0.0
 40
0.9913121336814832
  1
SOLBET OPTIMAL
  7
Solbet_1
100
AcDbAttributeDefinition
  3

  2
SYSTEM
 70
     3
1001
AcDbAttr
1070
     0
1070
     1
  0
ATTDEF
  5
237A
330
2374
100
AcDbEntity
  8
SOLBET_Wymiary_Opisy
100
AcDbText
 10
-0.0000000878742412
 20
1.744181511296331
 30
0.0
 40
0.9913121336814832
  1
Prawo
  7
Solbet_1
100
AcDbAttributeDefinition
  3

  2
WIDOK
 70
    11
1001
AcDbAttr
1070
     0
1070
     1
  0
LINE
  5
237B
330
2374
100
AcDbEntity
  8
SOLBET_Bloczki
100
AcDbLine
 10
12.00000017574848
 20
11.99999995881262
 30
0.0
 11
12.00000017574848
 21
-0.0000000411874908
 31
0.0
  0
LINE
  5
237C
330
2374
100
AcDbEntity
  8
SOLBET_Bloczki
100
AcDbLine
 10
12.00000017574848
 20
11.99999995881262
 30
0.0
 11
0.0000001757484824
 21
11.99999995881262
 31
0.0
  0
LINE
  5
237D
330
2374
100
AcDbEntity
  8
SOLBET_Bloczki
100
AcDbLine
 10
0.0000001757484824
 20
11.99999995881262
 30
0.0
 11
0.0000001757484824
 21
-0.0000000411873771
 31
0.0
  0
LINE
  5
237E
330
2374
100
AcDbEntity
  8
SOLBET_Bloczki
100
AcDbLine
 10
0.0000001757484824
 20
-0.0000000411873771
 30
0.0
 11
12.00000017574848
 21
-0.0000000411874908
 31
0.0
  0
ENDBLK
  5
2382
330
2374
100
AcDbEntity
  8
0
100
AcDbBlockEnd
  0
BLOCK
  5
23A7
330
239B
100
AcDbEntity
  8
0
100
AcDbBlockBegin
  2
SOLBET_Nadproze_140_12_1400x240x120_PRA
 70
     2
 10
0.0
 20
0.0
 30
0.0
  3
SOLBET_Nadproze_140_12_1400x240x120_PRA
  1

  0
ATTDEF
  5
239C
330
239B
100
AcDbEntity
  8
SOLBET_Wymiary_Opisy
100
AcDbText
 10
-0.0000002754209163
 20
4.914367003308234
 30
0.0
 40
0.9913121336814832
  1
1400x240x120
  7
Solbet_1
100
AcDbAttributeDefinition
  3

  2
WYMIARY
 70
     3
1001
AcDbAttr
1070
     0
1070
     1
  0
ATTDEF
  5
239D
330
239B
100
AcDbEntity
  8
SOLBET_Wymiary_Opisy
100
AcDbText
 10
0.0000001377104581
 20
3.269569171638422
 30
0.0
 40
0.9913121336814832
  1
20
  7
Solbet_1
100
AcDbAttributeDefinition
  3

  2
DŁUGOŚĆ_PODPARCIA_1
 70
    11
1001
AcDbAttr
1070
     0
1070
     1
  0
ATTDEF
  5
239E
330
239B
100
AcDbEntity
  8
SOLBET_Wymiary_Opisy
100
AcDbText
 10
0.0000001377104581
 20
0.2448647622976432
 30
0.0
 40
0.9913121336814832
  1
SOLBET
  7
Solbet_1
100
AcDbAttributeDefinition
  3

  2
FIRMA
 70
     3
1001
AcDbAttr
1070
     0
1070
     1
  0
ATTDEF
  5
239F
330
239B
100
AcDbEntity
  8
SOLBET_Wymiary_Opisy
100
AcDbText
 10
-0.0000002754209163
 20
6.505718915794942
 30
0.0
 40
0.9913121336814832
  1
Nadproże 140/12
  7
Solbet_1
100
AcDbAttributeDefinition
  3
Nazwa
  2
NAZWA
 70
     3
1001
AcDbAttr
1070
     0
1070
     1
  0
ATTDEF
  5
23A0
330
239B
100
AcDbEntity
  8
SOLBET_Wymiary_Opisy
100
AcDbText
 10
0.0000001377104581
 20
1.744181521824755
 30
0.0
 40
0.9913121336814832
  1
Prawo
  7
Solbet_1
100
AcDbAttributeDefinition
  3

  2
WIDOK
 70
    11
1001
AcDbAttr
1070
     0
1070
     1
  0
LINE
  5
23A1
330
239B
100
AcDbEntity
  8
SOLBET_Bloczki
100
AcDbLine
 10
5.999999594097516
 20
11.99999987551155
 30
0.0
 11
5.999999594097516
 21
-0.0000001244884515
 31
0.0
  0
LINE
  5
23A2
330
239B
100
AcDbEntity
  8
SOLBET_Bloczki
100
AcDbLine
 10
5.999999594097516
 20
-0.0000001244884515
 30
0.0
 11
-0.0000004059024832
 21
-0.0000001244884515
 31
0.0
  0
LINE
  5
23A3
330
239B
100
AcDbEntity
  8
SOLBET_Bloczki
100
AcDbLine
 10
-0.0000004059024832
 20
-0.0000001244884515
 30
0.0
 11
-0.0000004059024832
 21
11.99999987551155
 31
0.0
  0
LINE
  5
23A4
330
239B
100
AcDbEntity
  8
SOLBET_Bloczki
100
AcDbLine
 10
-0.0000004059024832
 20
11.99999987551155
 30
0.0
 11
5.999999594097516
 21
11.99999987551155
 31
0.0
  0
ENDBLK
  5
23A8
330
239B
100
AcDbEntity
  8
0
100
AcDbBlockEnd
  0
BLOCK
  5
2496
330
2495
100
AcDbEntity
  8
0
100
AcDbBlockBegin
  2
*U10
 70
     1
 10
0.0
 20
0.0
 30
0.0
  3
*U10
  1
*ANON
  0
SOLID
  5
2497
330
2495
100
AcDbEntity
  8
0
 62
     0
100
AcDbTrace
 10
8.138963202893219
 20
4.153110275044026
 30
0.0
 11
8.139143255728106
 21
4.152782880701087
 31
0.0
 12
8.138963202893224
 22
4.152372156093623
 32
0.0
 13
8.138963202893224
 23
4.152372156093623
 33
0.0
  0
SOLID
  5
2498
330
2495
100
AcDbEntity
  8
0
 62
     0
100
AcDbTrace
 10
8.138963202893224
 20
4.152372156093623
 30
0.0
 11
8.138028867975624
 21
4.151884078297518
 31
0.0
 12
8.136896703462809
 22
4.151631537884072
 32
0.0
 13
8.136896703462809
 23
4.151631537884072
 33
0.0
  0
SOLID
  5
2499
330
2495
100
AcDbEntity
  8
0
 62
     0
100
AcDbTrace
 10
8.138963202893224
 20
4.152372156093623
 30
0.0
 11
8.136896703462809
 21
4.151631537884072
 31
0.0
 12
8.135333985407216
 22
4.151529040414927
 32
0.0
 13
8.135333985407216
 23
4.151529040414927
 33
0.0
  0
SOLID
  5
249A
330
2495
100
AcDbEntity
  8
0
 62
     0
100
AcDbTrace
 10
8.138963202893224
 20
4.152372156093623
 30
0.0
 11
8.135333985407216
 21
4.151529040414927
 31
0.0
 12
8.133771267351626
 22
4.151631537884071
 32
0.0
 13
8.133771267351626
 23
4.151631537884071
 33
0.0
  0
SOLID
  5
249B
330
2495
100
AcDbEntity
  8
0
 62
     0
100
AcDbTrace
 10
8.138963202893224
 20
4.152372156093623
 30
0.0
 11
8.133771267351626
 21
4.151631537884071
 31
0.0
 12
8.132639102838806
 22
4.15188407829752
 32
0.0
 13
8.132639102838806
 23
4.15188407829752
 33
0.0
  0
SOLID
  5
249C
330
2495
100
AcDbEntity
  8
0
 62
     0
100
AcDbTrace
 10
8.138963202893224
 20
4.152372156093623
 30
0.0
 11
8.132639102838806
 21
4.15188407829752
 31
0.0
 12
8.131704767921211
 22
4.152372156093618
 32
0.0
 13
8.131704767921211
 23
4.152372156093618
 33
0.0
  0
SOLID
  5
249D
330
2495
100
AcDbEntity
  8
0
 62
     0
100
AcDbTrace
 10
8.138963202893224
 20
4.152372156093623
 30
0.0
 11
8.131704767921211
 21
4.152372156093618
 31
0.0
 12
8.131522845929975
 22
4.152741215568822
 32
0.0
 13
8.131522845929975
 23
4.152741215568822
 33
0.0
  0
SOLID
  5
249E
330
2495
100
AcDbEntity
  8
0
 62
     0
100
AcDbTrace
 10
8.138963202893224
 20
4.152372156093623
 30
0.0
 11
8.131522845929975
 21
4.152741215568822
 31
0.0
 12
8.13170476792121
 22
4.153110275044022
 32
0.0
 13
8.13170476792121
 23
4.153110275044022
 33
0.0
  0
SOLID
  5
249F
330
2495
100
AcDbEntity
  8
0
 62
     0
100
AcDbTrace
 10
8.138963202893224
 20
4.152372156093623
 30
0.0
 11
8.13170476792121
 21
4.153110275044022
 31
0.0
 12
8.132639102838815
 22
4.153598352840128
 32
0.0
 13
8.132639102838815
 23
4.153598352840128
 33
0.0
  0
SOLID
  5
24A0
330
2495
100
AcDbEntity
  8
0
 62
     0
100
AcDbTrace
 10
8.138963202893224
 20
4.152372156093623
 30
0.0
 11
8.132639102838815
 21
4.153598352840128
 31
0.0
 12
8.133771267351617
 22
4.153850893253571
 32
0.0
 13
8.133771267351617
 23
4.153850893253571
 33
0.0
  0
SOLID
  5
24A1
330
2495
100
AcDbEntity
  8
0
 62
     0
100
AcDbTrace
 10
8.138963202893224
 20
4.152372156093623
 30
0.0
 11
8.133771267351617
 21
4.153850893253571
 31
0.0
 12
8.135333985407216
 22
4.153953390722717
 32
0.0
 13
8.135333985407216
 23
4.153953390722717
 33
0.0
  0
SOLID
  5
24A2
330
2495
100
AcDbEntity
  8
0
 62
     0
100
AcDbTrace
 10
8.138963202893224
 20
4.152372156093623
 30
0.0
 11
8.135333985407216
 21
4.153953390722717
 31
0.0
 12
8.136896703462786
 22
4.153850893253575
 32
0.0
 13
8.136896703462786
 23
4.153850893253575
 33
0.0
  0
SOLID
  5
24A3
330
2495
100
AcDbEntity
  8
0
 62
     0
100
AcDbTrace
 10
8.138963202893224
 20
4.152372156093623
 30
0.0
 11
8.136896703462786
 21
4.153850893253575
 31
0.0
 12
8.138028867975622
 22
4.153598352840125
 32
0.0
 13
8.138028867975622
 23
4.153598352840125
 33
0.0
  0
SOLID
  5
24A4
330
2495
100
AcDbEntity
  8
0
 62
     0
100
AcDbTrace
 10
8.138963202893224
 20
4.152372156093623
 30
0.0
 11
8.138028867975622
 21
4.153598352840125
 31
0.0
 12
8.138963202829472
 22
4.153110275044026
 32
0.0
 13
8.138963202829472
 23
4.153110275044026
 33
0.0
  0
ENDBLK
  5
24A5
330
2495
100
AcDbEntity
  8
0
100
AcDbBlockEnd
  0
BLOCK
  5
24C4
330
24C1
100
AcDbEntity
  8
0
100
AcDbBlockBegin
  2
SOLBET_Bloczek_OPTIMAL_240x240x590_P+W_PRA
 70
     2
 10
0.0
 20
0.0
 30
0.0
  3
SOLBET_Bloczek_OPTIMAL_240x240x590_P+W_PRA
  1

  0
ATTDEF
  5
24C5
330
24C1
100
AcDbEntity
  8
SOLBET_Wymiary_Opisy
100
AcDbText
 10
-0.0000000878742412
 20
6.303237404038322
 30
0.0
 40
0.9913121336814832
  1
240x240x590
  7
Solbet_1
100
AcDbAttributeDefinition
  3

  2
WYMIARY
 70
     3
1001
AcDbAttr
1070
     0
1070
     1
  0
ATTDEF
  5
24C6
330
24C1
100
AcDbEntity
  8
SOLBET_Wymiary_Opisy
100
AcDbText
 10
-0.0000000878742412
 20
4.790717996322224
 30
0.0
 40
0.9913121336814832
  1
400, 500, 600, 700
  7
Solbet_1
100
AcDbAttributeDefinition
  3

  2
KLASA_GĘSTOŚCI
 70
     9
1001
AcDbAttr
1070
     0
1070
     1
  0
ATTDEF
  5
24C7
330
24C1
100
AcDbEntity
  8
SOLBET_Wymiary_Opisy
100
AcDbText
 10
-0.0000000878742412
 20
3.269569161109998
 30
0.0
 40
0.9913121336814832
  1
pióra+wpusty
  7
Solbet_1
100
AcDbAttributeDefinition
  3

  2
PROFILOWANIE
 70
    11
1001
AcDbAttr
1070
     0
1070
     1
  0
ATTDEF
  5
24C8
330
24C1
100
AcDbEntity
  8
SOLBET_Wymiary_Opisy
100
AcDbText
 10
-0.0000000878742412
 20
0.2448647517692188
 30
0.0
 40
0.9913121336814832
  1
SOLBET
  7
Solbet_1
100
AcDbAttributeDefinition
  3

  2
FIRMA
 70
     3
1001
AcDbAttr
1070
     0
1070
     1
  0
ATTDEF
  5
24C9
330
24C1
100
AcDbEntity
  8
SOLBET_Wymiary_Opisy
100
AcDbText
 10
-0.0000000878742412
 20
9.333547402386153
 30
0.0
 40
0.9913121336814832
  1
Bloczek
  7
Solbet_1
100
AcDbAttributeDefinition
  3
Nazwa
  2
NAZWA
 70
     3
1001
AcDbAttr
1070
     0
1070
     1
  0
ATTDEF
  5
24CA
330
24C1
100
AcDbEntity
  8
SOLBET_Wymiary_Opisy
100
AcDbText
 10
-0.0000000878742412
 20
7.794499222151949
 30
0.0
 40
0.9913121336814832
  1
SOLBET OPTIMAL
  7
Solbet_1
100
AcDbAttributeDefinition
  3

  2
SYSTEM
 70
     3
1001
AcDbAttr
1070
     0
1070
     1
  0
ATTDEF
  5
24CB
330
24C1
100
AcDbEntity
  8
SOLBET_Wymiary_Opisy
100
AcDbText
 10
-0.0000000878742412
 20
1.744181511296331
 30
0.0
 40
0.9913121336814832
  1
Prawo
  7
Solbet_1
100
AcDbAttributeDefinition
  3

  2
WIDOK
 70
    11
1001
AcDbAttr
1070
     0
1070
     1
  0
LINE
  5
24CC
330
24C1
100
AcDbEntity
  8
SOLBET_Bloczki
100
AcDbLine
 10
12.00000017574848
 20
11.99999995881262
 30
0.0
 11
12.00000017574848
 21
-0.0000000411874908
 31
0.0
  0
LINE
  5
24CD
330
24C1
100
AcDbEntity
  8
SOLBET_Bloczki
100
AcDbLine
 10
12.00000017574848
 20
11.99999995881262
 30
0.0
 11
0.0000001757484824
 21
11.99999995881262
 31
0.0
  0
LINE
  5
24CE
330
24C1
100
AcDbEntity
  8
SOLBET_Bloczki
100
AcDbLine
 10
0.0000001757484824
 20
11.99999995881262
 30
0.0
 11
0.0000001757484824
 21
-0.0000000411873771
 31
0.0
  0
LINE
  5
24CF
330
24C1
100
AcDbEntity
  8
SOLBET_Bloczki
100
AcDbLine
 10
0.0000001757484824
 20
-0.0000000411873771
 30
0.0
 11
12.00000017574848
 21
-0.0000000411874908
 31
0.0
  0
ENDBLK
  5
24D0
330
24C1
100
AcDbEntity
  8
0
100
AcDbBlockEnd
  0
BLOCK
  5
2B41
330
2B2E
100
AcDbEntity
  8
0
100
AcDbBlockBegin
  2
SOLBET_Nadproze_120x240x1400_zz_PRA
 70
     2
 10
0.0
 20
0.0
 30
0.0
  3
SOLBET_Nadproze_120x240x1400_zz_PRA
  1

  0
ATTDEF
  5
2B2F
330
2B2E
100
AcDbEntity
  8
SOLBET_Wymiary_Opisy
100
AcDbText
 10
-0.0000002754209163
 20
4.914367003308234
 30
0.0
 40
0.9913121336814832
  1
120x240x1400
  7
Solbet_1
100
AcDbAttributeDefinition
  3

  2
WYMIARY
 70
    11
1001
AcDbAttr
1070
     0
1070
     1
  0
ATTDEF
  5
2B30
330
2B2E
100
AcDbEntity
  8
SOLBET_Wymiary_Opisy
100
AcDbText
 10
0.0000001377104581
 20
3.269569171638422
 30
0.0
 40
0.9913121336814832
  1
20
  7
Solbet_1
100
AcDbAttributeDefinition
  3

  2
DŁUGOŚĆ_PODPARCIA_1
 70
    11
1001
AcDbAttr
1070
     0
1070
     1
  0
ATTDEF
  5
2B31
330
2B2E
100
AcDbEntity
  8
SOLBET_Wymiary_Opisy
100
AcDbText
 10
0.0000001377104581
 20
0.2448647622976432
 30
0.0
 40
0.9913121336814832
  1
SOLBET
  7
Solbet_1
100
AcDbAttributeDefinition
  3

  2
FIRMA
 70
    11
1001
AcDbAttr
1070
     0
1070
     1
  0
ATTDEF
  5
2B32
330
2B2E
100
AcDbEntity
  8
SOLBET_Wymiary_Opisy
100
AcDbText
 10
-0.0000002754209163
 20
6.505718915794942
 30
0.0
 40
0.9913121336814832
  1
Nadproże 140/12
  7
Solbet_1
100
AcDbAttributeDefinition
  3
Nazwa
  2
NAZWA
 70
    11
1001
AcDbAttr
1070
     0
1070
     1
  0
ATTDEF
  5
2B33
330
2B2E
100
AcDbEntity
  8
SOLBET_Wymiary_Opisy
100
AcDbText
 10
0.0000001377104581
 20
1.744181521824755
 30
0.0
 40
0.9913121336814832
  1
Prawo
  7
Solbet_1
100
AcDbAttributeDefinition
  3

  2
WIDOK
 70
    11
1001
AcDbAttr
1070
     0
1070
     1
  0
LINE
  5
2B34
330
2B2E
100
AcDbEntity
  8
SOLBET_Bloczki
100
AcDbLine
 10
5.999999594097516
 20
11.99999987551155
 30
0.0
 11
5.999999594097516
 21
-0.0000001244884515
 31
0.0
  0
LINE
  5
2B35
330
2B2E
100
AcDbEntity
  8
SOLBET_Bloczki
100
AcDbLine
 10
5.999999594097516
 20
-0.0000001244884515
 30
0.0
 11
-0.0000004059024832
 21
-0.0000001244884515
 31
0.0
  0
LINE
  5
2B36
330
2B2E
100
AcDbEntity
  8
SOLBET_Bloczki
100
AcDbLine
 10
-0.0000004059024832
 20
-0.0000001244884515
 30
0.0
 11
-0.0000004059024832
 21
11.99999987551155
 31
0.0
  0
LINE
  5
2B37
330
2B2E
100
AcDbEntity
  8
SOLBET_Bloczki
100
AcDbLine
 10
-0.0000004059024832
 20
11.99999987551155
 30
0.0
 11
5.999999594097516
 21
11.99999987551155
 31
0.0
  0
LWPOLYLINE
  5
2B38
330
2B2E
100
AcDbEntity
  8
SOLBET_Zbrojenie_Konstrukcja
  6
Continuous
100
AcDbPolyline
 90
        4
 70
     0
 43
0.0
 10
5.249998918748815
 20
10.74999987551166
 10
5.249998918748815
 20
0.7499998755115485
 10
0.7499989187488155
 20
0.7499998755115485
 10
0.7499989187488155
 20
10.74999987551166
  0
LWPOLYLINE
  5
2B39
330
2B2E
100
AcDbEntity
  8
SOLBET_Zbrojenie_Konstrukcja
  6
Continuous
100
AcDbPolyline
 90
        2
 70
     1
 43
0.3
 10
5.104412450089967
 20
10.42241386794614
 42
-1.0
 10
4.804412450089785
 20
10.42241386794614
 42
-1.0
  0
LWPOLYLINE
  5
2B3A
330
2B2E
100
AcDbEntity
  8
SOLBET_Zbrojenie_Konstrukcja
  6
Continuous
100
AcDbPolyline
 90
        2
 70
     1
 43
0.3
 10
0.8955853874078911
 20
10.42241386794614
 42
1.0
 10
1.195585387407845
 20
10.42241386794614
 42
1.0
  0
LWPOLYLINE
  5
2B3B
330
2B2E
100
AcDbEntity
  8
SOLBET_Zbrojenie_Konstrukcja
  6
Continuous
100
AcDbPolyline
 90
        2
 70
     1
 43
0.3
 10
5.104412450089967
 20
2.418619077883477
 42
-1.0
 10
4.804412450089785
 20
2.418619077883477
 42
-1.0
  0
LWPOLYLINE
  5
2B3C
330
2B2E
100
AcDbEntity
  8
SOLBET_Zbrojenie_Konstrukcja
  6
Continuous
100
AcDbPolyline
 90
        2
 70
     1
 43
0.3
 10
0.8955853874078911
 20
2.418619077883477
 42
1.0
 10
1.195585387407845
 20
2.418619077883477
 42
1.0
  0
LWPOLYLINE
  5
2B3D
330
2B2E
100
AcDbEntity
  8
SOLBET_Zbrojenie_Konstrukcja
  6
Continuous
100
AcDbPolyline
 90
        2
 70
     1
 43
0.3
 10
4.185083775025077
 20
1.061575122894964
 42
-1.0
 10
3.885083775025123
 20
1.061575122894964
 42
-1.0
  0
LWPOLYLINE
  5
2B3E
330
2B2E
100
AcDbEntity
  8
SOLBET_Zbrojenie_Konstrukcja
  6
Continuous
100
AcDbPolyline
 90
        2
 70
     1
 43
0.3
 10
1.814914062472325
 20
1.061575122894964
 42
1.0
 10
2.114914062472507
 20
1.061575122894964
 42
1.0
  0
ENDBLK
  5
2B42
330
2B2E
100
AcDbEntity
  8
0
100
AcDbBlockEnd
  0
BLOCK
  5
2B52
330
2B45
100
AcDbEntity
  8
0
100
AcDbBlockBegin
  2
SOLBET_Bloczek_Optimal_240x240x590_G_KG500_PRA
 70
     2
 10
0.0
 20
0.0
 30
0.0
  3
SOLBET_Bloczek_Optimal_240x240x590_G_KG500_PRA
  1

  0
ATTDEF
  5
2B46
330
2B45
100
AcDbEntity
  8
SOLBET_Wymiary_Opisy
100
AcDbText
 10
0.0000001757484824
 20
4.927022981232882
 30
0.0
 40
0.9913121336814832
  1
240x240x590
  7
Solbet_1
100
AcDbAttributeDefinition
  3

  2
WYMIARY
 70
    11
1001
AcDbAttr
1070
     0
1070
     1
  0
ATTDEF
  5
2B47
330
2B45
100
AcDbEntity
  8
SOLBET_Wymiary_Opisy
100
AcDbText
 10
0.0000001757484824
 20
3.414503573516785
 30
0.0
 40
0.9913121336814832
  1
500
  7
Solbet_1
100
AcDbAttributeDefinition
  3

  2
KLASA_GĘSTOŚCI
 70
    11
1001
AcDbAttr
1070
     0
1070
     1
  0
ATTDEF
  5
2B48
330
2B45
100
AcDbEntity
  8
SOLBET_Wymiary_Opisy
100
AcDbText
 10
-0.0000000878742412
 20
0.2448647517692188
 30
0.0
 40
0.9913121336814832
  1
SOLBET
  7
Solbet_1
100
AcDbAttributeDefinition
  3

  2
FIRMA
 70
    11
1001
AcDbAttr
1070
     0
1070
     1
  0
ATTDEF
  5
2B49
330
2B45
100
AcDbEntity
  8
SOLBET_Wymiary_Opisy
100
AcDbText
 10
0.0000001757484824
 20
7.957332979580714
 30
0.0
 40
0.9913121336814832
  1
Bloczek
  7
Solbet_1
100
AcDbAttributeDefinition
  3
Nazwa
  2
NAZWA
 70
    11
1001
AcDbAttr
1070
     0
1070
     1
  0
ATTDEF
  5
2B4A
330
2B45
100
AcDbEntity
  8
SOLBET_Wymiary_Opisy
100
AcDbText
 10
0.0000001757484824
 20
6.418284799346509
 30
0.0
 40
0.9913121336814832
  1
SOLBET Optimal
  7
Solbet_1
100
AcDbAttributeDefinition
  3

  2
SYSTEM
 70
    11
1001
AcDbAttr
1070
     0
1070
     1
  0
ATTDEF
  5
2B4B
330
2B45
100
AcDbEntity
  8
SOLBET_Wymiary_Opisy
100
AcDbText
 10
-0.0000000878742412
 20
1.744181511296331
 30
0.0
 40
0.9913121336814832
  1
Prawo
  7
Solbet_1
100
AcDbAttributeDefinition
  3

  2
WIDOK
 70
    11
1001
AcDbAttr
1070
     0
1070
     1
  0
LINE
  5
2B4C
330
2B45
100
AcDbEntity
  8
SOLBET_Bloczki
100
AcDbLine
 10
12.00000017574848
 20
11.99999995881262
 30
0.0
 11
12.00000017574848
 21
-0.0000000411874908
 31
0.0
  0
LINE
  5
2B4D
330
2B45
100
AcDbEntity
  8
SOLBET_Bloczki
100
AcDbLine
 10
12.00000017574848
 20
11.99999995881262
 30
0.0
 11
0.0000001757484824
 21
11.99999995881262
 31
0.0
  0
LINE
  5
2B4E
330
2B45
100
AcDbEntity
  8
SOLBET_Bloczki
100
AcDbLine
 10
0.0000001757484824
 20
11.99999995881262
 30
0.0
 11
0.0000001757484824
 21
-0.0000000411873771
 31
0.0
  0
LINE
  5
2B4F
330
2B45
100
AcDbEntity
  8
SOLBET_Bloczki
100
AcDbLine
 10
0.0000001757484824
 20
-0.0000000411873771
 30
0.0
 11
12.00000017574848
 21
-0.0000000411874908
 31
0.0
  0
ENDBLK
  5
2B53
330
2B45
100
AcDbEntity
  8
0
100
AcDbBlockEnd
  0
ENDSEC
  0
SECTION
  2
ENTITIES
  0
LINE
  5
2287
330
1F
100
AcDbEntity
  8
SOLBET_Wymiary_Opisy
100
AcDbLine
 10
52.55503163746266
 20
157.7693847838978
 30
0.0
 11
136.6911365366156
 21
157.7693847838978
 31
0.0
  0
INSERT
  5
228E
330
1F
100
AcDbEntity
  8
SOLBET_Zbrojenie_Konstrukcja
100
AcDbBlockReference
  2
*U5
 10
-333.149133245681
 20
-102.4984130552242
 30
0.0
 41
50.0
 42
50.0
 43
50.0
1001
ASO_SCHRAFF
1005
2291
1070
     0
1005
2290
  0
INSERT
  5
2291
330
1F
100
AcDbEntity
  8
SOLBET_Zbrojenie_Konstrukcja
100
AcDbBlockReference
  2
*U5
 10
473.9622516287034
 20
-102.4984130552242
 30
0.0
 41
-50.0
 42
50.0
 43
50.0
1001
ASO_SCHRAFF
1005
2291
1070
     0
1005
2290
  0
LINE
  5
2294
330
1F
100
AcDbEntity
  8
SOLBET_Wymiary_Opisy
100
AcDbLine
 10
136.6911365366156
 20
251.8231395636009
 30
0.0
 11
136.6911365366156
 21
73.3512930139201
 31
0.0
  0
LWPOLYLINE
  5
2295
330
1F
100
AcDbEntity
  8
SOLBET_Zbrojenie_Konstrukcja
100
AcDbPolyline
 90
        2
 70
     1
 43
0.3
 10
65.2326153139054
 20
221.0322409133784
 42
1.0
 10
65.5326153139083
 20
221.0322409133784
 42
1.0
  0
LWPOLYLINE
  5
2296
330
1F
100
AcDbEntity
  8
SOLBET_Zbrojenie_Konstrukcja
100
AcDbPolyline
 90
        2
 70
     1
 43
0.3
 10
70.62725927711813
 20
221.0106212382976
 42
1.0
 10
70.92725927712104
 20
221.0106212382976
 42
1.0
  0
LWPOLYLINE
  5
2297
330
1F
100
AcDbEntity
  8
SOLBET_Zbrojenie_Konstrukcja
100
AcDbPolyline
 90
        2
 70
     1
 43
0.3
 10
70.62725927711813
 20
211.1737093632379
 42
1.0
 10
70.92725927712104
 20
211.1737093632379
 42
1.0
  0
LWPOLYLINE
  5
2298
330
1F
100
AcDbEntity
  8
SOLBET_Zbrojenie_Konstrukcja
100
AcDbPolyline
 90
        2
 70
     1
 43
0.3
 10
65.2326153139054
 20
211.1737093632379
 42
1.0
 10
65.5326153139083
 20
211.1737093632379
 42
1.0
  0
LINE
  5
2299
330
1F
100
AcDbEntity
  8
SOLBET_Zbrojenie_Konstrukcja
100
AcDbLine
 10
67.67753538516785
 20
219.9432744005441
 30
0.0
 11
66.26332182279816
 21
221.3574879629174
 31
0.0
  0
LINE
  5
229A
330
1F
100
AcDbEntity
  8
SOLBET_Zbrojenie_Konstrukcja
100
AcDbLine
 10
66.47753538517804
 20
218.7432744005433
 30
0.0
 11
65.06332182280107
 21
220.1574879629167
 31
0.0
  0
LWPOLYLINE
  5
229B
330
1F
100
AcDbEntity
  8
SOLBET_Zbrojenie_Konstrukcja
100
AcDbPolyline
 90
        5
 70
     0
 43
0.0
 10
71.06895311690255
 20
210.8574879629174
 10
71.06895311690255
 20
221.3574879629174
 10
65.06332182280107
 20
221.3574879629174
 10
65.06332182280107
 20
210.8574879629174
 10
71.06895311690255
 20
210.8574879629174
  0
LINE
  5
229D
330
1F
100
AcDbEntity
  8
SOLBET_Wymiary_Opisy
100
AcDbLine
 10
52.08832606793089
 20
251.8231395636009
 30
0.0
 11
136.6911365366156
 21
251.8231395636009
 31
0.0
  0
LWPOLYLINE
  5
22A0
330
1F
100
AcDbEntity
  8
SOLBET_Stolarka_Okna
100
AcDbPolyline
 90
        4
 70
     1
 43
0.0
 10
63.77314558715238
 20
120.6313039015746
 10
65.13495132684124
 20
120.2822555257386
 10
65.13495132684124
 20
119.4298997371385
 10
63.77314558715238
 20
119.4298997371385
  0
LWPOLYLINE
  5
22A1
330
1F
100
AcDbEntity
  8
SOLBET_Stolarka_Okna
100
AcDbPolyline
 90
       15
 70
     1
 43
0.0
 10
60.69221506071858
 20
112.6074879629174
 10
64.19221506071131
 20
112.6074879629174
 10
64.19221506071131
 20
115.7338086606083
 10
63.1080867297112
 20
115.7338086606083
 10
63.1080867297112
 20
116.6058760815264
 10
62.03436533522995
 20
116.6058760815264
 10
62.03436533522995
 20
117.5567543785743
 10
61.68869741097092
 20
117.5567543785743
 10
60.69221506071858
 20
117.3381202332763
 10
60.69221506071858
 20
115.7675579154144
 10
60.22905844163119
 20
115.5054927481266
 10
60.22905844163119
 20
114.0997966107076
 10
60.48943950718762
 20
114.0997966107076
 10
60.48943950718762
 20
114.6203637399354
 10
60.69221506071858
 20
114.6203637399354
  0
LINE
  5
22A2
330
1F
100
AcDbEntity
  8
SOLBET_Wymiary_Opisy
100
AcDbLine
 10
52.55503163746266
 20
155.32750916933
 30
0.0
 11
136.6911365366156
 21
155.32750916933
 31
0.0
  0
LINE
  5
22A3
330
1F
100
AcDbEntity
  8
SOLBET_Stolarka_Okna
100
AcDbLine
 10
60.69221506071858
 20
185.6074879629174
 30
0.0
 11
64.19221506071131
 21
185.6074879629174
 31
0.0
  0
LINE
  5
22A4
330
1F
100
AcDbEntity
  8
SOLBET_Stolarka_Okna
100
AcDbLine
 10
64.19221506071131
 20
185.6074879629174
 30
0.0
 11
64.19221506071131
 21
182.4811672652264
 31
0.0
  0
LINE
  5
22A5
330
1F
100
AcDbEntity
  8
SOLBET_Stolarka_Okna
100
AcDbLine
 10
64.19221506071131
 20
182.4811672652264
 30
0.0
 11
63.1080867297112
 21
182.4811672652264
 31
0.0
  0
LINE
  5
22A6
330
1F
100
AcDbEntity
  8
SOLBET_Stolarka_Okna
100
AcDbLine
 10
63.1080867297112
 20
182.4811672652264
 30
0.0
 11
63.1080867297112
 21
181.6090998443084
 31
0.0
  0
LINE
  5
22A7
330
1F
100
AcDbEntity
  8
SOLBET_Stolarka_Okna
100
AcDbLine
 10
63.1080867297112
 20
181.6090998443084
 30
0.0
 11
62.03436533522995
 21
181.6090998443084
 31
0.0
  0
LINE
  5
22A8
330
1F
100
AcDbEntity
  8
SOLBET_Stolarka_Okna
100
AcDbLine
 10
62.03436533522995
 20
181.6090998443084
 30
0.0
 11
62.03436533522995
 21
180.6582215472605
 31
0.0
  0
LINE
  5
22A9
330
1F
100
AcDbEntity
  8
SOLBET_Stolarka_Okna
100
AcDbLine
 10
62.03436533522995
 20
180.6582215472605
 30
0.0
 11
61.68869741097092
 21
180.6582215472605
 31
0.0
  0
LINE
  5
22AA
330
1F
100
AcDbEntity
  8
SOLBET_Stolarka_Okna
100
AcDbLine
 10
61.68869741097092
 20
180.6582215472605
 30
0.0
 11
60.69221506071858
 21
180.8768556925585
 31
0.0
  0
LINE
  5
22AB
330
1F
100
AcDbEntity
  8
SOLBET_Stolarka_Okna
100
AcDbLine
 10
60.69221506071858
 20
180.8768556925585
 30
0.0
 11
60.69221506071858
 21
185.6074879629174
 31
0.0
  0
LWPOLYLINE
  5
22AC
330
1F
100
AcDbEntity
  8
SOLBET_Stolarka_Okna
100
AcDbPolyline
 90
       15
 70
     1
 43
0.0
 10
62.03436533522995
 20
118.3726737412959
 10
62.03436533522995
 20
117.6679321884636
 10
60.69221506071858
 20
117.6679321884636
 10
60.69221506071858
 20
120.4717042226453
 10
61.9525028096084
 20
120.9087825900257
 10
61.9525028096084
 20
119.337967917652
 10
63.59489139149605
 20
119.337967917652
 10
65.13495132684124
 20
119.337967917652
 10
65.13495132684124
 20
115.4413588870135
 10
64.44016059220825
 20
115.4413588870135
 10
64.44016059220825
 20
117.6679321884636
 10
63.27536574282362
 20
117.6679321884636
 10
63.27536574282362
 20
116.9325510122559
 10
62.41709667826739
 20
116.9325510122559
 10
62.41709667826739
 20
118.3726737412959
  0
LWPOLYLINE
  5
22AD
330
1F
100
AcDbEntity
  8
SOLBET_Stolarka_Okna
100
AcDbPolyline
 90
        4
 70
     1
 43
0.0
 10
63.77314558715238
 20
177.5836720242601
 10
65.13495132684124
 20
177.9327204000925
 10
65.13495132684124
 20
178.7850761886963
 10
63.77314558715238
 20
178.7850761886963
  0
LWPOLYLINE
  5
22AE
330
1F
100
AcDbEntity
  8
SOLBET_Stolarka_Okna
100
AcDbPolyline
 90
       15
 70
     1
 43
0.0
 10
62.03436533522995
 20
179.8423021845389
 10
62.03436533522995
 20
180.5470437373711
 10
60.69221506071858
 20
180.5470437373711
 10
60.69221506071858
 20
177.7432717031858
 10
61.9525028096084
 20
177.3061933358091
 10
61.9525028096084
 20
178.8770080081827
 10
63.59489139149605
 20
178.8770080081827
 10
65.13495132684124
 20
178.8770080081827
 10
65.13495132684124
 20
182.7736170388212
 10
64.44016059220825
 20
182.7736170388212
 10
64.44016059220825
 20
180.5470437373711
 10
63.27536574282362
 20
180.5470437373711
 10
63.27536574282362
 20
181.2824249135789
 10
62.41709667826739
 20
181.2824249135789
 10
62.41709667826739
 20
179.8423021845389
  0
LINE
  5
22AF
330
1F
100
AcDbEntity
  8
SOLBET_Stolarka_Okna
100
AcDbLine
 10
63.83616641581989
 20
112.6074879629174
 30
0.0
 11
63.83616641581989
 21
112.1074879629174
 31
0.0
  0
LINE
  5
22B2
330
1F
100
AcDbEntity
  8
SOLBET_Stolarka_Okna
100
AcDbLine
 10
60.58819974050653
 20
114.5207191013811
 30
0.0
 11
60.58819974050653
 21
112.1957349842465
 31
0.0
  0
LINE
  5
22B3
330
1F
100
AcDbEntity
  8
SOLBET_Stolarka_Okna
100
AcDbLine
 10
60.58819974050653
 20
112.1957349842465
 30
0.0
 11
53.25288515390798
 21
112.1957349842465
 31
0.0
  0
LINE
  5
22B4
330
1F
100
AcDbEntity
  8
SOLBET_Stolarka_Okna
100
AcDbLine
 10
53.25288515390798
 20
112.1957349842465
 30
0.0
 11
53.25288515390798
 21
112.8797762553988
 31
0.0
  0
LINE
  5
22B5
330
1F
100
AcDbEntity
  8
SOLBET_Stolarka_Okna
100
AcDbLine
 10
60.54833466626383
 20
114.5240427703189
 30
0.0
 11
60.54833466626383
 21
113.7831840150444
 31
0.0
  0
LINE
  5
22B6
330
1F
100
AcDbEntity
  8
SOLBET_Stolarka_Okna
100
AcDbLine
 10
60.54833466626383
 20
113.7831840150444
 30
0.0
 11
48.32771413106616
 21
112.2698840599856
 31
0.0
  0
LINE
  5
22B7
330
1F
100
AcDbEntity
  8
SOLBET_Stolarka_Okna
100
AcDbLine
 10
47.50075578054906
 20
111.2849695522506
 30
0.0
 11
47.50075578054906
 21
110.712551289265
 31
0.0
  0
LINE
  5
22B8
330
1F
100
AcDbEntity
  8
SOLBET_Stolarka_Okna
100
AcDbLine
 10
47.50075578054906
 20
110.712551289265
 30
0.0
 11
47.80783766740728
 21
110.712551289265
 31
0.0
  0
LINE
  5
22B9
330
1F
100
AcDbEntity
  8
SOLBET_Stolarka_Okna
100
AcDbLine
 10
47.80783766740728
 20
110.712551289265
 30
0.0
 11
47.80783766740728
 21
111.2446246438099
 31
0.0
  0
ARC
  5
22BA
330
1F
100
AcDbEntity
  8
SOLBET_Stolarka_Okna
100
AcDbCircle
 10
48.50075578054907
 20
111.2849695522506
 30
0.0
 40
1.0
100
AcDbArc
 50
99.9647143110222
 51
180.0
  0
LINE
  5
22BB
330
1F
100
AcDbEntity
  8
SOLBET_Stolarka_Okna
100
AcDbLine
 10
53.98988285720929
 20
112.9710399181622
 30
0.0
 11
53.98988285720929
 21
112.1957349842465
 31
0.0
  0
CIRCLE
  5
22BC
330
1F
100
AcDbEntity
  8
SOLBET_Stolarka_Okna
100
AcDbCircle
 10
63.80018628245102
 20
112.3599314237923
 30
0.0
 40
0.25244346087405
  0
ARC
  5
22BD
330
1F
100
AcDbEntity
  8
SOLBET_Stolarka_Okna
100
AcDbCircle
 10
64.51096022988145
 20
112.3545128362544
 30
0.0
 40
0.4069335296814501
100
AcDbArc
 50
141.5623929961197
 51
217.3757720391446
  0
LINE
  5
22BE
330
1F
100
AcDbEntity
  8
SOLBET_Stolarka_Okna
100
AcDbLine
 10
62.15044109737732
 20
178.6159220589485
 30
0.0
 11
62.15044109737732
 21
157.7693847838978
 31
0.0
  0
LINE
  5
22BF
330
1F
100
AcDbEntity
  8
SOLBET_Stolarka_Okna
100
AcDbLine
 10
63.60851710454676
 20
178.6159220589485
 30
0.0
 11
63.60851710454676
 21
157.7693847838978
 31
0.0
  0
LINE
  5
22C0
330
1F
100
AcDbEntity
  8
SOLBET_Stolarka_Okna
100
AcDbLine
 10
62.15044109737732
 20
155.32750916933
 30
0.0
 11
62.15044109737732
 21
119.5440691672535
 31
0.0
  0
LINE
  5
22C1
330
1F
100
AcDbEntity
  8
SOLBET_Stolarka_Okna
100
AcDbLine
 10
63.60851710454676
 20
155.32750916933
 30
0.0
 11
63.60851710454676
 21
119.5440691672535
 31
0.0
  0
LWPOLYLINE
  5
22C3
330
1F
100
AcDbEntity
  8
SOLBET_Stolarka_Okna
100
AcDbPolyline
 90
        4
 70
     1
 43
0.0
 10
64.19221506071131
 20
112.1074879629174
 10
81.19221506071131
 20
112.1074879629174
 10
81.19221506071131
 20
114.1074879629174
 10
64.19221506071131
 20
114.1074879629174
1001
ASO_SCHRAFF
1005
22C3
1070
     1
1002
{
1070
     1
1005
22C3
1002
}
1002
{
1070
     2
1005
2356
1002
}
1002
{
1070
     4
1000
SOFIHOLZ
1040
0.5
1040
0.0
1070
     0
1000
T__SCHR
1070
   256
1000
VONLAYER
1040
50.0
1070
     1
1002
}
  0
LINE
  5
22C4
330
1F
100
AcDbEntity
  8
SOLBET_Wymiary_Opisy
100
AcDbLine
 10
52.08832606793089
 20
73.3512930139201
 30
0.0
 11
136.6911365366156
 21
73.3512930139201
 31
0.0
  0
LINE
  5
22C5
330
1F
100
AcDbEntity
  8
SOLBET_Tynki_Posadzki
100
AcDbLine
 10
77.49028125190466
 20
227.9807947964706
 30
0.0
 11
77.49028125190466
 21
227.4807947964706
 31
0.0
  0
ARC
  5
22C6
330
1F
100
AcDbEntity
  8
SOLBET_Tynki_Posadzki
100
AcDbCircle
 10
76.69221506071131
 20
227.9807947964706
 30
0.0
 40
1.5000521396288
100
AcDbArc
 50
0.0
 51
90.0
  0
LINE
  5
22C8
330
1F
100
AcDbEntity
  8
SOLBET_Izolacja
  6
Continuous
100
AcDbLine
 10
77.1922150607113
 20
227.4807947964706
 30
0.0
 11
76.19221506071131
 21
227.4807947964706
 31
0.0
  0
LINE
  5
22CB
330
1F
100
AcDbEntity
  8
SOLBET_Tynki_Posadzki
100
AcDbLine
 10
77.49028125190466
 20
227.9807947964706
 30
0.0
 11
136.6911365366156
 21
227.9807947964706
 31
0.0
  0
LINE
  5
22CE
330
1F
100
AcDbEntity
  8
SOLBET_Izolacja
  6
Continuous
100
AcDbLine
 10
77.1922150607113
 20
222.1074879629174
 30
0.0
 11
77.1922150607113
 21
227.4807947964706
 31
0.0
  0
LINE
  5
22D0
330
1F
100
AcDbEntity
  8
SOLBET_Tynki_Posadzki
100
AcDbLine
 10
76.69221506071131
 20
227.4807947964706
 30
0.0
 11
76.69221506071131
 21
251.8231395636009
 31
0.0
  0
LINE
  5
22D2
330
1F
100
AcDbEntity
  8
SOLBET_Emulsje_Folie
100
AcDbLine
 10
77.30703111037815
 20
227.7307947964706
 30
0.0
 11
77.30703111037815
 21
225.0533272764893
 31
0.0
  0
LINE
  5
22D3
330
1F
100
AcDbEntity
  8
SOLBET_Emulsje_Folie
100
AcDbLine
 10
77.55703111038542
 20
224.8033272764893
 30
0.0
 11
136.6911365366156
 21
224.8033272764893
 31
0.0
  0
ARC
  5
22D4
330
1F
100
AcDbEntity
  8
SOLBET_Emulsje_Folie
100
AcDbCircle
 10
77.55703111038542
 20
225.0533272764893
 30
0.0
 40
0.25
100
AcDbArc
 50
180.0
 51
270.0
  0
LWPOLYLINE
  5
22D5
102
{ACAD_REACTORS
330
2414
102
}
330
1F
100
AcDbEntity
  8
SOLBET_Tynki_Posadzki
100
AcDbPolyline
 90
        5
 70
     1
 43
0.0
 10
77.30703111037815
 20
225.0533272764893
 42
0.0737237824442244
 10
77.31778429358906
 20
224.9807947964706
 10
136.6911365366156
 20
224.9807947964706
 10
136.6911365366156
 20
227.4807947964706
 10
77.30703111037815
 20
227.4807947964706
1001
ASO_SCHRAFF
1005
0
1070
     1
1002
{
1070
     1
1005
0
1002
}
1002
{
1070
     2
1005
0
1002
}
1002
{
1070
     4
1000
AR-CONC
1040
0.01
1040
0.0
1070
     0
1000
T__SCHR
1070
   256
1000
_bylayer
1040
50.0
1070
     1
1002
}
  0
LINE
  5
22DA
330
1F
100
AcDbEntity
  8
SOLBET_Tynki_Posadzki
100
AcDbLine
 10
76.69221506071131
 20
209.6074879629174
 30
0.0
 11
76.69221506071131
 21
157.7693847838978
 31
0.0
  0
LINE
  5
22DB
330
1F
100
AcDbEntity
  8
SOLBET_Tynki_Posadzki
100
AcDbLine
 10
76.69221506071131
 20
209.6074879629174
 30
0.0
 11
136.6911365366156
 21
209.6074879629174
 31
0.0
  0
LINE
  5
22DC
330
1F
100
AcDbEntity
  8
SOLBET_Tynki_Posadzki
100
AcDbLine
 10
76.69221506071131
 20
209.6074879629174
 30
0.0
 11
76.19420822824555
 21
210.1074879629174
 31
0.0
  0
LINE
  5
22DD
330
1F
100
AcDbEntity
  8
SOLBET_Tynki_Posadzki
100
AcDbLine
 10
76.69221506071131
 20
155.32750916933
 30
0.0
 11
76.69221506071131
 21
114.1074879629174
 31
0.0
  0
LINE
  5
22DE
330
1F
100
AcDbEntity
  8
SOLBET_Tynki_Posadzki
100
AcDbLine
 10
76.69221506071131
 20
112.1074879629174
 30
0.0
 11
76.69221506071131
 21
73.3512930139201
 31
0.0
  0
INSERT
  5
22E0
330
1F
100
AcDbEntity
  8
SOLBET_Izolacja
100
AcDbBlockReference
  2
*U6
 10
-476.3511097048706
 20
38.65858363322479
 30
0.0
 41
50.0
 42
50.0
 43
50.0
1001
ASO_SCHRAFF
1005
0
1070
     0
1005
0
  0
LINE
  5
22EA
330
1F
100
AcDbEntity
  8
SOLBET_Zaprawy
100
AcDbLine
 10
56.40889325417607
 20
73.3512930139201
 30
0.0
 11
56.40889325417595
 21
112.1957349842465
 31
0.0
  0
LINE
  5
22EB
330
1F
100
AcDbEntity
  8
SOLBET_Tynki_Posadzki
100
AcDbLine
 10
55.94221506071858
 20
73.3512930139201
 30
0.0
 11
55.94221506071869
 21
155.32750916933
 31
0.0
  0
LINE
  5
22EE
330
1F
100
AcDbEntity
  8
SOLBET_Tynki_Posadzki
100
AcDbLine
 10
60.69221506071858
 20
183.2134258108395
 30
0.0
 11
55.94221506071858
 21
183.2134258108395
 31
0.0
  0
LINE
  5
22F0
330
1F
100
AcDbEntity
  8
SOLBET_Zaprawy
100
AcDbLine
 10
56.40889325417607
 20
183.5447910376803
 30
0.0
 11
56.40889325417607
 21
251.8231395636009
 31
0.0
  0
LWPOLYLINE
  5
22F1
330
1F
100
AcDbEntity
  8
SOLBET_Zbrojenie_Konstrukcja
100
AcDbPolyline
 90
        3
 70
     0
 43
0.05
 10
56.1916274385128
 20
184.8803271263147
 10
56.1916274385128
 20
183.3803271263147
 10
57.69162743851279
 20
183.3803271263147
  0
LWPOLYLINE
  5
22F2
330
1F
100
AcDbEntity
  8
SOLBET_Zbrojenie_Konstrukcja
100
AcDbPolyline
 90
        3
 70
     0
 43
0.05
 10
76.41380168690898
 20
187.3154111160125
 10
76.41380168690898
 20
185.8154111160125
 10
74.91380168690898
 20
185.8154111160125
  0
LINE
  5
22F7
330
1F
100
AcDbEntity
  8
SOLBET_Bloczki
100
AcDbLine
 10
69.81508333280157
 20
29.58972753594821
 30
0.0
 11
98.26813733104586
 21
29.58972753594821
 31
0.0
  0
LINE
  5
22F8
330
1F
100
AcDbEntity
  8
SOLBET_Wymiary_Opisy
100
AcDbLine
 10
69.81508333280157
 20
20.0693275840083
 30
0.0
 11
69.81508333280157
 21
57.82606203998762
 31
0.0
  0
LINE
  5
22F9
330
1F
100
AcDbEntity
  8
SOLBET_Bloczki
100
AcDbLine
 10
98.26813733104586
 20
29.58972753594821
 30
0.0
 11
98.26813736896088
 21
41.58972753594821
 31
0.0
  0
LINE
  5
22FA
330
1F
100
AcDbEntity
  8
SOLBET_Zaprawy
100
AcDbLine
 10
69.81508333280157
 20
49.37304934248345
 30
0.0
 11
100.9760554940273
 21
49.37304934248345
 31
0.0
  0
LINE
  5
22FB
330
1F
100
AcDbEntity
  8
SOLBET_Tynki_Posadzki
100
AcDbLine
 10
69.81508333280157
 20
49.83972753594821
 30
0.0
 11
101.2348198814486
 21
49.83972753594821
 31
0.0
  0
LINE
  5
22FC
330
1F
100
AcDbEntity
  8
SOLBET_Tynki_Posadzki
100
AcDbLine
 10
98.76813733104587
 20
29.08972753594822
 30
0.0
 11
98.76813733104587
 21
41.58972753594821
 31
0.0
  0
LINE
  5
22FE
330
1F
100
AcDbEntity
  8
SOLBET_Stolarka_Okna
100
AcDbLine
 10
98.76813733104587
 20
41.58972753594821
 30
0.0
 11
101.8944580287477
 21
41.58972753594821
 31
0.0
  0
LINE
  5
22FF
330
1F
100
AcDbEntity
  8
SOLBET_Stolarka_Okna
100
AcDbLine
 10
101.8944580287477
 20
41.58972753594821
 30
0.0
 11
101.8944580287477
 21
42.67385586695195
 31
0.0
  0
LINE
  5
2300
330
1F
100
AcDbEntity
  8
SOLBET_Stolarka_Okna
100
AcDbLine
 10
101.8944580287477
 20
42.67385586695195
 30
0.0
 11
102.7665254496585
 21
42.67385586695195
 31
0.0
  0
LINE
  5
2301
330
1F
100
AcDbEntity
  8
SOLBET_Stolarka_Okna
100
AcDbLine
 10
102.7665254496585
 20
42.67385586695195
 30
0.0
 11
102.7665254496585
 21
43.74757726143321
 31
0.0
  0
LINE
  5
2302
330
1F
100
AcDbEntity
  8
SOLBET_Stolarka_Okna
100
AcDbLine
 10
102.7665254496585
 20
43.74757726143321
 30
0.0
 11
103.7174037467173
 21
43.74757726143321
 31
0.0
  0
LINE
  5
2303
330
1F
100
AcDbEntity
  8
SOLBET_Stolarka_Okna
100
AcDbLine
 10
103.7174037467173
 20
43.74757726143321
 30
0.0
 11
103.7174037467173
 21
44.0932451856886
 31
0.0
  0
LINE
  5
2304
330
1F
100
AcDbEntity
  8
SOLBET_Stolarka_Okna
100
AcDbLine
 10
103.7174037467173
 20
44.0932451856886
 30
0.0
 11
103.498769601412
 21
45.08972753594821
 31
0.0
  0
LINE
  5
2305
330
1F
100
AcDbEntity
  8
SOLBET_Stolarka_Okna
100
AcDbLine
 10
103.498769601412
 20
45.08972753594821
 30
0.0
 11
98.76813733104587
 21
45.08972753594821
 31
0.0
  0
LWPOLYLINE
  5
2306
330
1F
100
AcDbEntity
  8
SOLBET_Stolarka_Okna
100
AcDbPolyline
 90
        4
 70
     1
 43
0.0
 10
106.791953269703
 20
42.00879700950713
 10
106.4429048938816
 20
40.64699126981827
 10
105.5905491052742
 20
40.64699126981827
 10
105.5905491052742
 20
42.00879700950713
  0
LWPOLYLINE
  5
2307
330
1F
100
AcDbEntity
  8
SOLBET_Stolarka_Okna
100
AcDbPolyline
 90
       15
 70
     1
 43
0.0
 10
104.5333231094316
 20
43.74757726143321
 10
103.8285815565957
 20
43.74757726143321
 10
103.8285815565957
 20
45.08972753594821
 10
106.6323535907847
 20
45.08972753594821
 10
107.0694319581578
 20
43.82943978705839
 10
105.4986172857877
 20
43.82943978705839
 10
105.4986172857877
 20
42.18705120515983
 10
105.4986172857877
 20
40.64699126981827
 10
101.6020082551456
 20
40.64699126981827
 10
101.6020082551456
 20
41.34178200444398
 10
103.8285815565957
 20
41.34178200444398
 10
103.8285815565957
 20
42.50657685383226
 10
103.093200380388
 20
42.50657685383226
 10
103.093200380388
 20
43.36484591838484
 10
104.5333231094316
 20
43.36484591838484
  0
LINE
  5
2308
330
1F
100
AcDbEntity
  8
SOLBET_Wymiary_Opisy
100
AcDbLine
 10
118.4980206416564
 20
20.0693275840083
 30
0.0
 11
118.4980206416564
 21
57.82606203998762
 31
0.0
  0
LINE
  5
2309
330
1F
100
AcDbEntity
  8
SOLBET_Stolarka_Okna
100
AcDbLine
 10
118.4980206416564
 20
43.63150149927491
 30
0.0
 11
105.7047185353929
 21
43.63150149927491
 31
0.0
  0
LINE
  5
230A
330
1F
100
AcDbEntity
  8
SOLBET_Stolarka_Okna
100
AcDbLine
 10
118.4980206416564
 20
42.17342549211639
 30
0.0
 11
105.7047185353929
 21
42.17342549211639
 31
0.0
  0
LWPOLYLINE
  5
230B
330
1F
100
AcDbEntity
  8
SOLBET_Zbrojenie_Konstrukcja
100
AcDbPolyline
 90
        3
 70
     0
 43
0.05
 10
98.48972395724354
 20
30.7976506890434
 10
98.48972395724354
 20
29.29765068903975
 10
96.98972395724354
 20
29.29765068903975
  0
LWPOLYLINE
  5
230C
330
1F
100
AcDbEntity
  8
SOLBET_Zbrojenie_Konstrukcja
100
AcDbPolyline
 90
        3
 70
     0
 43
0.05
 10
100.9760554940273
 20
48.11659216576913
 10
100.9760554940273
 20
49.61659216576549
 10
99.47605549402737
 20
49.61659216576549
  0
LINE
  5
230D
330
1F
100
AcDbEntity
  8
SOLBET_Stolarka_Okna
100
AcDbLine
 10
69.81508333280157
 20
41.58972753594821
 30
0.0
 11
100.7348198852467
 21
41.58972753594821
 31
0.0
  0
LINE
  5
2310
330
1F
100
AcDbEntity
  8
SOLBET_Tynki_Posadzki
100
AcDbLine
 10
101.2348198814486
 20
49.83972753594821
 30
0.0
 11
101.2348199054593
 21
45.08972753594821
 31
0.0
  0
LINE
  5
2318
330
1F
100
AcDbEntity
  8
SOLBET_Stolarka_Okna
100
AcDbLine
 10
60.69221506071858
 20
177.7432717031858
 30
0.0
 11
60.69221506071858
 21
157.7693847838978
 31
0.0
  0
LINE
  5
2319
330
1F
100
AcDbEntity
  8
SOLBET_Stolarka_Okna
100
AcDbLine
 10
65.13495132684124
 20
177.9327204000925
 30
0.0
 11
65.13495132684124
 21
157.7693847838978
 31
0.0
  0
LINE
  5
231A
330
1F
100
AcDbEntity
  8
SOLBET_Stolarka_Okna
100
AcDbLine
 10
65.13495132684124
 20
155.32750916933
 30
0.0
 11
65.13495132684124
 21
120.2822555257386
 31
0.0
  0
LINE
  5
231B
330
1F
100
AcDbEntity
  8
SOLBET_Stolarka_Okna
100
AcDbLine
 10
60.69221506071858
 20
155.32750916933
 30
0.0
 11
60.69221506071858
 21
120.4717042226453
 31
0.0
  0
LINE
  5
231C
330
1F
100
AcDbEntity
  8
SOLBET_Stolarka_Okna
100
AcDbLine
 10
106.6323535907847
 20
45.08972753594821
 30
0.0
 11
118.4980206416564
 21
45.08972753594821
 31
0.0
  0
LINE
  5
231D
330
1F
100
AcDbEntity
  8
SOLBET_Stolarka_Okna
100
AcDbLine
 10
106.4429048938816
 20
40.64699126981827
 30
0.0
 11
118.4980206416564
 21
40.64699126981827
 31
0.0
  0
LINE
  5
231E
330
1F
100
AcDbEntity
  8
SOLBET_Tynki_Posadzki
  6
VERDECKT
100
AcDbLine
 10
118.4980206416564
 20
29.08972753594822
 30
0.0
 11
98.76813733104587
 21
29.08972753594822
 31
0.0
  0
LINE
  5
231F
330
1F
100
AcDbEntity
  8
SOLBET_Stolarka_Okna
100
AcDbLine
 10
118.4980206416564
 20
24.08972753594821
 30
0.0
 11
93.76813733105313
 21
24.08972753594821
 31
0.0
  0
LINE
  5
2320
330
1F
100
AcDbEntity
  8
SOLBET_Stolarka_Okna
  6
VERDECKT
100
AcDbLine
 10
93.76813733105313
 20
38.08972753594821
 30
0.0
 11
93.76813733105313
 21
29.08972753594822
 31
0.0
  0
LINE
  5
2321
330
1F
100
AcDbEntity
  8
SOLBET_Stolarka_Okna
  6
VERDECKT
100
AcDbLine
 10
93.76813733105313
 20
38.08972753594821
 30
0.0
 11
98.26813733104586
 21
38.09436079761758
 31
0.0
  0
LINE
  5
2322
330
1F
100
AcDbEntity
  8
SOLBET_Tynki_Posadzki
100
AcDbLine
 10
98.76813733104587
 20
29.08972753594822
 30
0.0
 11
69.81508333280157
 21
29.08972753594822
 31
0.0
  0
LINE
  5
2323
330
1F
100
AcDbEntity
  8
SOLBET_Stolarka_Okna
100
AcDbLine
 10
93.76813733105313
 20
29.08972753594822
 30
0.0
 11
93.76813733105313
 21
24.08972753594821
 31
0.0
  0
LINE
  5
2329
330
1F
100
AcDbEntity
  8
SOLBET_Stolarka_Okna
  6
VERDECKT
100
AcDbLine
 10
96.60117058896663
 20
41.58972753594821
 30
0.0
 11
96.60117058896663
 21
49.83972753594821
 31
0.0
  0
LINE
  5
232A
330
1F
100
AcDbEntity
  8
SOLBET_Stolarka_Okna
100
AcDbLine
 10
96.60117058896663
 20
52.941820158371
 30
0.0
 11
118.4980206416564
 21
52.941820158371
 31
0.0
  0
LINE
  5
232C
330
1F
100
AcDbEntity
  8
SOLBET_Tynki_Posadzki
  6
VERDECKT
100
AcDbLine
 10
101.2348198814486
 20
49.83972753594821
 30
0.0
 11
118.4980206340749
 21
49.83972753594821
 31
0.0
  0
LINE
  5
232D
330
1F
100
AcDbEntity
  8
SOLBET_Stolarka_Okna
100
AcDbLine
 10
96.60117058896663
 20
49.83972753594821
 30
0.0
 11
96.60117058896663
 21
52.941820158371
 31
0.0
  0
LINE
  5
233F
330
1F
100
AcDbEntity
  8
SOLBET_Zbrojenie_Konstrukcja
100
AcDbLine
 10
61.17261307895183
 20
185.8574879629174
 30
0.0
 11
69.07317713652242
 21
185.8574879629174
 31
0.0
  0
LINE
  5
2340
330
1F
100
AcDbEntity
  8
SOLBET_Zbrojenie_Konstrukcja
100
AcDbLine
 10
61.17261307895183
 20
185.8574879629174
 30
0.0
 11
61.17261307895183
 21
185.6074879629174
 31
0.0
  0
LINE
  5
2341
330
1F
100
AcDbEntity
  8
SOLBET_Emulsje_Folie
100
AcDbLine
 10
61.00280129472753
 20
185.6074879629174
 30
0.0
 11
69.80627690139022
 21
185.6074879629174
 31
0.0
  0
LINE
  5
2342
330
1F
100
AcDbEntity
  8
SOLBET_Emulsje_Folie
100
AcDbLine
 10
69.80627690139022
 20
185.6074879629174
 30
0.0
 11
71.71287008777813
 21
186.1074879629174
 31
0.0
  0
LINE
  5
234A
330
1F
100
AcDbEntity
  8
SOLBET_Zbrojenie_Konstrukcja
100
AcDbLine
 10
69.07317713652242
 20
185.8574879629174
 30
0.0
 11
69.07317713652242
 21
185.6074879629174
 31
0.0
  0
LINE
  5
234B
330
1F
100
AcDbEntity
  8
SOLBET_Zaprawy
100
AcDbLine
 10
60.69221506071858
 20
183.5447910376803
 30
0.0
 11
56.40889325417607
 21
183.5447910376803
 31
0.0
  0
LINE
  5
2350
330
1F
100
AcDbEntity
  8
SOLBET_Zbrojenie_Konstrukcja
100
AcDbLine
 10
61.17261307895183
 20
112.3574879629174
 30
0.0
 11
69.07317713652242
 21
112.3574879629174
 31
0.0
  0
LINE
  5
2351
330
1F
100
AcDbEntity
  8
SOLBET_Zbrojenie_Konstrukcja
100
AcDbLine
 10
61.17261307895183
 20
112.3574879629174
 30
0.0
 11
61.17261307895183
 21
112.6074879629174
 31
0.0
  0
LINE
  5
2352
330
1F
100
AcDbEntity
  8
SOLBET_Emulsje_Folie
100
AcDbLine
 10
61.00280129472753
 20
112.6074879629174
 30
0.0
 11
69.80627690139022
 21
112.6074879629174
 31
0.0
  0
LINE
  5
2353
330
1F
100
AcDbEntity
  8
SOLBET_Emulsje_Folie
100
AcDbLine
 10
69.80627690139022
 20
112.6074879629174
 30
0.0
 11
71.71287008777813
 21
112.1074879629174
 31
0.0
  0
LINE
  5
2354
330
1F
100
AcDbEntity
  8
SOLBET_Emulsje_Folie
100
AcDbLine
 10
71.71287008777813
 20
112.1074879629174
 30
0.0
 11
73.81988962064292
 21
112.1074879629174
 31
0.0
  0
LINE
  5
2355
330
1F
100
AcDbEntity
  8
SOLBET_Zbrojenie_Konstrukcja
100
AcDbLine
 10
69.07317713652242
 20
112.3574879629174
 30
0.0
 11
69.07317713652242
 21
112.6074879629174
 31
0.0
  0
INSERT
  5
2356
330
1F
100
AcDbEntity
  8
SOLBET_Stolarka_Okna
100
AcDbBlockReference
  2
*U7
 10
-1092.683130330779
 20
-182.7174014063988
 30
0.0
 41
50.0
 42
50.0
 43
50.0
1001
ASO_SCHRAFF
1005
2356
1070
     0
1005
22C3
  0
LINE
  5
235A
330
1F
100
AcDbEntity
  8
SOLBET_Zbrojenie_Konstrukcja
100
AcDbLine
 10
98.51813733972608
 20
37.08427624297724
 30
0.0
 11
98.76813733973335
 21
37.08427624297724
 31
0.0
  0
LINE
  5
235B
330
1F
100
AcDbEntity
  8
SOLBET_Emulsje_Folie
100
AcDbLine
 10
98.26813733973336
 20
34.44458329172517
 30
0.0
 11
98.26813733973336
 21
32.3375637588531
 31
0.0
  0
LINE
  5
235C
330
1F
100
AcDbEntity
  8
SOLBET_Emulsje_Folie
100
AcDbLine
 10
98.76813733973335
 20
36.35117647811672
 30
0.0
 11
98.26813733973336
 21
34.44458329172517
 31
0.0
  0
LINE
  5
235D
330
1F
100
AcDbEntity
  8
SOLBET_Emulsje_Folie
100
AcDbLine
 10
98.76813733973335
 20
45.15465208476848
 30
0.0
 11
98.76813733973335
 21
36.35117647811672
 31
0.0
  0
LINE
  5
235E
330
1F
100
AcDbEntity
  8
SOLBET_Zbrojenie_Konstrukcja
100
AcDbLine
 10
98.51813733972608
 20
44.98484030054419
 30
0.0
 11
98.76813733973335
 21
44.98484030054419
 31
0.0
  0
LINE
  5
235F
330
1F
100
AcDbEntity
  8
SOLBET_Zbrojenie_Konstrukcja
100
AcDbLine
 10
98.76813733973335
 20
44.98484030054419
 30
0.0
 11
98.76813733973335
 21
37.08427624297724
 31
0.0
  0
LINE
  5
2360
330
1F
100
AcDbEntity
  8
SOLBET_Zbrojenie_Konstrukcja
100
AcDbLine
 10
98.51813734841357
 20
44.98484030054419
 30
0.0
 11
98.51813734841357
 21
37.08427624297724
 31
0.0
  0
LWPOLYLINE
  5
236C
330
1F
100
AcDbEntity
  8
SOLBET_Ramka_05
100
AcDbPolyline
 90
        4
 70
     1
 43
0.0
 10
-0.1533985644591667
 20
0.0
 10
334.1983755276308
 20
0.0
 10
334.1983755276308
 20
297.0
 10
-0.1533985644591667
 20
297.0
  0
MTEXT
  5
236D
102
{ACAD_XDICTIONARY
360
236E
102
}
330
1F
100
AcDbEntity
  8
SOLBET_Wymiary_Opisy @ 1
100
AcDbMText
 10
15.46333363291546
 20
289.896711090778
 30
0.0
 40
5.0
 41
124.2624847080697
 71
     1
 72
     5
  1
{\LDETAL 11a\P}Spos\U+00F3b (alternatywny) zamocowania\Pstolarki w \U+015Bcianie z dociepleniem
  7
Solbet_5
 73
     1
 44
1.0
1001
AcadAnnotative
1000
AnnotativeData
1002
{
1070
     1
1070
     0
1002
}
1001
ACAD
1000
MTEXTBEGIN
1070
    73
1070
     1
1070
    44
1040
1.0
1070
    74
1070
     0
1000
MTEXTEND
  0
INSERT
  5
2389
330
1F
100
AcDbEntity
  8
SOLBET_Bloczki
100
AcDbBlockReference
 66
     1
  2
SOLBET_Bloczek_OPTIMAL_240x240x590_brak_PRA
 10
64.19221506071131
 20
198.107488004105
 30
0.0
  0
ATTRIB
  5
238A
330
2389
100
AcDbEntity
  8
SOLBET_Wymiary_Opisy
100
AcDbText
 10
64.19221523645979
 20
201.5219915776218
 30
0.0
 40
0.9913121336814832
  1
400, 500, 600, 700
  7
Solbet_1
100
AcDbAttribute
  2
KLASA_GĘSTOŚCI
 70
     9
1001
AcDbAttr
1070
     0
1070
     1
  0
SEQEND
  5
238B
330
2389
100
AcDbEntity
  8
SOLBET_Bloczki
  0
LWPOLYLINE
  5
2392
330
1F
100
AcDbEntity
  8
SOLBET_Bloczki
100
AcDbPolyline
 90
        4
 70
     0
 43
0.0
 10
64.19221506071131
 20
73.3512930139201
 10
64.19221506071131
 20
81.10748796291749
 10
76.19221506071131
 20
81.10748796291739
 10
76.19221506071131
 20
73.3512930139201
  0
LWPOLYLINE
  5
2399
330
1F
100
AcDbEntity
  8
SOLBET_Bloczki
100
AcDbPolyline
 90
        4
 70
     0
 43
0.0
 10
76.19221506071131
 20
112.1074879629174
 10
76.19221506071131
 20
105.1074879629174
 10
64.19221506071131
 20
105.1074879629176
 10
64.19221506071131
 20
112.1074879629174
  0
LWPOLYLINE
  5
239A
330
1F
100
AcDbEntity
  8
SOLBET_Bloczki
100
AcDbPolyline
 90
        4
 70
     0
 43
0.0
 10
64.19221506071131
 20
251.8231395636009
 10
64.19221506071131
 20
246.1074879923415
 10
76.19221523645979
 20
246.1074879923415
 10
76.19221506071131
 20
251.8231395636009
  0
LINE
  5
23BB
330
1F
100
AcDbEntity
  8
SOLBET_Zbrojenie_Konstrukcja
100
AcDbLine
 10
133.6922150607185
 20
218.6074879629175
 30
0.0
 11
136.6911365366238
 21
212.9845101955951
 31
0.0
  0
LINE
  5
23BC
330
1F
100
AcDbEntity
  8
SOLBET_Zbrojenie_Konstrukcja
100
AcDbLine
 10
130.2255483940518
 20
212.1074879629173
 30
0.0
 11
133.6922150607185
 21
218.6074879629175
 31
0.0
  0
LINE
  5
23BE
330
1F
100
AcDbEntity
  8
SOLBET_Zbrojenie_Konstrukcja
100
AcDbLine
 10
106.2255483940518
 20
212.1074879629173
 30
0.0
 11
109.6922150607186
 21
218.6074879629175
 31
0.0
  0
LINE
  5
23BF
330
1F
100
AcDbEntity
  8
SOLBET_Zbrojenie_Konstrukcja
100
AcDbLine
 10
114.2255483940517
 20
212.1074879629173
 30
0.0
 11
117.6922150607183
 21
218.6074879629175
 31
0.0
  0
LINE
  5
23C0
330
1F
100
AcDbEntity
  8
SOLBET_Zbrojenie_Konstrukcja
100
AcDbLine
 10
122.2255483940517
 20
212.1074879629173
 30
0.0
 11
125.6922150607184
 21
218.6074879629175
 31
0.0
  0
LINE
  5
23C1
330
1F
100
AcDbEntity
  8
SOLBET_Zbrojenie_Konstrukcja
100
AcDbLine
 10
98.22554839405178
 20
212.1074879629173
 30
0.0
 11
101.6922150607186
 21
218.6074879629175
 31
0.0
  0
LINE
  5
23C2
330
1F
100
AcDbEntity
  8
SOLBET_Zbrojenie_Konstrukcja
100
AcDbLine
 10
90.22554839405177
 20
212.1074879629173
 30
0.0
 11
93.69221506071857
 21
218.6074879629175
 31
0.0
  0
LINE
  5
23C3
330
1F
100
AcDbEntity
  8
SOLBET_Zbrojenie_Konstrukcja
100
AcDbLine
 10
82.22554839405177
 20
212.1074879629173
 30
0.0
 11
85.69221506071858
 21
218.6074879629175
 31
0.0
  0
LINE
  5
23C4
330
1F
100
AcDbEntity
  8
SOLBET_Zbrojenie_Konstrukcja
100
AcDbLine
 10
74.22554839405188
 20
212.1074879629173
 30
0.0
 11
77.69221506071858
 21
218.6074879629175
 31
0.0
  0
LINE
  5
23C5
330
1F
100
AcDbEntity
  8
SOLBET_Zbrojenie_Konstrukcja
100
AcDbLine
 10
77.69221506071858
 20
218.6074879629175
 30
0.0
 11
81.15888172738516
 21
212.1074879629173
 31
0.0
  0
LINE
  5
23C6
330
1F
100
AcDbEntity
  8
SOLBET_Zbrojenie_Konstrukcja
100
AcDbLine
 10
85.69221506071858
 20
218.6074879629175
 30
0.0
 11
89.15888172738517
 21
212.1074879629173
 31
0.0
  0
LINE
  5
23C7
330
1F
100
AcDbEntity
  8
SOLBET_Zbrojenie_Konstrukcja
100
AcDbLine
 10
93.69221506071857
 20
218.6074879629175
 30
0.0
 11
97.15888172738539
 21
212.1074879629173
 31
0.0
  0
LINE
  5
23C8
330
1F
100
AcDbEntity
  8
SOLBET_Zbrojenie_Konstrukcja
100
AcDbLine
 10
101.6922150607186
 20
218.6074879629175
 30
0.0
 11
105.1588817273854
 21
212.1074879629173
 31
0.0
  0
LINE
  5
23C9
330
1F
100
AcDbEntity
  8
SOLBET_Zbrojenie_Konstrukcja
100
AcDbLine
 10
136.6911365366238
 20
218.6074879629177
 30
0.0
 11
72.19221506071858
 21
218.6074879629173
 31
0.0
  0
LINE
  5
23CA
330
1F
100
AcDbEntity
  8
SOLBET_Zbrojenie_Konstrukcja
100
AcDbLine
 10
125.6922150607184
 20
218.6074879629175
 30
0.0
 11
129.1588817273852
 21
212.1074879629173
 31
0.0
  0
LINE
  5
23CB
330
1F
100
AcDbEntity
  8
SOLBET_Zbrojenie_Konstrukcja
100
AcDbLine
 10
117.6922150607183
 20
218.6074879629175
 30
0.0
 11
121.1588817273852
 21
212.1074879629173
 31
0.0
  0
LINE
  5
23CC
330
1F
100
AcDbEntity
  8
SOLBET_Zbrojenie_Konstrukcja
100
AcDbLine
 10
109.6922150607186
 20
218.6074879629175
 30
0.0
 11
113.1588817273853
 21
212.1074879629173
 31
0.0
  0
INSERT
  5
23D0
330
1F
100
AcDbEntity
  8
SOLBET_Beton
100
AcDbBlockReference
  2
*X4
 10
-497.5087008202378
 20
-245.9138530915097
 30
0.0
 41
50.0
 42
50.0
 43
50.0
1001
ASO_SCHRAFF
1005
0
1070
     0
1005
0
1001
ACAD
1000
HATCH
1002
{
1070
    16
1000
NET
1040
0.25
1040
0.7853981633974483
1002
}
  0
LINE
  5
23EA
330
1F
100
AcDbEntity
  8
SOLBET_Izolacja
100
AcDbLine
 10
69.81508333280157
 20
49.08972753594821
 30
0.0
 11
100.7348198852467
 21
49.08972769219036
 31
0.0
  0
LINE
  5
23EB
330
1F
100
AcDbEntity
  8
SOLBET_Izolacja
100
AcDbLine
 10
100.7348198852467
 20
49.08972769219036
 30
0.0
 11
100.7348198852468
 21
45.08972753594821
 31
0.0
  0
LINE
  5
23EC
330
1F
100
AcDbEntity
  8
SOLBET_Izolacja
100
AcDbLine
 10
100.7348198852468
 20
45.08972753594821
 30
0.0
 11
98.76813733104587
 21
45.08972753594821
 31
0.0
  0
LINE
  5
23ED
330
1F
100
AcDbEntity
  8
SOLBET_Izolacja
100
AcDbLine
 10
98.76813733104587
 20
45.08972753594821
 30
0.0
 11
98.76813733865128
 21
41.58547241217539
 31
0.0
  0
LINE
  5
23EE
330
1F
100
AcDbEntity
  8
SOLBET_Izolacja
100
AcDbLine
 10
98.76813733865128
 20
41.58547241217539
 30
0.0
 11
69.81508333280157
 21
41.58547241217539
 31
0.0
  0
LINE
  5
23EF
330
1F
100
AcDbEntity
  8
SOLBET_Izolacja
100
AcDbLine
 10
69.81508333280157
 20
41.58547241217539
 30
0.0
 11
69.81508333280157
 21
49.08972753594821
 31
0.0
  0
LINE
  5
23F0
330
1F
100
AcDbEntity
  8
SOLBET_Izolacja
  6
BATTING
 48
0.364
100
AcDbLine
 10
69.81508333280157
 20
45.3375999740618
 30
0.0
 11
98.76813733104587
 21
45.3375999740618
 31
0.0
  0
LINE
  5
23F1
330
1F
100
AcDbEntity
  8
SOLBET_Izolacja
  6
BATTING
 48
0.19
100
AcDbLine
 10
100.734819895353
 20
47.08972753594821
 30
0.0
 11
96.60117058896663
 21
47.08972761406928
 31
0.0
  0
LINE
  5
23F2
330
1F
100
AcDbEntity
  8
SOLBET_Izolacja
  6
BATTING
 48
0.025
100
AcDbLine
 10
98.51813733960035
 20
41.14744051840006
 30
0.0
 11
98.51813733960035
 21
45.10349076378133
 31
0.0
  0
HATCH
  5
2414
330
1F
100
AcDbEntity
  8
SOLBET_Tynki_Posadzki
100
AcDbHatch
 10
0.0
 20
0.0
 30
0.0
210
0.0
220
0.0
230
1.0
  2
AR-CONC
 70
     0
 71
     1
 91
        1
 92
        1
 93
        5
 72
     2
 10
77.55703111038278
 20
225.0533272764805
 40
0.2500000000046327
 50
179.9999999979807
 51
196.8657343041224
 73
     1
 72
     1
 10
77.31778429358906
 20
224.9807947964706
 11
136.6911365366156
 21
224.9807947964706
 72
     1
 10
136.6911365366156
 20
224.9807947964706
 11
136.6911365366156
 21
227.4807947964706
 72
     1
 10
136.6911365366156
 20
227.4807947964706
 11
77.30703111037815
 21
227.4807947964706
 72
     1
 10
77.30703111037815
 20
227.4807947964706
 11
77.30703111037815
 21
225.0533272764893
 97
        1
330
22D5
 75
     0
 76
     1
 52
0.0
 41
0.049
 77
     0
 78
    13
 53
50.0
 43
979.6108352747467
 44
2.980324913955087
 45
8.927048780804197
 46
-0.7810151914062513
 79
     2
 49
0.9334500000000002
 49
-10.26795
 53
355.0
 43
979.6108352747467
 44
2.980324913955087
 45
-1.726898472807682
 46
9.361775501226819
 79
     2
 49
0.7467600000000001
 49
-8.214359999999999
 53
100.451
 43
980.3547532747467
 44
2.915240663955087
 45
7.200182581632002
 46
8.580717703194302
 79
     2
 49
0.7933100000000001
 49
-8.726410000000001
 53
46.1842
 43
979.6108352747467
 44
5.469524913955087
 45
13.28287300371436
 46
-2.06007406870363
 79
     2
 49
1.400174999999999
 49
-15.401925
 53
96.6356
 43
980.7177403747466
 44
5.297853413955087
 45
11.63280748884562
 46
12.12385223861241
 79
     2
 49
1.189965
 49
-13.089615
 53
351.184
 43
979.6108352747467
 44
5.469524913955087
 45
11.63282568488276
 46
12.12383077516929
 79
     2
 49
1.120139999999999
 49
-12.32154
 53
21.0
 43
980.8554352747467
 44
4.847224913955087
 45
7.429129111933781
 46
-5.011010407321362
 79
     2
 49
0.9334500000000002
 49
-10.26795
 53
326.0
 43
980.8554352747467
 44
4.847224913955087
 45
3.028299389034706
 46
9.025210339993645
 79
     2
 49
0.7467600000000001
 49
-8.214359999999999
 53
71.45140000000001
 43
981.4745257747466
 44
4.429642013955087
 45
10.4574080477361
 46
4.014220028086815
 79
     2
 49
0.7933100000000001
 49
-8.726410000000001
 53
37.5
 43
979.6108352747467
 44
2.980324913955087
 45
0.151341559278999
 46
4.143196904784502
 79
     6
 49
0.0
 49
-8.114792000000001
 49
0.0
 49
-8.33882
 49
0.0
 49
-8.245475
 53
7.499999999999999
 43
979.6108352747467
 44
2.980324913955087
 45
3.274163463004981
 46
4.908848166087856
 79
     6
 49
0.0
 49
-4.754372
 49
0.0
 49
-7.928101999999999
 49
0.0
 49
-3.142615
 53
327.5
 43
976.8353772747467
 44
2.980324913955087
 45
6.643939163176698
 46
-0.2807084556409994
 79
     6
 49
0.0
 49
-3.111499999999999
 49
0.0
 49
-9.707880000000001
 49
0.0
 49
-12.88161
 53
317.5
 43
975.5907772747468
 44
2.980324913955087
 45
7.258329887914884
 46
1.245898060633317
 79
     6
 49
0.0
 49
-4.04495
 49
0.0
 49
-6.447028
 49
0.0
 49
-9.147809999999999
 98
        1
 10
979.6108352747467
 20
2.980324913955087
1001
ACAD
1010
0.0
1020
0.0
1030
0.0
  0
LINE
  5
2415
330
1F
100
AcDbEntity
  8
SOLBET_Izolacja
100
AcDbLine
 10
76.19221506071131
 20
227.4807947964706
 30
0.0
 11
76.19221506071119
 21
222.1074879629174
 31
0.0
  0
LINE
  5
2416
330
1F
100
AcDbEntity
  8
SOLBET_Izolacja
100
AcDbLine
 10
76.19221506071119
 20
222.1074879629174
 30
0.0
 11
136.691136548781
 21
222.107487889318
 31
0.0
  0
LINE
  5
2417
330
1F
100
AcDbEntity
  8
SOLBET_Izolacja
100
AcDbLine
 10
136.691136548781
 20
222.107487889318
 30
0.0
 11
136.6911365366156
 21
224.6074879629174
 31
0.0
  0
LINE
  5
2418
330
1F
100
AcDbEntity
  8
SOLBET_Izolacja
100
AcDbLine
 10
136.6911365366156
 20
224.6074879629174
 30
0.0
 11
77.1922150607113
 21
224.6074879629174
 31
0.0
  0
LINE
  5
2419
330
1F
100
AcDbEntity
  8
SOLBET_Izolacja
  6
BATTING
 48
0.049
100
AcDbLine
 10
76.69221506071131
 20
227.4807947964706
 30
0.0
 11
76.69221505962093
 21
222.1074879898048
 31
0.0
  0
LINE
  5
241A
330
1F
100
AcDbEntity
  8
SOLBET_Izolacja
  6
BATTING
 48
0.12
100
AcDbLine
 10
136.6911365426983
 20
223.3574879261177
 30
0.0
 11
77.1922150607113
 21
223.3574879261177
 31
0.0
  0
LINE
  5
241B
330
1F
100
AcDbEntity
  8
SOLBET_Beton
100
AcDbLine
 10
72.19221506071858
 20
210.1074879776294
 30
0.0
 11
72.19221506071858
 21
212.1074879629173
 31
0.0
  0
LINE
  5
241C
330
1F
100
AcDbEntity
  8
SOLBET_Beton
100
AcDbLine
 10
72.19221506071858
 20
212.1074879629173
 30
0.0
 11
136.6911365366238
 21
212.1074879776294
 31
0.0
  0
LINE
  5
241D
330
1F
100
AcDbEntity
  8
SOLBET_Beton
100
AcDbLine
 10
136.6911365366238
 20
212.1074879776294
 30
0.0
 11
136.6911365366156
 21
210.1074879629174
 31
0.0
  0
LINE
  5
241E
330
1F
100
AcDbEntity
  8
SOLBET_Beton
100
AcDbLine
 10
136.6911365366156
 20
210.1074879629174
 30
0.0
 11
72.19221506071858
 21
210.1074879629174
 31
0.0
  0
LINE
  5
241F
330
1F
100
AcDbEntity
  8
SOLBET_Beton
100
AcDbLine
 10
74.92788727397942
 20
220.6074879629173
 30
0.0
 11
136.6931297041499
 21
220.6074879629174
 31
0.0
  0
LINE
  5
2420
330
1F
100
AcDbEntity
  8
SOLBET_Beton
100
AcDbLine
 10
136.6931297041499
 20
220.6074879629174
 30
0.0
 11
136.6931297041499
 21
212.1074879629173
 31
0.0
  0
LINE
  5
2421
330
1F
100
AcDbEntity
  8
SOLBET_Beton
100
AcDbLine
 10
136.6931297041499
 20
212.1074879629173
 30
0.0
 11
74.92788727397942
 21
212.1074879629173
 31
0.0
  0
LINE
  5
2422
330
1F
100
AcDbEntity
  8
SOLBET_Beton
100
AcDbLine
 10
74.92788727397942
 20
212.1074879629173
 30
0.0
 11
74.92788727397942
 21
220.6074879629173
 31
0.0
  0
LINE
  5
2423
330
1F
100
AcDbEntity
  8
SOLBET_Beton
100
AcDbLine
 10
86.92788727397942
 20
220.6074879629174
 30
0.0
 11
86.92788727397942
 21
212.1074879776294
 31
0.0
  0
LINE
  5
2424
330
1F
100
AcDbEntity
  8
SOLBET_Beton
100
AcDbLine
 10
98.92788727397942
 20
220.6074879629173
 30
0.0
 11
98.92788727397942
 21
212.1074879776294
 31
0.0
  0
LINE
  5
2425
330
1F
100
AcDbEntity
  8
SOLBET_Beton
100
AcDbLine
 10
110.9278872739794
 20
220.6074879629173
 30
0.0
 11
110.9278872739794
 21
212.1074879776294
 31
0.0
  0
LINE
  5
2426
330
1F
100
AcDbEntity
  8
SOLBET_Beton
100
AcDbLine
 10
122.9278872739794
 20
220.6074879629174
 30
0.0
 11
122.9278872739794
 21
212.1074879629173
 31
0.0
  0
LINE
  5
2427
330
1F
100
AcDbEntity
  8
SOLBET_Beton
100
AcDbLine
 10
134.9278872739794
 20
220.6074879629174
 30
0.0
 11
134.9278872759182
 21
212.1074879772272
 31
0.0
  0
LINE
  5
2428
330
1F
100
AcDbEntity
  8
SOLBET_Beton
100
AcDbLine
 10
136.6911365366156
 20
215.6074879629174
 30
0.0
 11
74.92788727397942
 21
215.6074879629174
 31
0.0
  0
LINE
  5
2429
330
1F
100
AcDbEntity
  8
SOLBET_Izolacja
100
AcDbLine
 10
56.69221506071131
 20
251.8231395636009
 30
0.0
 11
64.19221506071131
 21
251.8231395636009
 31
0.0
  0
LINE
  5
242A
330
1F
100
AcDbEntity
  8
SOLBET_Izolacja
100
AcDbLine
 10
64.19221506071131
 20
251.8231395636009
 30
0.0
 11
64.19221506109522
 21
186.1074879987243
 31
0.0
  0
LINE
  5
242B
330
1F
100
AcDbEntity
  8
SOLBET_Izolacja
100
AcDbLine
 10
64.19221506109522
 20
186.1074879987243
 30
0.0
 11
60.69221506071858
 21
186.1074879629174
 31
0.0
  0
LINE
  5
242C
330
1F
100
AcDbEntity
  8
SOLBET_Izolacja
100
AcDbLine
 10
60.69221506071858
 20
186.1074879629174
 30
0.0
 11
60.69221506071869
 21
183.5447910376803
 31
0.0
  0
LINE
  5
242D
330
1F
100
AcDbEntity
  8
SOLBET_Izolacja
100
AcDbLine
 10
60.69221506071869
 20
183.5447910376803
 30
0.0
 11
56.69221506071131
 21
183.5447910376803
 31
0.0
  0
LINE
  5
242E
330
1F
100
AcDbEntity
  8
SOLBET_Izolacja
100
AcDbLine
 10
56.69221506071131
 20
183.5447910376803
 30
0.0
 11
56.69221506071131
 21
251.8231395636009
 31
0.0
  0
LINE
  5
242F
330
1F
100
AcDbEntity
  8
SOLBET_Izolacja
  6
BATTING
 48
0.364
100
AcDbLine
 10
60.44221506071131
 20
251.8231395636009
 30
0.0
 11
60.44221506071131
 21
186.1539804064381
 31
0.0
  0
LINE
  5
2441
330
1F
100
AcDbEntity
  8
SOLBET_Izolacja
  6
BATTING
 48
0.18
100
AcDbLine
 10
58.55055415744732
 20
183.5447910376803
 30
0.0
 11
58.55055415744732
 21
186.6365509279622
 31
0.0
  0
LINE
  5
2442
330
1F
100
AcDbEntity
  8
SOLBET_Izolacja
100
AcDbLine
 10
60.69221506071858
 20
186.1074879629174
 30
0.0
 11
60.69221506071858
 21
185.6074879629174
 31
0.0
  0
LINE
  5
2443
330
1F
100
AcDbEntity
  8
SOLBET_Izolacja
  6
BATTING
 48
0.024
100
AcDbLine
 10
60.74045136668406
 20
185.8574879629174
 30
0.0
 11
64.17852390955409
 21
185.8574879629174
 31
0.0
  0
INSERT
  5
2444
330
1F
100
AcDbEntity
  8
SOLBET_Izolacja
100
AcDbBlockReference
  2
ASOWDBLK
 10
53.98988285722134
 20
112.1957349842479
 30
0.0
 41
0.7331463203659041
 42
0.7441111111111028
 43
0.733146320366
  0
INSERT
  5
2445
330
1F
100
AcDbEntity
  8
SOLBET_Izolacja
100
AcDbBlockReference
  2
ASOWDBLK
 10
54.35645601740441
 20
112.1957349842479
 30
0.0
 41
0.7331463203659041
 42
0.7918888888888987
 43
0.733146320366
  0
INSERT
  5
2446
330
1F
100
AcDbEntity
  8
SOLBET_Izolacja
100
AcDbBlockReference
  2
ASOWDBLK
 10
54.72302917758748
 20
112.1957349842479
 30
0.0
 41
0.7331463203659041
 42
0.8396666666666519
 43
0.733146320366
  0
INSERT
  5
2447
330
1F
100
AcDbEntity
  8
SOLBET_Izolacja
100
AcDbBlockReference
  2
ASOWDBLK
 10
55.08960233777054
 20
112.1957349842479
 30
0.0
 41
0.7331463203659041
 42
0.8874444444444478
 43
0.733146320366
  0
INSERT
  5
2448
330
1F
100
AcDbEntity
  8
SOLBET_Izolacja
100
AcDbBlockReference
  2
ASOWDBLK
 10
55.45617549795349
 20
112.1957349842479
 30
0.0
 41
0.7331463203659041
 42
0.935222222222201
 43
0.733146320366
  0
INSERT
  5
2449
330
1F
100
AcDbEntity
  8
SOLBET_Izolacja
100
AcDbBlockReference
  2
ASOWDBLK
 10
55.82274865813656
 20
112.1957349842479
 30
0.0
 41
0.7331463203659041
 42
0.9829999999999969
 43
0.733146320366
  0
INSERT
  5
244A
330
1F
100
AcDbEntity
  8
SOLBET_Izolacja
100
AcDbBlockReference
  2
ASOWDBLK
 10
56.18932181831962
 20
112.1957349842479
 30
0.0
 41
0.7331463203659041
 42
1.030777777777799
 43
0.733146320366
  0
INSERT
  5
244B
330
1F
100
AcDbEntity
  8
SOLBET_Izolacja
100
AcDbBlockReference
  2
ASOWDBLK
 10
56.55589497850269
 20
112.1957349842479
 30
0.0
 41
0.7331463203659041
 42
1.078555555555553
 43
0.733146320366
  0
INSERT
  5
244C
330
1F
100
AcDbEntity
  8
SOLBET_Izolacja
100
AcDbBlockReference
  2
ASOWDBLK
 10
56.92246813868576
 20
112.1957349842479
 30
0.0
 41
0.7331463203659041
 42
1.126333333333349
 43
0.733146320366
  0
INSERT
  5
244D
330
1F
100
AcDbEntity
  8
SOLBET_Izolacja
100
AcDbBlockReference
  2
ASOWDBLK
 10
57.28904129886882
 20
112.1957349842479
 30
0.0
 41
0.7331463203659041
 42
1.174111111111102
 43
0.733146320366
  0
INSERT
  5
244E
330
1F
100
AcDbEntity
  8
SOLBET_Izolacja
100
AcDbBlockReference
  2
ASOWDBLK
 10
57.65561445905177
 20
112.1957349842479
 30
0.0
 41
0.7331463203659041
 42
1.221888888888898
 43
0.733146320366
  0
INSERT
  5
244F
330
1F
100
AcDbEntity
  8
SOLBET_Izolacja
100
AcDbBlockReference
  2
ASOWDBLK
 10
58.02218761923484
 20
112.1957349842479
 30
0.0
 41
0.7331463203659041
 42
1.269666666666651
 43
0.733146320366
  0
INSERT
  5
2450
330
1F
100
AcDbEntity
  8
SOLBET_Izolacja
100
AcDbBlockReference
  2
ASOWDBLK
 10
58.3887607794179
 20
112.1957349842479
 30
0.0
 41
0.7331463203659041
 42
1.317444444444447
 43
0.733146320366
  0
INSERT
  5
2451
330
1F
100
AcDbEntity
  8
SOLBET_Izolacja
100
AcDbBlockReference
  2
ASOWDBLK
 10
58.75533393960097
 20
112.1957349842479
 30
0.0
 41
0.7331463203659041
 42
1.3652222222222
 43
0.733146320366
  0
INSERT
  5
2452
330
1F
100
AcDbEntity
  8
SOLBET_Izolacja
100
AcDbBlockReference
  2
ASOWDBLK
 10
59.12190709978403
 20
112.1957349842479
 30
0.0
 41
0.7331463203659041
 42
1.412999999999996
 43
0.733146320366
  0
INSERT
  5
2453
330
1F
100
AcDbEntity
  8
SOLBET_Izolacja
100
AcDbBlockReference
  2
ASOWDBLK
 10
59.4884802599671
 20
112.1957349842479
 30
0.0
 41
0.7331463203659041
 42
1.460777777777799
 43
0.733146320366
  0
INSERT
  5
2454
330
1F
100
AcDbEntity
  8
SOLBET_Izolacja
100
AcDbBlockReference
  2
ASOWDBLK
 10
59.85505342015017
 20
112.1957349842479
 30
0.0
 41
0.7331463203659041
 42
1.508555555555552
 43
0.733146320366
  0
INSERT
  5
2455
330
1F
100
AcDbEntity
  8
SOLBET_Izolacja
100
AcDbBlockReference
  2
ASOWDBLK
 10
60.22162658033312
 20
112.1957349842479
 30
0.0
 41
0.7331463203659041
 42
1.556333333333348
 43
0.733146320366
  0
LEADER
  5
2731
330
1F
100
AcDbEntity
  8
SOLBET_Wymiary_Opisy
100
AcDbLeader
  3
Solbet$7
 73
     0
 74
     0
 75
     1
 40
3.25
 41
27.75
 76
     3
 10
68.20447599731301
 20
214.0847472960519
 30
0.0
 10
90.90735330512893
 20
244.9881092715012
 30
0.0
 10
93.40735330512893
 20
244.9881092715012
 30
0.0
340
2732
213
1.177601578005123
223
-0.1753245211093599
233
0.0
1001
ACAD
1000
DSTYLE
1002
{
1070
   147
1040
0.625
1070
    77
1070
     1
1002
}
  0
MTEXT
  5
2732
102
{ACAD_XDICTIONARY
360
2C0D
102
}
102
{ACAD_REACTORS
330
2731
102
}
330
1F
100
AcDbEntity
  8
SOLBET_Wymiary_Opisy
100
AcDbMText
 10
120.6047517271238
 20
249.0384337926106
 30
0.0
 40
2.5
 41
0.0
 71
     3
 72
     1
  1
Wieniec \U+017Celbetowy
  7
Solbet_2_5
 73
     1
 44
1.0
1001
ACAD
1000
MTEXTBEGIN
1070
    73
1070
     1
1070
    44
1040
1.0
1070
    74
1070
     0
1000
MTEXTEND
  0
LEADER
  5
2733
330
1F
100
AcDbEntity
  8
SOLBET_Wymiary_Opisy
100
AcDbLeader
  3
Solbet$7
 73
     0
 74
     0
 75
     1
 40
3.5
 41
37.25
 76
     3
 10
259.5905475554318
 20
223.157715355485
 30
0.0
 10
283.7395295975684
 20
235.1546753886609
 30
0.0
 10
286.2395295975684
 20
235.1546753886609
 30
0.0
213
1.177601578005123
223
-0.1753245211093599
233
0.0
1001
ACAD
1000
DSTYLE
1002
{
1070
   147
1040
0.625
1070
    77
1070
     1
1002
}
  0
MTEXT
  5
2734
102
{ACAD_XDICTIONARY
360
2C0F
102
}
102
{ACAD_REACTORS
330
2733
102
}
330
1F
100
AcDbEntity
  8
SOLBET_Wymiary_Opisy
100
AcDbMText
 10
286.2395295975684
 20
238.6546753886609
 30
0.0
 40
2.5
 41
0.0
 71
     1
 72
     1
  1
Warstwa wyko\U+0144czeniowa
  7
Solbet_2_5
 73
     1
 44
1.0
1001
ACAD
1000
MTEXTBEGIN
1070
    73
1070
     1
1070
    44
1040
1.0
1070
    74
1070
     0
1000
MTEXTEND
  0
LEADER
  5
2735
330
1F
100
AcDbEntity
  8
SOLBET_Wymiary_Opisy
100
AcDbLeader
  3
Solbet$7
 73
     0
 74
     0
 75
     1
 40
3.25
 41
32.5
 76
     3
 10
260.148816064539
 20
215.3915965390662
 30
0.0
 10
283.7395295975684
 20
226.8933942287395
 30
0.0
 10
286.2395295975684
 20
226.8933942287395
 30
0.0
213
0.0
223
-0.2322806831707567
233
0.0
1001
ACAD
1000
DSTYLE
1002
{
1070
   147
1040
0.625
1070
    77
1070
     1
1002
}
  0
MTEXT
  5
2736
102
{ACAD_REACTORS
330
2735
102
}
330
1F
100
AcDbEntity
  8
SOLBET_Wymiary_Opisy
100
AcDbMText
 10
286.2395295975684
 20
230.1433942287395
 30
0.0
 40
2.5
 41
0.0
 71
     1
 72
     1
  1
Wylewka jastrychowa
  7
Solbet_2_5
 73
     1
 44
1.0
1001
ACAD
1000
MTEXTBEGIN
1070
    73
1070
     1
1070
    44
1040
1.0
1070
    74
1070
     0
1000
MTEXTEND
  0
LEADER
  5
2737
330
1F
100
AcDbEntity
  8
SOLBET_Wymiary_Opisy
100
AcDbLeader
  3
Solbet$7
 73
     0
 74
     0
 75
     1
 40
3.25
 41
19.75
 76
     3
 10
262.1873648982382
 20
208.4979368393763
 30
0.0
 10
285.1087153677281
 20
219.800956466791
 30
0.0
 10
287.6087153677281
 20
219.800956466791
 30
0.0
213
0.0
223
-0.2322806831707567
233
0.0
1001
ACAD
1000
DSTYLE
1002
{
1070
   147
1040
0.625
1070
    77
1070
     1
1002
}
  0
MTEXT
  5
2738
102
{ACAD_REACTORS
330
2737
102
}
330
1F
100
AcDbEntity
  8
SOLBET_Wymiary_Opisy
100
AcDbMText
 10
286.2395295975684
 20
223.9082371499617
 30
0.0
 40
2.5
 41
0.0
 71
     1
 72
     1
  1
Hydroizolacja
  7
Solbet_2_5
 73
     1
 44
1.0
1001
ACAD
1000
MTEXTBEGIN
1070
    73
1070
     1
1070
    44
1040
1.0
1070
    74
1070
     0
1000
MTEXTEND
  0
LEADER
  5
2739
330
1F
100
AcDbEntity
  8
SOLBET_Wymiary_Opisy
100
AcDbLeader
  3
Solbet$7
 73
     0
 74
     0
 75
     1
 40
3.25
 41
36.5
 76
     3
 10
266.6728358631467
 20
197.7212184778153
 30
0.0
 10
285.0230305402519
 20
207.6862940310248
 30
0.0
 10
287.523030540252
 20
207.6862940310248
 30
0.0
213
0.0
223
-0.2322806831707567
233
0.0
1001
ACAD
1000
DSTYLE
1002
{
1070
   147
1040
0.625
1070
    77
1070
     1
1002
}
  0
MTEXT
  5
273A
102
{ACAD_XDICTIONARY
360
2C11
102
}
102
{ACAD_REACTORS
330
2739
102
}
330
1F
100
AcDbEntity
  8
SOLBET_Wymiary_Opisy
100
AcDbMText
 10
286.2395295975684
 20
210.9362940310248
 30
0.0
 40
2.5
 41
0.0
 71
     1
 72
     1
  1
P\U+0142yty izolacyjne twarde
  7
Solbet_2_5
 73
     1
 44
1.0
1001
ACAD
1000
MTEXTBEGIN
1070
    73
1070
     1
1070
    44
1040
1.0
1070
    74
1070
     0
1000
MTEXTEND
  0
LINE
  5
273B
330
1F
100
AcDbEntity
  8
SOLBET_Wymiary_Opisy
100
AcDbLine
 10
272.209106201447
 20
224.3852744392918
 30
0.0
 11
272.209106201447
 21
169.4208227325329
 31
0.0
  0
LINE
  5
273C
330
1F
100
AcDbEntity
  8
SOLBET_Izolacja
100
AcDbLine
 10
228.3227602618408
 20
195.0187402715158
 30
0.0
 11
272.209106201447
 21
195.0187402715158
 31
0.0
  0
LINE
  5
273D
330
1F
100
AcDbEntity
  8
SOLBET_Izolacja
100
AcDbLine
 10
228.3227602618408
 20
207.5187402715158
 30
0.0
 11
272.209106201447
 21
207.5187402715158
 31
0.0
  0
LINE
  5
273E
330
1F
100
AcDbEntity
  8
SOLBET_Tynki_Posadzki
100
AcDbLine
 10
236.9379531238919
 20
224.3852744392918
 30
0.0
 11
272.209106201447
 21
224.3852744392918
 31
0.0
  0
LINE
  5
273F
330
1F
100
AcDbEntity
  8
SOLBET_Emulsje_Folie
100
AcDbLine
 10
228.5230217578819
 20
208.4979368393763
 30
0.0
 11
272.209106201447
 21
208.4979368393763
 31
0.0
  0
HATCH
  5
2740
330
1F
100
AcDbEntity
  8
SOLBET_Tynki_Posadzki
100
AcDbHatch
 10
0.0
 20
0.0
 30
0.0
210
0.0
220
0.0
230
1.0
  2
AR-CONC
 70
     0
 71
     0
 91
        1
 92
        5
 93
        4
 72
     2
 10
261.3767620177987
 20
201.2687402715159
 40
33.63970172404727
 50
142.2031821742316
 51
166.0379938227853
 73
     1
 72
     1
 10
228.7309138103132
 20
209.3852744392928
 11
272.2091062014465
 21
209.3852744392928
 72
     1
 10
272.209106201447
 20
209.3852744392928
 11
272.2091062014474
 21
221.8852744392917
 72
     1
 10
272.2091062014474
 20
221.8852744392917
 11
234.7950380144202
 21
221.8852744392917
 97
        0
 75
     0
 76
     1
 52
0.0
 41
0.03
 77
     0
 78
    13
 53
50.0
 43
898.3049571382025
 44
124.1367214927782
 45
5.46554006988012
 46
-0.4781725661670926
 79
     2
 49
0.5715
 49
-6.2865
 53
355.0
 43
898.3049571382025
 44
124.1367214927782
 45
-1.057284779270009
 46
5.731699286465398
 79
     2
 49
0.4572
 49
-5.029199999999999
 53
100.451
 43
898.7604171382024
 44
124.0968739927782
 45
4.408275049978777
 46
5.253500634608755
 79
     2
 49
0.4857000000000001
 49
-5.342699999999999
 53
46.1842
 43
898.3049571382025
 44
125.6607214927782
 45
8.132371226763897
 46
-1.261269837981814
 79
     2
 49
0.8572499999999999
 49
-9.429749999999998
 53
96.6356
 43
898.9826541382024
 44
125.5556164927782
 45
7.122127033987114
 46
7.422766676701476
 79
     2
 49
0.7285500000000001
 49
-8.014049999999999
 53
351.184
 43
898.3049571382025
 44
125.6607214927782
 45
7.122138174418017
 46
7.422753535817929
 79
     2
 49
0.6858
 49
-7.5438
 53
21.0
 43
899.0669571382024
 44
125.2797214927782
 45
4.548446395061498
 46
-3.067965555502874
 79
     2
 49
0.5715
 49
-6.2865
 53
326.0
 43
899.0669571382024
 44
125.2797214927782
 45
1.854060850429411
 46
5.525638983669577
 79
     2
 49
0.4572
 49
-5.029199999999999
 53
71.45140000000001
 43
899.4459921382023
 44
125.0240584927782
 45
6.402494723103733
 46
2.457685731481723
 79
     2
 49
0.4857000000000001
 49
-5.342699999999999
 53
37.5
 43
898.3049571382025
 44
124.1367214927782
 45
0.0926580975177545
 46
2.536651166194593
 79
     6
 49
0.0
 49
-4.968239999999999
 49
0.0
 49
-5.1054
 49
0.0
 49
-5.04825
 53
7.499999999999999
 43
898.3049571382025
 44
124.1367214927782
 45
2.004589875309172
 46
3.005417244543585
 79
     6
 49
0.0
 49
-2.910839999999999
 49
0.0
 49
-4.853939999999999
 49
0.0
 49
-1.92405
 53
327.5
 43
896.6056971382025
 44
124.1367214927782
 45
4.067717855006141
 46
-0.1718623197802037
 79
     6
 49
0.0
 49
-1.905
 49
0.0
 49
-5.943599999999999
 49
0.0
 49
-7.886699999999999
 53
317.5
 43
895.8436971382026
 44
124.1367214927782
 45
4.443875441580541
 46
0.7627947309999904
 79
     6
 49
0.0
 49
-2.476499999999999
 49
0.0
 49
-3.947159999999999
 49
0.0
 49
-5.600699999999999
 47
0.0387476598051738
 98
        1
 10
251.6795505619907
 20
215.4828127369066
1001
ACAD
1010
0.0
1020
0.0
1030
0.0
  0
LWPOLYLINE
  5
2741
330
1F
100
AcDbEntity
  8
SOLBET_Tynki_Posadzki
100
AcDbPolyline
 90
        4
 70
     0
 43
0.0
 10
228.7309138103132
 20
209.3852744392928
 10
272.209106201447
 20
209.3852744392928
 10
272.2091062014474
 20
221.8852744392918
 10
234.7950380144207
 20
221.8852744392918
1001
ASO_SCHRAFF
1005
0
1070
     1
1002
{
1070
     1
1005
0
1002
}
1002
{
1070
     2
1005
0
1002
}
1002
{
1070
     4
1000
AR-CONC
1040
0.01
1040
0.0
1070
     0
1000
T__SCHR
1070
   256
1000
_bylayer
1040
50.0
1070
     1
1002
}
  0
LWPOLYLINE
  5
2742
330
1F
100
AcDbEntity
  8
SOLBET_Beton
100
AcDbPolyline
 90
        3
 70
     0
 43
0.0
 10
229.1419886203166
 20
191.6485055500637
 10
272.209106201447
 20
191.6485055500637
 10
272.209106201447
 20
169.4208227325328
  0
LINE
  5
2743
330
1F
100
AcDbEntity
  8
SOLBET_Izolacja
  6
BATTING
 48
0.6
100
AcDbLine
 10
227.7370602937517
 20
201.2687402715158
 30
0.0
 11
272.209106201447
 21
201.2687402715158
 31
0.0
  0
ARC
  5
2744
330
1F
100
AcDbEntity
  8
SOLBET_Wymiary_Opisy
100
AcDbCircle
 10
261.3767620177987
 20
201.2687402715158
 30
0.0
 40
33.6397017240473
100
AcDbArc
 50
136.5926968744798
 51
288.7845676764077
  0
MTEXT
  5
2745
102
{ACAD_XDICTIONARY
360
2AA0
102
}
330
1F
100
AcDbEntity
  8
SOLBET_Wymiary_Opisy
100
AcDbMText
 10
237.6057606515792
 20
253.051588769386
 30
0.0
 40
5.0
 41
30.77919768571883
 71
     1
 72
     5
  1
\pxqc;B\P(5 : 1)
  7
Solbet_5
 73
     1
 44
1.0
1001
ACAD
1000
MTEXTBEGIN
1070
    73
1070
     1
1070
    44
1040
1.0
1070
    74
1070
     0
1000
MTEXTEND
1000
ACAD_MTEXT_DEFINED_HEIGHT_BEGIN
1070
    46
1040
23.42535011036716
1000
ACAD_MTEXT_DEFINED_HEIGHT_END
  0
LINE
  5
2746
330
1F
100
AcDbEntity
  8
SOLBET_Beton
100
AcDbLine
 10
265.0068777605379
 20
191.6485055500637
 30
0.0
 11
265.0068777605379
 21
167.8254779937836
 31
0.0
  0
LINE
  5
2747
330
1F
100
AcDbEntity
  8
SOLBET_Zbrojenie_Konstrukcja
100
AcDbLine
 10
272.209106201447
 20
184.2298350349417
 30
0.0
 11
232.3714997293464
 21
184.2298350349417
 31
0.0
  0
LINE
  5
2748
330
1F
100
AcDbEntity
  8
SOLBET_Zbrojenie_Konstrukcja
100
AcDbLine
 10
258.6317884886964
 20
184.2298350349417
 30
0.0
 11
267.9189629724151
 21
168.2713291798515
 31
0.0
  0
LINE
  5
2749
330
1F
100
AcDbEntity
  8
SOLBET_Zbrojenie_Konstrukcja
100
AcDbLine
 10
258.6317884886964
 20
184.2298350349417
 30
0.0
 11
250.2629698974538
 21
169.5179425368347
 31
0.0
  0
CIRCLE
  5
274A
330
1F
100
AcDbEntity
  8
SOLBET_Wymiary_Opisy
100
AcDbCircle
 10
134.2799049476286
 20
223.0714257777062
 30
0.0
 40
6.72794034480946
  0
LEADER
  5
274B
330
1F
100
AcDbEntity
  8
SOLBET_Wymiary_Opisy
100
AcDbLeader
  3
Solbet$7
 73
     0
 74
     0
 75
     1
 40
5.0
 41
4.0
 76
     3
 10
137.9014786177456
 20
228.7414685848841
 30
0.0
 10
140.8726288185621
 20
232.739955323928
 30
0.0
 10
143.3726288185621
 20
232.739955323928
 30
0.0
213
0.8103787685154202
223
-0.1753245211093599
233
0.0
1001
ACAD
1000
DSTYLE
1002
{
1070
   341
1005
1EF2
1070
   147
1040
0.625
1070
    77
1070
     1
1002
}
  0
MTEXT
  5
274C
102
{ACAD_REACTORS
330
274B
102
}
330
1F
100
AcDbEntity
  8
SOLBET_Wymiary_Opisy
100
AcDbMText
 10
147.1872500500467
 20
238.5402798450374
 30
0.0
 40
5.0
 41
0.0
 71
     3
 72
     1
  1
B
  7
Solbet_5
 73
     1
 44
1.0
1001
ACAD
1000
MTEXTBEGIN
1070
    73
1070
     1
1070
    44
1040
1.0
1070
    74
1070
     0
1000
MTEXTEND
  0
LEADER
  5
274D
330
1F
100
AcDbEntity
  8
SOLBET_Wymiary_Opisy
100
AcDbLeader
  3
Solbet$7
 73
     0
 74
     0
 75
     1
 40
3.25
 41
20.25
 76
     3
 10
116.8707607799476
 20
209.6074879629174
 30
0.0
 10
144.782034648739
 20
173.8677293039587
 30
0.0
 10
147.282034648739
 20
173.8677293039587
 30
0.0
340
274E
213
-0.2648243127187015
223
-0.1753245211093599
233
0.0
1001
ACAD
1000
DSTYLE
1002
{
1070
   147
1040
0.625
1070
    77
1070
     1
1002
}
  0
MTEXT
  5
274E
102
{ACAD_REACTORS
330
274D
102
}
330
1F
100
AcDbEntity
  8
SOLBET_Wymiary_Opisy
100
AcDbMText
 10
168.4218589614577
 20
177.9180538250681
 30
0.0
 40
2.5
 41
0.0
 71
     3
 72
     1
  1
Tynk SOLBET
  7
Solbet_2_5
 73
     1
 44
1.0
1001
ACAD
1000
MTEXTBEGIN
1070
    73
1070
     1
1070
    44
1040
1.0
1070
    74
1070
     0
1000
MTEXTEND
  0
LEADER
  5
274F
330
1F
100
AcDbEntity
  8
SOLBET_Wymiary_Opisy
100
AcDbLeader
  3
Solbet$7
 73
     0
 74
     0
 75
     1
 40
3.25
 41
19.5
 76
     3
 10
121.4238000009422
 20
215.6074879629174
 30
0.0
 10
145.7175205110277
 20
184.404423437269
 30
0.0
 10
148.2175205110277
 20
184.404423437269
 30
0.0
340
2750
213
1.177601578005123
223
-0.1753245211093599
233
0.0
1001
ACAD
1000
DSTYLE
1002
{
1070
   147
1040
0.625
1070
    77
1070
     1
1002
}
  0
MTEXT
  5
2750
102
{ACAD_REACTORS
330
274F
102
}
330
1F
100
AcDbEntity
  8
SOLBET_Wymiary_Opisy
100
AcDbMText
 10
167.1649189330226
 20
188.4547479583783
 30
0.0
 40
2.5
 41
0.0
 71
     3
 72
     1
  1
Strop Teriva
  7
Solbet_2_5
 73
     1
 44
1.0
1001
ACAD
1000
MTEXTBEGIN
1070
    73
1070
     1
1070
    44
1040
1.0
1070
    74
1070
     0
1000
MTEXTEND
  0
MTEXT
  5
2752
102
{ACAD_XDICTIONARY
360
2C13
102
}
330
1F
100
AcDbEntity
  8
SOLBET_Wymiary_Opisy
100
AcDbMText
 10
47.18232852264111
 20
177.2593905755394
 30
0.0
 40
2.5
 41
0.0
 71
     3
 72
     1
  1
Nadpro\U+017Ca SOLBET
  7
Solbet_2_5
 73
     1
 44
1.0
1001
ACAD
1000
MTEXTBEGIN
1070
    73
1070
     1
1070
    44
1040
1.0
1070
    74
1070
     0
1000
MTEXTEND
  0
INSERT
  5
2753
330
1F
100
AcDbEntity
  8
SOLBET_Wymiary_Opisy
100
AcDbBlockReference
  2
_DotSmall
 10
68.33653967998703
 20
190.8508151257707
 30
0.0
 41
2.499999999999988
 42
2.5
 43
2.5
 50
46.31224513654011
1001
ACAD
1000
DSTYLE
1002
{
1070
   147
1040
0.625
1070
    77
1070
     1
1002
}
  0
LINE
  5
276B
330
1F
100
AcDbEntity
  8
SOLBET_Wymiary_Opisy
100
AcDbLine
 10
68.33653967998703
 20
190.8508151257707
 30
0.0
 11
51.48493010064624
 21
173.2090660544301
 31
0.0
1001
ACAD
1000
DSTYLE
1002
{
1070
   147
1040
0.625
1070
    77
1070
     1
1002
}
  0
LINE
  5
276C
330
1F
100
AcDbEntity
  8
SOLBET_Wymiary_Opisy
100
AcDbLine
 10
51.48493010064624
 20
173.2090660544301
 30
0.0
 11
21.35993010064624
 21
173.2090660544301
 31
0.0
1001
ACAD
1000
DSTYLE
1002
{
1070
   147
1040
0.625
1070
    77
1070
     1
1002
}
  0
INSERT
  5
276E
330
1F
100
AcDbEntity
  8
SOLBET_Wymiary_Opisy
100
AcDbBlockReference
  2
_DotSmall
 10
73.1828641929352
 20
190.3807069289716
 30
0.0
 41
2.499999999999988
 42
2.5
 43
2.5
 50
46.31224513654011
1001
ACAD
1000
DSTYLE
1002
{
1070
   147
1040
0.625
1070
    77
1070
     1
1002
}
  0
LINE
  5
276F
330
1F
100
AcDbEntity
  8
SOLBET_Wymiary_Opisy
100
AcDbLine
 10
73.1828641929352
 20
190.3807069289716
 30
0.0
 11
51.48493010064624
 21
173.2090660544301
 31
0.0
1001
ACAD
1000
DSTYLE
1002
{
1070
   147
1040
0.625
1070
    77
1070
     1
1002
}
  0
CIRCLE
  5
2770
330
1F
100
AcDbEntity
  8
SOLBET_Wymiary_Opisy
100
AcDbCircle
 10
67.68323831262183
 20
98.53532548578517
 30
0.0
 40
12.60307139367659
  0
LINE
  5
2771
330
1F
100
AcDbEntity
  8
SOLBET_Wymiary_Opisy
100
AcDbLine
 10
55.45927064566808
 20
101.6032275427904
 30
0.0
 11
45.73096516427449
 21
109.5371406023298
 31
0.0
1001
ACAD
1000
DSTYLE
1002
{
1070
   341
1005
1EF2
1070
   147
1040
0.625
1070
    77
1070
     1
1002
}
  0
LINE
  5
2772
330
1F
100
AcDbEntity
  8
SOLBET_Wymiary_Opisy
100
AcDbLine
 10
38.58577623042584
 20
109.5371406023298
 30
0.0
 11
45.73096516427449
 21
109.5371406023298
 31
0.0
1001
ACAD
1000
DSTYLE
1002
{
1070
   341
1005
1EF2
1070
   147
1040
0.625
1070
    77
1070
     1
1002
}
  0
MTEXT
  5
2773
330
1F
100
AcDbEntity
  8
SOLBET_Wymiary_Opisy
100
AcDbMText
 10
44.38938427918356
 20
115.97474603293
 30
0.0
 40
5.0
 41
0.0
 71
     3
 72
     1
  1
A
  7
Solbet_5
 73
     1
 44
1.0
1001
ACAD
1000
MTEXTBEGIN
1070
    73
1070
     1
1070
    44
1040
1.0
1070
    74
1070
     0
1000
MTEXTEND
  0
INSERT
  5
2774
330
1F
100
AcDbEntity
  8
SOLBET_Zbrojenie_Konstrukcja
100
AcDbBlockReference
  2
*U10
 10
-1067.103500803061
 20
-584.7036375220259
 30
0.0
 41
166.6649999999999
 42
166.665
 43
166.665
1001
ASO_SCHRAFF
1005
2616
1070
     0
1005
0
  0
INSERT
  5
2775
330
1F
100
AcDbEntity
  8
SOLBET_Zbrojenie_Konstrukcja
100
AcDbBlockReference
  2
*U10
 10
1623.240878398724
 20
-584.7036375220259
 30
0.0
 41
-166.6649999999999
 42
166.665
 43
166.665
1001
ASO_SCHRAFF
1005
2616
1070
     0
1005
0
  0
LINE
  5
2776
330
1F
100
AcDbEntity
  8
SOLBET_Tynki_Posadzki
100
AcDbLine
 10
299.0206655066361
 20
105.712926689777
 30
0.0
 11
299.0206655066361
 21
58.76014767397096
 31
0.0
  0
LINE
  5
2777
330
1F
100
AcDbEntity
  8
SOLBET_Zaprawy
100
AcDbLine
 10
231.4102689289609
 20
55.95360265680415
 30
0.0
 11
231.4102689289609
 21
108.5194717069437
 31
0.0
  0
LINE
  5
2778
330
1F
100
AcDbEntity
  8
SOLBET_Tynki_Posadzki
100
AcDbLine
 10
229.8546905066364
 20
58.02057851958716
 30
0.0
 11
229.854690506636
 21
106.4524958441604
 31
0.0
  0
LINE
  5
277C
330
1F
100
AcDbEntity
  8
SOLBET_Bloczki
100
AcDbLine
 10
297.3540155066362
 20
67.30951220445425
 30
0.0
 11
297.3540155066362
 21
56.45886201557658
 31
0.0
  0
LINE
  5
277D
330
1F
100
AcDbEntity
  8
SOLBET_Bloczki
100
AcDbLine
 10
257.3544155066361
 20
67.30951220445425
 30
0.0
 11
257.3544155066363
 21
40.78536895785137
 31
0.0
  0
LINE
  5
277E
330
1F
100
AcDbEntity
  8
SOLBET_Izolacja
100
AcDbLine
 10
232.3546655066721
 20
109.6555288359113
 30
0.0
 11
232.3546655066634
 21
54.81754552784661
 31
0.0
  0
LINE
  5
277F
330
1F
100
AcDbEntity
  8
SOLBET_Izolacja
  6
BATTING
 48
1.219999999999999
100
AcDbLine
 10
244.8545405066454
 20
48.93580492067576
 30
0.0
 11
244.8545405066452
 21
119.5359621137012
 31
0.0
  0
LWPOLYLINE
  5
2780
330
1F
100
AcDbEntity
  8
SOLBET_Bloczki
100
AcDbPolyline
 90
        2
 70
     0
 43
0.0
 10
257.3544160924584
 20
107.3091122044546
 10
257.3544156812425
 20
123.6877054346595
  0
LWPOLYLINE
  5
2781
330
1F
100
AcDbEntity
  8
SOLBET_Bloczki
100
AcDbPolyline
 90
        3
 70
     0
 43
0.0
 10
297.3540160747557
 20
108.0142116171018
 10
297.3540160924585
 20
107.3091122044546
 10
257.3544160924584
 20
107.3091123417444
  0
ARC
  5
2782
330
1F
100
AcDbEntity
  8
SOLBET_Wymiary_Opisy
100
AcDbCircle
 10
264.1826986645044
 20
82.23653718187392
 30
0.0
 40
42.00981787654217
100
AcDbArc
 50
215.2002370771429
 51
144.799762922861
  0
LEADER
  5
2783
330
1F
100
AcDbEntity
  8
SOLBET_Wymiary_Opisy
100
AcDbLeader
  3
Solbet$7
 73
     0
 75
     1
 40
3.25
 41
39.25
 76
     3
 10
229.854690506636
 20
103.4130689380991
 30
0.0
 10
219.3560588325365
 20
116.0969952325801
 30
0.0
 10
216.8560588325365
 20
116.0969952325801
 30
0.0
340
2784
213
1.177601578005123
223
-0.1753245211093599
233
0.0
1001
ACAD
1000
DSTYLE
1002
{
1070
   147
1040
0.625
1070
    77
1070
     1
1002
}
  0
MTEXT
  5
2784
102
{ACAD_XDICTIONARY
360
2C15
102
}
102
{ACAD_REACTORS
330
2783
102
}
330
1F
100
AcDbEntity
  8
SOLBET_Wymiary_Opisy
100
AcDbMText
 10
215.0534572545314
 20
120.1473197536894
 30
0.0
 40
2.5
 41
0.0
 71
     3
 72
     1
  1
Tynk zewn\U+0119trzny SOLBET 
  7
Solbet_2_5
 73
     1
 44
1.0
1001
ACAD
1000
MTEXTBEGIN
1070
    73
1070
     1
1070
    44
1040
1.0
1070
    74
1070
     0
1000
MTEXTEND
  0
LEADER
  5
2785
330
1F
100
AcDbEntity
  8
SOLBET_Wymiary_Opisy
100
AcDbLeader
  3
Solbet$7
 73
     0
 75
     1
 40
7.416666666666666
 41
49.25
 76
     3
 10
231.4102689289609
 20
100.9105822703203
 30
0.0
 10
220.0756743221605
 20
83.92141523950007
 30
0.0
 10
217.5756743221604
 20
83.92141523950007
 30
0.0
340
2786
213
-0.9304561308042593
223
-0.1753245211093599
233
0.0
1001
ACAD
1000
DSTYLE
1002
{
1070
   147
1040
0.625
1070
    77
1070
     1
1002
}
  0
MTEXT
  5
2786
102
{ACAD_XDICTIONARY
360
2C17
102
}
102
{ACAD_REACTORS
330
2785
102
}
330
1F
100
AcDbEntity
  8
SOLBET_Wymiary_Opisy
100
AcDbMText
 10
217.8811304529647
 20
92.13840642727609
 30
0.0
 40
2.5
 41
0.0
 71
     3
 72
     1
  1
Siatka z klejem SOLBET Gabit T\Pje\U+017Celi wymagane
  7
Solbet_2_5
 73
     1
 44
1.0
1001
ACAD
1000
MTEXTBEGIN
1070
    73
1070
     1
1070
    44
1040
1.0
1070
    74
1070
     0
1000
MTEXTEND
  0
LEADER
  5
2787
330
1F
100
AcDbEntity
  8
SOLBET_Wymiary_Opisy
100
AcDbLeader
  3
Solbet$7
 73
     0
 75
     1
 40
3.25
 41
41.5
 76
     3
 10
235.1901715024442
 20
89.63043118763881
 30
0.0
 10
219.817821671809
 20
69.33959750542169
 30
0.0
 10
217.3178216718091
 20
69.33959750542169
 30
0.0
340
2788
213
-1.659589187754136
223
-0.1753245211093599
233
0.0
1001
ACAD
1000
DSTYLE
1002
{
1070
   147
1040
0.625
1070
    77
1070
     1
1002
}
  0
MTEXT
  5
2788
102
{ACAD_REACTORS
330
2787
102
}
330
1F
100
AcDbEntity
  8
SOLBET_Wymiary_Opisy
100
AcDbMText
 10
218.3524108595632
 20
73.38992202653106
 30
0.0
 40
2.5
 41
0.0
 71
     3
 72
     1
  1
Warstwa izolacji termicznej
  7
Solbet_2_5
 73
     1
 44
1.0
1001
ACAD
1000
MTEXTBEGIN
1070
    73
1070
     1
1070
    44
1040
1.0
1070
    74
1070
     0
1000
MTEXTEND
  0
LEADER
  5
2789
330
1F
100
AcDbEntity
  8
SOLBET_Wymiary_Opisy
100
AcDbLeader
  3
Solbet$7
 73
     0
 75
     1
 40
3.25
 41
45.0
 76
     3
 10
262.1008693105025
 20
95.89231193600085
 30
0.0
 10
221.006506404967
 20
56.90758432328997
 30
0.0
 10
218.506506404967
 20
56.90758432328997
 30
0.0
340
278A
213
1.874999999999943
223
-0.1753245211093457
233
0.0
1001
ACAD
1000
DSTYLE
1002
{
1070
   147
1040
0.625
1070
    77
1070
     1
1002
}
  0
MTEXT
  5
278A
102
{ACAD_REACTORS
330
2789
102
}
330
1F
100
AcDbEntity
  8
SOLBET_Wymiary_Opisy
100
AcDbMText
 10
216.006506404967
 20
60.95790884439932
 30
0.0
 40
2.5
 41
0.0
 71
     3
 72
     1
  1
Bloczki SOLBET Optimal 24cm
  7
Solbet_2_5
 73
     1
 44
1.0
1001
ACAD
1000
MTEXTBEGIN
1070
    73
1070
     1
1070
    44
1040
1.0
1070
    74
1070
     0
1000
MTEXTEND
  0
LEADER
  5
278B
330
1F
100
AcDbEntity
  8
SOLBET_Wymiary_Opisy
100
AcDbLeader
  3
Solbet$7
 73
     0
 75
     1
 40
3.25
 41
39.75
 76
     3
 10
299.0206655066361
 20
62.60069929030533
 30
0.0
 10
219.9283819368002
 20
32.04902758869281
 30
0.0
 10
217.4283819368002
 20
32.04902758869281
 30
0.0
340
278C
213
1.177601578005123
223
-0.1753245211093599
233
0.0
1001
ACAD
1000
DSTYLE
1002
{
1070
   147
1040
0.625
1070
    77
1070
     1
1002
}
  0
MTEXT
  5
278C
102
{ACAD_XDICTIONARY
360
2C19
102
}
102
{ACAD_REACTORS
330
278B
102
}
330
1F
100
AcDbEntity
  8
SOLBET_Wymiary_Opisy
100
AcDbMText
 10
215.625780358795
 20
36.09935210980217
 30
0.0
 40
2.5
 41
0.0
 71
     3
 72
     1
  1
Tynk wewn\U+0119trzny SOLBET
  7
Solbet_2_5
 73
     1
 44
1.0
1001
ACAD
1000
MTEXTBEGIN
1070
    73
1070
     1
1070
    44
1040
1.0
1070
    74
1070
     0
1000
MTEXTEND
  0
LEADER
  5
278D
330
1F
100
AcDbEntity
  8
SOLBET_Wymiary_Opisy
100
AcDbLeader
  3
Solbet$7
 73
     0
 75
     1
 40
3.25
 41
27.25
 76
     3
 10
279.7978417641997
 20
107.6950030105891
 30
0.0
 10
272.2366275213431
 20
130.2541633522589
 30
0.0
 10
269.736627521343
 20
130.2541633522589
 30
0.0
340
278E
213
1.177601578005123
223
-0.1753245211093599
233
0.0
1001
ACAD
1000
DSTYLE
1002
{
1070
   147
1040
0.625
1070
    77
1070
     1
1002
}
  0
MTEXT
  5
278E
102
{ACAD_REACTORS
330
278D
102
}
330
1F
100
AcDbEntity
  8
SOLBET_Wymiary_Opisy
100
AcDbMText
 10
267.9340259433379
 20
134.3044878733683
 30
0.0
 40
2.5
 41
0.0
 71
     3
 72
     1
  1
Zbrojenie MURFOR
  7
Solbet_2_5
 73
     1
 44
1.0
1001
ACAD
1000
MTEXTBEGIN
1070
    73
1070
     1
1070
    44
1040
1.0
1070
    74
1070
     0
1000
MTEXTEND
  0
MTEXT
  5
2791
102
{ACAD_XDICTIONARY
360
2AA2
102
}
330
1F
100
AcDbEntity
  8
SOLBET_Wymiary_Opisy
100
AcDbMText
 10
210.2141427607
 20
149.918712460533
 30
0.0
 40
5.0
 41
30.77919768571883
 71
     1
 72
     5
  1
\pxqc;A\P(5 : 1)
  7
Solbet_5
 73
     1
 44
1.0
1001
ACAD
1000
MTEXTBEGIN
1070
    73
1070
     1
1070
    44
1040
1.0
1070
    74
1070
     0
1000
MTEXTEND
1000
ACAD_MTEXT_DEFINED_HEIGHT_BEGIN
1070
    46
1040
23.42535011036716
1000
ACAD_MTEXT_DEFINED_HEIGHT_END
  0
LINE
  5
2792
330
1F
100
AcDbEntity
  8
SOLBET_Izolacja
100
AcDbLine
 10
64.19221506071131
 20
73.3512930139201
 30
0.0
 11
56.69221506071142
 21
73.35129301392005
 31
0.0
  0
LINE
  5
2793
330
1F
100
AcDbEntity
  8
SOLBET_Izolacja
100
AcDbLine
 10
56.69221506071142
 20
73.35129301392005
 30
0.0
 11
56.69221506071142
 21
112.1957349842465
 31
0.0
  0
LINE
  5
2796
330
1F
100
AcDbEntity
  8
SOLBET_Izolacja
100
AcDbLine
 10
64.19221506071131
 20
112.1957349842465
 30
0.0
 11
64.19221506071164
 21
73.3512930139201
 31
0.0
  0
LINE
  5
2797
330
1F
100
AcDbEntity
  8
SOLBET_Izolacja
  6
BATTING
 48
0.364
100
AcDbLine
 10
60.44221506071131
 20
73.35129301392007
 30
0.0
 11
60.44221506071119
 21
112.1957349842465
 31
0.0
  0
LEADER
  5
2798
330
1F
100
AcDbEntity
  8
SOLBET_Wymiary_Opisy
100
AcDbLeader
  3
Solbet$7
 73
     0
 75
     1
 40
3.25
 41
32.5
 76
     3
 10
62.31960409837461
 20
186.1074879629174
 30
0.0
 10
49.30709430299953
 20
199.2288872576281
 30
0.0
 10
46.80709430299953
 20
199.2288872576281
 30
0.0
340
2799
213
1.177601578005123
223
-0.1753245211093599
233
0.0
1001
ACAD
1000
DSTYLE
1002
{
1070
   147
1040
0.625
1070
    77
1070
     1
1002
}
  0
MTEXT
  5
2799
102
{ACAD_XDICTIONARY
360
2C1B
102
}
102
{ACAD_REACTORS
330
2798
102
}
330
1F
100
AcDbEntity
  8
SOLBET_Wymiary_Opisy
100
AcDbMText
 10
45.0044927249944
 20
203.2792117787375
 30
0.0
 40
2.5
 41
0.0
 71
     3
 72
     1
  1
Pianka uszczelniaj\U+0105ca
  7
Solbet_2_5
 73
     1
 44
1.0
1001
ACAD
1000
MTEXTBEGIN
1070
    73
1070
     1
1070
    44
1040
1.0
1070
    74
1070
     0
1000
MTEXTEND
  0
LEADER
  5
279A
330
1F
100
AcDbEntity
  8
SOLBET_Wymiary_Opisy
100
AcDbLeader
  3
Solbet$7
 73
     0
 74
     0
 75
     1
 40
3.25
 41
31.5
 76
     3
 10
65.99390950317434
 20
185.8574879629174
 30
0.0
 10
83.61077752517735
 20
167.4383482081899
 30
0.0
 10
86.11077752517735
 20
167.4383482081899
 30
0.0
340
279B
213
1.177601578005123
223
-0.1753245211093599
233
0.0
1001
ACAD
1000
DSTYLE
1002
{
1070
   147
1040
0.625
1070
    77
1070
     1
1002
}
  0
MTEXT
  5
279B
102
{ACAD_XDICTIONARY
360
2C1D
102
}
102
{ACAD_REACTORS
330
279A
102
}
330
1F
100
AcDbEntity
  8
SOLBET_Wymiary_Opisy
100
AcDbMText
 10
117.0581759471722
 20
171.4886727292993
 30
0.0
 40
2.5
 41
0.0
 71
     3
 72
     1
  1
P\U+0142askownik mocuj\U+0105cy
  7
Solbet_2_5
 73
     1
 44
1.0
1001
ACAD
1000
MTEXTBEGIN
1070
    73
1070
     1
1070
    44
1040
1.0
1070
    74
1070
     0
1000
MTEXTEND
  0
LEADER
  5
279C
330
1F
100
AcDbEntity
  8
SOLBET_Wymiary_Opisy
100
AcDbLeader
  3
Solbet$7
 73
     0
 74
     0
 75
     1
 40
3.5
 41
47.25
 76
     3
 10
70.52550155253607
 20
185.6074879629174
 30
0.0
 10
79.32409155202254
 20
176.5119633914445
 30
0.0
 10
81.82409155202254
 20
176.5119633914445
 30
0.0
340
279D
213
1.177601578005123
223
-0.1753245211093599
233
0.0
1001
ACAD
1000
DSTYLE
1002
{
1070
   147
1040
0.625
1070
    77
1070
     1
1002
}
  0
MTEXT
  5
279D
102
{ACAD_XDICTIONARY
360
2C1F
102
}
102
{ACAD_REACTORS
330
279C
102
}
330
1F
100
AcDbEntity
  8
SOLBET_Wymiary_Opisy
100
AcDbMText
 10
128.5214899740174
 20
180.8122879125539
 30
0.0
 40
2.5
 41
0.0
 71
     3
 72
     1
  1
Ta\U+015Bma uszczelniaj\U+0105ca butylowa
  7
Solbet_2_5
 73
     1
 44
1.0
1001
ACAD
1000
MTEXTBEGIN
1070
    73
1070
     1
1070
    44
1040
1.0
1070
    74
1070
     0
1000
MTEXTEND
  0
LEADER
  5
279E
330
1F
100
AcDbEntity
  8
SOLBET_Wymiary_Opisy
100
AcDbLeader
  3
Solbet$7
 73
     0
 75
     1
 40
3.25
 41
37.75
 76
     3
 10
100.8570988026931
 20
49.61659216577287
 30
0.0
 10
88.05487015877748
 20
65.00018589836051
 30
0.0
 10
85.55487015877748
 20
65.00018589836051
 30
0.0
340
279F
213
1.177601578005123
223
-0.1753245211093599
233
0.0
1001
ACAD
1000
DSTYLE
1002
{
1070
   147
1040
0.625
1070
    77
1070
     1
1002
}
  0
MTEXT
  5
279F
102
{ACAD_XDICTIONARY
360
2C21
102
}
102
{ACAD_REACTORS
330
279E
102
}
330
1F
100
AcDbEntity
  8
SOLBET_Wymiary_Opisy
100
AcDbMText
 10
83.75226858077235
 20
69.05051041946987
 30
0.0
 40
2.5
 41
0.0
 71
     3
 72
     1
  1
Profil tynkarski naro\U+017Cny
  7
Solbet_2_5
 73
     1
 44
1.0
1001
ACAD
1000
MTEXTBEGIN
1070
    73
1070
     1
1070
    44
1040
1.0
1070
    74
1070
     0
1000
MTEXTEND
  0
INSERT
  5
27A0
330
1F
100
AcDbEntity
  8
SOLBET_Wymiary_Opisy
100
AcDbBlockReference
  2
_DotSmall
 10
98.149180639738
 20
29.58972753595411
 30
0.0
 41
2.499999999999909
 42
2.5
 43
2.5
 50
309.767231571232
1001
ACAD
1000
DSTYLE
1002
{
1070
   147
1040
0.625
1070
    77
1070
     1
1002
}
  0
LINE
  5
27A1
330
1F
100
AcDbEntity
  8
SOLBET_Wymiary_Opisy
100
AcDbLine
 10
98.149180639738
 20
29.58972753595411
 30
0.0
 11
88.05487015877748
 21
65.00018589836051
 31
0.0
1001
ACAD
1000
DSTYLE
1002
{
1070
   147
1040
0.625
1070
    77
1070
     1
1002
}
  0
LEADER
  5
27A2
330
1F
100
AcDbEntity
  8
SOLBET_Wymiary_Opisy
100
AcDbLeader
  3
Solbet$7
 73
     0
 75
     1
 40
3.25
 41
31.0
 76
     3
 10
98.35716213331114
 20
42.13164383216395
 30
0.0
 10
85.55493348939569
 20
16.2391102981709
 30
0.0
 10
83.05493348939569
 20
16.2391102981709
 30
0.0
340
27A3
213
1.177601578005123
223
-0.1753245211093599
233
0.0
1001
ACAD
1000
DSTYLE
1002
{
1070
   147
1040
0.625
1070
    77
1070
     1
1002
}
  0
MTEXT
  5
27A3
102
{ACAD_XDICTIONARY
360
2C23
102
}
102
{ACAD_REACTORS
330
27A2
102
}
330
1F
100
AcDbEntity
  8
SOLBET_Wymiary_Opisy
100
AcDbMText
 10
81.25233191139058
 20
20.28943481928027
 30
0.0
 40
2.5
 41
0.0
 71
     3
 72
     1
  1
Uszczelnienie piank\U+0105
  7
Solbet_2_5
 73
     1
 44
1.0
1001
ACAD
1000
MTEXTBEGIN
1070
    73
1070
     1
1070
    44
1040
1.0
1070
    74
1070
     0
1000
MTEXTEND
  0
LEADER
  5
27A4
330
1F
100
AcDbEntity
  8
SOLBET_Wymiary_Opisy
100
AcDbLeader
  3
Solbet$7
 73
     0
 74
     0
 75
     1
 40
3.25
 41
31.5
 76
     3
 10
98.76813733104587
 20
38.08972753594821
 30
0.0
 10
104.1517838431407
 20
12.14256764958122
 30
0.0
 10
106.6517838431407
 20
12.14256764958122
 30
0.0
340
27A5
213
1.177601578005123
223
-0.1753245211093599
233
0.0
1001
ACAD
1000
DSTYLE
1002
{
1070
   147
1040
0.625
1070
    77
1070
     1
1002
}
  0
MTEXT
  5
27A5
102
{ACAD_XDICTIONARY
360
2C25
102
}
102
{ACAD_REACTORS
330
27A4
102
}
330
1F
100
AcDbEntity
  8
SOLBET_Wymiary_Opisy
100
AcDbMText
 10
137.5991822651356
 20
16.19289217069058
 30
0.0
 40
2.5
 41
0.0
 71
     3
 72
     1
  1
P\U+0142askownik kotwi\U+0105cy
  7
Solbet_2_5
 73
     1
 44
1.0
1001
ACAD
1000
MTEXTBEGIN
1070
    73
1070
     1
1070
    44
1040
1.0
1070
    74
1070
     0
1000
MTEXTEND
  0
LEADER
  5
27A6
330
1F
100
AcDbEntity
  8
SOLBET_Wymiary_Opisy
100
AcDbLeader
  3
Solbet$7
 73
     0
 74
     0
 75
     1
 40
3.5
 41
47.25
 76
     3
 10
98.26813734509006
 20
34.03465186930065
 30
0.0
 10
104.4361520038494
 20
4.064247905793081
 30
0.0
 10
106.9361520038494
 20
4.064247905793081
 30
0.0
340
27A7
213
1.177601578005123
223
-0.1753245211093599
233
0.0
1001
ACAD
1000
DSTYLE
1002
{
1070
   147
1040
0.625
1070
    77
1070
     1
1002
}
  0
MTEXT
  5
27A7
102
{ACAD_XDICTIONARY
360
2C27
102
}
102
{ACAD_REACTORS
330
27A6
102
}
330
1F
100
AcDbEntity
  8
SOLBET_Wymiary_Opisy
100
AcDbMText
 10
153.6335504258443
 20
8.364572426902441
 30
0.0
 40
2.5
 41
0.0
 71
     3
 72
     1
  1
Ta\U+015Bma uszczelniaj\U+0105ca butylowa
  7
Solbet_2_5
 73
     1
 44
1.0
1001
ACAD
1000
MTEXTBEGIN
1070
    73
1070
     1
1070
    44
1040
1.0
1070
    74
1070
     0
1000
MTEXTEND
  0
LINE
  5
27C4
330
1F
100
AcDbEntity
  8
SOLBET_Tynki_Posadzki
100
AcDbLine
 10
55.94221506071869
 20
157.7693847838978
 30
0.0
 11
55.94221506071858
 21
251.8231395636009
 31
0.0
  0
LINE
  5
29D9
330
1F
100
AcDbEntity
  8
SOLBET_Zbrojenie_Konstrukcja
100
AcDbLine
 10
67.38610933220463
 20
105.1386477232169
 30
0.0
 11
73.42700905081773
 21
105.1386477232169
 31
0.0
  0
LINE
  5
29DA
330
1F
100
AcDbEntity
  8
SOLBET_Zbrojenie_Konstrukcja
100
AcDbLine
 10
268.000623281805
 20
107.4129771707519
 30
0.0
 11
288.1367543138578
 21
107.4129771707519
 31
0.0
  0
INSERT
  5
2B43
330
1F
100
AcDbEntity
  8
SOLBET_Bloczki
100
AcDbBlockReference
  2
SOLBET_Nadproze_120x240x1400_zz_PRA
 10
64.19221564236227
 20
186.107488087406
 30
0.0
  0
INSERT
  5
2B44
330
1F
100
AcDbEntity
  8
SOLBET_Bloczki
100
AcDbBlockReference
  2
SOLBET_Nadproze_120x240x1400_zz_PRA
 10
70.19221564236227
 20
186.107488087406
 30
0.0
  0
INSERT
  5
2B54
330
1F
100
AcDbEntity
  8
SOLBET_Bloczki
100
AcDbBlockReference
  2
SOLBET_Bloczek_Optimal_240x240x590_G_KG500_PRA
 10
64.19221523645868
 20
81.10748796291749
 30
0.0
  0
INSERT
  5
2B55
330
1F
100
AcDbEntity
  8
SOLBET_Bloczki
100
AcDbBlockReference
  2
SOLBET_Bloczek_Optimal_240x240x590_G_KG500_PRA
 10
64.19221541220716
 20
93.10748792173013
 30
0.0
  0
INSERT
  5
2B56
330
1F
100
AcDbEntity
  8
SOLBET_Bloczki
100
AcDbBlockReference
  2
SOLBET_Bloczek_Optimal_240x240x590_G_KG500_PRA
 10
64.19221506071131
 20
234.1074880335288
 30
0.0
  0
INSERT
  5
2B57
330
1F
100
AcDbEntity
  8
SOLBET_Bloczki
100
AcDbBlockReference
  2
SOLBET_Bloczek_Optimal_240x240x590_G_KG500_PRA
 10
64.19221506071119
 20
222.1074880335287
 30
0.0
  0
INSERT
  5
2B6C
330
1F
100
AcDbEntity
  8
SOLBET_Bloczki
100
AcDbBlockReference
  2
SOLBET_Bloczek_Optimal_240x240x590_G_KG500_PRA
 10
257.3544149208138
 20
67.30951234174452
 30
0.0
 41
3.333300000000008
 42
3.333300000000008
 43
3.333299999999995
  0
MTEXT
  5
2BBB
102
{ACAD_XDICTIONARY
360
2BBC
102
}
330
1F
100
AcDbEntity
  8
SOLBET_Wymiary_Opisy
100
AcDbMText
 10
301.1008647611224
 20
7.273150535415538
 30
0.0
 40
5.0
 41
0.0
 71
     1
 72
     5
  1
Skala 1:20
  7
Solbet_5
 73
     1
 44
1.0
1001
ACAD
1000
MTEXTBEGIN
1070
    73
1070
     1
1070
    44
1040
1.0
1070
    74
1070
     0
1000
MTEXTEND
1000
ACAD_MTEXT_DEFINED_HEIGHT_BEGIN
1070
    46
1040
5.395147572682731
1000
ACAD_MTEXT_DEFINED_HEIGHT_END
  0
LWPOLYLINE
  5
2BBE
330
1F
100
AcDbEntity
  8
SOLBET_Ramka_05
100
AcDbPolyline
 90
        4
 70
     1
 43
0.0
 10
298.0821986402086
 20
9.804221198935465
 10
334.1983755276308
 20
9.804221198935465
 10
334.1983755276308
 20
0.0
 10
298.0821986402087
 20
0.0
  0
ENDSEC
  0
SECTION
  2
OBJECTS
  0
DICTIONARY
  5
C
330
0
100
AcDbDictionary
281
     1
  3
ACAD_COLOR
350
6B
  3
ACAD_GROUP
350
D
  3
ACAD_LAYOUT
350
1A
  3
ACAD_MATERIAL
350
6A
  3
ACAD_MLEADERSTYLE
350
12D
  3
ACAD_MLINESTYLE
350
17
  3
ACAD_PLOTSETTINGS
350
19
  3
ACAD_PLOTSTYLENAME
350
E
  3
ACAD_SCALELIST
350
10C
  3
ACAD_TABLESTYLE
350
7E
  3
ACAD_VISUALSTYLE
350
EF
  3
ACDB_RECOMPOSE_DATA
350
15D
  3
AcDbVariableDictionary
350
5E
  3
DWGPROPS
350
2BFF
  0
DICTIONARY
  5
443
330
8
100
AcDbDictionary
280
     1
281
     1
  0
DICTIONARY
  5
3E5
330
2
100
AcDbDictionary
280
     1
281
     1
  3
ACAD_LAYERFILTERS
360
1883
  3
ACLYDICTIONARY
360
1882
  0
DICTIONARY
  5
13C
330
10
100
AcDbDictionary
280
     1
281
     1
  3
ADSK_XREC_LAYER_RECONCILED
360
3F4
  0
DICTIONARY
  5
403
330
3DD
100
AcDbDictionary
280
     1
281
     1
  3
ADSK_XREC_LAYER_RECONCILED
360
404
  0
DICTIONARY
  5
405
330
3DF
100
AcDbDictionary
280
     1
281
     1
  3
ADSK_XREC_LAYER_RECONCILED
360
406
  0
DICTIONARY
  5
407
330
3E0
100
AcDbDictionary
280
     1
281
     1
  3
ADSK_XREC_LAYER_RECONCILED
360
408
  0
DICTIONARY
  5
409
330
3E1
100
AcDbDictionary
280
     1
281
     1
  3
ADSK_XREC_LAYER_RECONCILED
360
40A
  0
DICTIONARY
  5
40B
330
3E2
100
AcDbDictionary
280
     1
281
     1
  3
ADSK_XREC_LAYER_RECONCILED
360
40C
  0
DICTIONARY
  5
40F
330
3E4
100
AcDbDictionary
280
     1
281
     1
  3
ADSK_XREC_LAYER_RECONCILED
360
410
  0
DICTIONARY
  5
411
330
3E8
100
AcDbDictionary
280
     1
281
     1
  3
ADSK_XREC_LAYER_RECONCILED
360
412
  0
DICTIONARY
  5
2A9E
330
2A9D
100
AcDbDictionary
280
     1
281
     1
  3
ASDK_XREC_ANNO_SCALE_INFO
360
2A9F
  0
DICTIONARY
  5
4A3
330
1F
100
AcDbDictionary
280
     1
281
     1
  3
ACAD_SORTENTS
360
4A4
  0
DICTIONARY
  5
237F
330
2374
100
AcDbDictionary
280
     1
281
     1
  3
ACAD_SORTENTS
360
2380
  0
DICTIONARY
  5
23A5
330
239B
100
AcDbDictionary
280
     1
281
     1
  3
ACAD_SORTENTS
360
23A6
  0
DICTIONARY
  5
24C2
330
24C1
100
AcDbDictionary
280
     1
281
     1
  3
ACAD_SORTENTS
360
24C3
  0
DICTIONARY
  5
2B3F
330
2B2E
100
AcDbDictionary
280
     1
281
     1
  3
ACAD_SORTENTS
360
2B40
  0
DICTIONARY
  5
2B50
330
2B45
100
AcDbDictionary
280
     1
281
     1
  3
ACAD_SORTENTS
360
2B51
  0
DICTIONARY
  5
236E
330
236D
100
AcDbDictionary
280
     1
281
     1
  3
ACAD_MTEXT_RT
360
2C0C
  3
AcDbContextDataManager
360
236F
  0
DICTIONARY
  5
2C0D
330
2732
100
AcDbDictionary
280
     1
281
     1
  3
ACAD_MTEXT_RT
360
2C0E
  0
DICTIONARY
  5
2C0F
330
2734
100
AcDbDictionary
280
     1
281
     1
  3
ACAD_MTEXT_RT
360
2C10
  0
DICTIONARY
  5
2C11
330
273A
100
AcDbDictionary
280
     1
281
     1
  3
ACAD_MTEXT_RT
360
2C12
  0
DICTIONARY
  5
2AA0
330
2745
100
AcDbDictionary
280
     1
281
     1
  3
ACAD_MTEXT_2008_RT
360
2AA1
  0
DICTIONARY
  5
2C13
330
2752
100
AcDbDictionary
280
     1
281
     1
  3
ACAD_MTEXT_RT
360
2C14
  0
DICTIONARY
  5
2C15
330
2784
100
AcDbDictionary
280
     1
281
     1
  3
ACAD_MTEXT_RT
360
2C16
  0
DICTIONARY
  5
2C17
330
2786
100
AcDbDictionary
280
     1
281
     1
  3
ACAD_MTEXT_RT
360
2C18
  0
DICTIONARY
  5
2C19
330
278C
100
AcDbDictionary
280
     1
281
     1
  3
ACAD_MTEXT_RT
360
2C1A
  0
DICTIONARY
  5
2AA2
330
2791
100
AcDbDictionary
280
     1
281
     1
  3
ACAD_MTEXT_2008_RT
360
2AA3
  0
DICTIONARY
  5
2C1B
330
2799
100
AcDbDictionary
280
     1
281
     1
  3
ACAD_MTEXT_RT
360
2C1C
  0
DICTIONARY
  5
2C1D
330
279B
100
AcDbDictionary
280
     1
281
     1
  3
ACAD_MTEXT_RT
360
2C1E
  0
DICTIONARY
  5
2C1F
330
279D
100
AcDbDictionary
280
     1
281
     1
  3
ACAD_MTEXT_RT
360
2C20
  0
DICTIONARY
  5
2C21
330
279F
100
AcDbDictionary
280
     1
281
     1
  3
ACAD_MTEXT_RT
360
2C22
  0
DICTIONARY
  5
2C23
330
27A3
100
AcDbDictionary
280
     1
281
     1
  3
ACAD_MTEXT_RT
360
2C24
  0
DICTIONARY
  5
2C25
330
27A5
100
AcDbDictionary
280
     1
281
     1
  3
ACAD_MTEXT_RT
360
2C26
  0
DICTIONARY
  5
2C27
330
27A7
100
AcDbDictionary
280
     1
281
     1
  3
ACAD_MTEXT_RT
360
2C28
  0
DICTIONARY
  5
2BBC
330
2BBB
100
AcDbDictionary
280
     1
281
     1
  3
ACAD_MTEXT_2008_RT
360
2BBD
  0
DICTIONARY
  5
6B
102
{ACAD_REACTORS
330
C
102
}
330
C
100
AcDbDictionary
281
     1
  0
DICTIONARY
  5
D
102
{ACAD_REACTORS
330
C
102
}
330
C
100
AcDbDictionary
281
     1
  0
DICTIONARY
  5
1A
102
{ACAD_REACTORS
330
C
102
}
330
C
100
AcDbDictionary
281
     1
  3
Arkusz1
350
D3
  3
Arkusz2
350
D7
  3
Model
350
22
  0
DICTIONARY
  5
6A
102
{ACAD_REACTORS
330
C
102
}
330
C
100
AcDbDictionary
281
     1
  3
ByBlock
350
ED
  3
ByLayer
350
EC
  3
Global
350
EE
  0
DICTIONARY
  5
12D
102
{ACAD_REACTORS
330
C
102
}
330
C
100
AcDbDictionary
281
     1
  3
Standard
350
12E
  0
DICTIONARY
  5
17
102
{ACAD_REACTORS
330
C
102
}
330
C
100
AcDbDictionary
281
     1
  3
SOLBET_IZOLACJA
350
7E9
  3
Standard
350
18
  0
DICTIONARY
  5
19
102
{ACAD_REACTORS
330
C
102
}
330
C
100
AcDbDictionary
281
     1
  0
ACDBDICTIONARYWDFLT
  5
E
102
{ACAD_REACTORS
330
C
102
}
330
C
100
AcDbDictionary
281
     1
  3
Normal
350
F
100
AcDbDictionaryWithDefault
340
F
  0
DICTIONARY
  5
10C
102
{ACAD_REACTORS
330
C
102
}
330
C
100
AcDbDictionary
281
     1
  3
A0
350
10D
  3
A1
350
188
  3
A2
350
189
  3
A3
350
18A
  3
A4
350
18B
  3
A5
350
18C
  3
A6
350
18D
  3
A7
350
18E
  3
A8
350
18F
  3
A9
350
190
  3
B0
350
191
  3
B1
350
192
  3
B2
350
193
  3
B3
350
194
  3
B4
350
195
  3
B5
350
196
  3
B6
350
197
  3
B7
350
198
  3
B8
350
199
  3
B9
350
19A
  3
C0
350
19B
  3
C1
350
19C
  3
C2
350
19D
  3
C3
350
19E
  3
C4
350
19F
  3
C5
350
1A0
  3
C6
350
1A1
  3
C7
350
1A2
  3
C8
350
1A3
  3
C9
350
1A4
  3
D0
350
1A5
  3
D1
350
1A6
  3
D2
350
1A7
  0
DICTIONARY
  5
7E
102
{ACAD_REACTORS
330
C
102
}
330
C
100
AcDbDictionary
281
     1
  3
Standard
350
7F
  0
DICTIONARY
  5
EF
102
{ACAD_REACTORS
330
C
102
}
330
C
100
AcDbDictionary
281
     1
  3
2dWireframe
350
F5
  3
3D Hidden
350
F7
  3
3dWireframe
350
F6
  3
Basic
350
F4
  3
Brighten
350
FB
  3
ColorChange
350
FF
  3
Conceptual
350
F8
  3
Dim
350
FA
  3
Facepattern
350
FE
  3
Flat
350
F0
  3
FlatWithEdges
350
F1
  3
Gouraud
350
F2
  3
GouraudWithEdges
350
F3
  3
Linepattern
350
FD
  3
Realistic
350
F9
  3
Thicken
350
FC
  0
XRECORD
  5
15D
102
{ACAD_REACTORS
330
C
102
}
330
C
100
AcDbXrecord
280
     1
 90
        1
330
7F
330
236D
330
2745
330
2791
  0
DICTIONARY
  5
5E
102
{ACAD_REACTORS
330
C
102
}
330
C
100
AcDbDictionary
281
     1
  3
CANNOSCALE
350
146
  3
CMLEADERSTYLE
350
145
  3
CTABLESTYLE
350
84
  3
DIMASSOC
350
5F
  3
HIDETEXT
350
63
  3
INDEXCTL
350
466
  3
LIGHTINGUNITS
350
464
  3
MSLTSCALE
350
463
  3
PSOLHEIGHT
350
2BFE
  3
PSOLWIDTH
350
2BFD
  3
SORTENTS
350
465
  0
XRECORD
  5
2BFF
102
{ACAD_REACTORS
330
C
102
}
330
C
100
AcDbXrecord
280
     1
  1
DWGPROPS COOKIE
  2

  3

  4

  6

  7

  8
Olus
  9

300
=
301
=
302
=
303
=
304
=
305
=
306
=
307
=
308
=
309
=
 40
0.4628486689814815
 41
2454690.075573148
 42
2454848.862021574
  1

 90
        0
  0
DICTIONARY
  5
1883
102
{ACAD_REACTORS
330
3E5
102
}
330
3E5
100
AcDbDictionary
281
     1
  0
DICTIONARY
  5
1882
102
{ACAD_REACTORS
330
3E5
102
}
330
3E5
100
AcDbDictionary
281
     1
1001
ACAD
1000
<All
  0
XRECORD
  5
3F4
102
{ACAD_REACTORS
330
13C
102
}
330
13C
100
AcDbXrecord
280
     1
290
     1
  0
XRECORD
  5
404
102
{ACAD_REACTORS
330
403
102
}
330
403
100
AcDbXrecord
280
     1
290
     1
  0
XRECORD
  5
406
102
{ACAD_REACTORS
330
405
102
}
330
405
100
AcDbXrecord
280
     1
290
     1
  0
XRECORD
  5
408
102
{ACAD_REACTORS
330
407
102
}
330
407
100
AcDbXrecord
280
     1
290
     1
  0
XRECORD
  5
40A
102
{ACAD_REACTORS
330
409
102
}
330
409
100
AcDbXrecord
280
     1
290
     1
  0
XRECORD
  5
40C
102
{ACAD_REACTORS
330
40B
102
}
330
40B
100
AcDbXrecord
280
     1
290
     1
  0
XRECORD
  5
410
102
{ACAD_REACTORS
330
40F
102
}
330
40F
100
AcDbXrecord
280
     1
290
     1
  0
XRECORD
  5
412
102
{ACAD_REACTORS
330
411
102
}
330
411
100
AcDbXrecord
280
     1
290
     1
  0
XRECORD
  5
2A9F
102
{ACAD_REACTORS
330
2A9E
102
}
330
2A9E
100
AcDbXrecord
280
     1
 70
     1
340
10D
340
3DF
 70
    -1
  0
SORTENTSTABLE
  5
4A4
102
{ACAD_REACTORS
330
4A3
102
}
330
4A3
100
AcDbSortentsTable
330
1F
331
2301
  5
233B
331
2340
  5
23AF
331
2425
  5
2444
331
23C6
  5
22B0
331
2753
  5
274D
331
2309
  5
2343
331
276B
  5
274E
331
242D
  5
244C
331
2350
  5
6FB
331
22D2
  5
22FA
331
2773
  5
276F
331
2445
  5
2318
331
22DA
  5
2304
331
2781
  5
277D
331
2789
  5
2785
331
2791
  5
278D
331
2360
  5
27C0
331
22A3
  5
22C9
331
2319
  5
2354
331
244D
  5
2321
331
23EE
  5
241E
331
2734
  5
2730
331
22EA
  5
2314
331
22AB
  5
22D1
331
2321
  5
235C
331
2455
  5
2329
331
273C
  5
2738
331
22B3
  5
22D9
331
22F2
  5
232F
331
2329
  5
235F
331
2416
  5
2424
331
2744
  5
2740
331
22FA
  5
2334
331
22BB
  5
22E1
331
241E
  5
242C
331
23BF
  5
22A9
331
274C
  5
2748
331
2799
  5
2798
331
27A1
  5
27A0
331
228E
  5
22A0
331
2296
  5
22BD
331
2302
  5
233C
331
22C3
  5
22E9
331
2341
  5
23B0
331
2426
  5
2445
331
23C7
  5
22B1
331
230A
  5
2344
331
22CB
  5
22F0
331
276C
  5
274F
331
242E
  5
244D
331
2351
  5
6FC
331
22D3
  5
22FB
331
2774
  5
2770
331
2446
  5
231A
331
22DB
  5
2305
331
2782
  5
277E
331
278A
  5
2786
331
2792
  5
278E
331
2287
  5
228B
331
22A4
  5
22CA
331
231A
  5
2355
331
2735
  5
2731
331
244E
  5
2322
331
23EF
  5
241F
331
22EB
  5
2315
331
22AC
  5
22D2
331
2322
  5
235D
331
273D
  5
2739
331
22B4
  5
22DA
331
232A
  5
2360
331
2745
  5
2741
331
2417
  5
2425
331
22BC
  5
22E2
331
22FB
  5
2335
331
274D
  5
2749
331
241F
  5
242D
331
279A
  5
2799
331
27A2
  5
27A1
331
2297
  5
22BE
331
23C0
  5
22AA
331
2303
  5
233D
331
22C4
  5
2796
331
2342
  5
23B3
331
2427
  5
2446
331
23C8
  5
22B2
331
2389
  5
23F2
331
230B
  5
2345
331
234A
  5
23BB
331
23D0
  5
22BA
331
242F
  5
244E
331
2352
  5
23BF
331
22D4
  5
22FC
331
2775
  5
2771
331
2447
  5
231B
331
235A
  5
23C7
331
22DC
  5
2306
331
2783
  5
277F
331
278B
  5
2787
331
2793
  5
278F
331
2399
  5
2416
331
22A5
  5
22CB
331
231B
  5
2356
331
2736
  5
2732
331
244F
  5
2323
331
23F0
  5
2420
331
22AD
  5
22D3
331
2323
  5
235E
331
273E
  5
273A
331
22B5
  5
22DB
331
2418
  5
2426
331
2746
  5
2742
331
22FC
  5
2336
331
22BD
  5
22E3
331
274E
  5
274A
331
279B
  5
279A
331
27A3
  5
27A2
331
2298
  5
22BF
331
2420
  5
242E
331
23C1
  5
22AB
331
2304
  5
233E
331
22C5
  5
22EA
331
23C9
  5
22B3
331
2428
  5
2447
331
230C
  5
2346
331
234B
  5
23BC
331
276E
  5
2752
331
2353
  5
23C0
331
22D5
  5
2300
331
2392
  5
2415
331
2776
  5
2772
331
235B
  5
23C8
331
22DD
  5
2307
331
277C
  5
2776
331
2784
  5
2780
331
278C
  5
2788
331
2448
  5
231C
331
239A
  5
2417
331
22A6
  5
22CC
331
231C
  5
2357
331
2450
  5
2324
331
23F1
  5
2421
331
2737
  5
2733
331
22AE
  5
22D4
331
273F
  5
273B
331
22B6
  5
22DC
331
232C
  5
2366
331
2419
  5
2427
331
2747
  5
2743
331
22BE
  5
22E4
331
274F
  5
274B
331
279C
  5
279B
331
27A4
  5
27A3
331
27C4
  5
2316
331
2291
  5
22A4
331
2299
  5
22C0
331
2421
  5
242F
331
23C2
  5
22AC
331
2305
  5
233F
331
22C6
  5
22EB
331
23CA
  5
22B4
331
2429
  5
2448
331
230D
  5
2347
331
22CE
  5
22F6
331
2441
  5
244F
331
276F
  5
2754
331
2354
  5
23C1
331
235C
  5
23C9
331
22DE
  5
2308
331
2777
  5
2773
331
277D
  5
2777
331
2785
  5
2781
331
278D
  5
2789
331
2449
  5
231D
331
23EA
  5
241A
331
22A7
  5
22CD
331
231D
  5
2358
331
2451
  5
2325
331
23F2
  5
2422
331
2738
  5
2734
331
236C
  5
23CD
331
22AF
  5
22D5
331
22EE
  5
232B
331
2740
  5
273C
331
22B7
  5
22DD
331
232D
  5
2399
331
241A
  5
2428
331
23BB
  5
22A5
331
2748
  5
2744
331
22FE
  5
2338
331
22BF
  5
22E5
331
279D
  5
279C
331
27A5
  5
27A4
331
229A
  5
22C1
331
2422
  5
2441
331
23C3
  5
22AD
331
2750
  5
274C
331
2306
  5
2340
331
23CB
  5
22B5
331
242A
  5
2449
331
2442
  5
2450
331
2355
  5
23C2
331
2770
  5
276B
331
235D
  5
23CA
331
277E
  5
2778
331
2786
  5
2782
331
278E
  5
278A
331
2796
  5
2790
331
22A0
  5
22C6
331
244A
  5
231E
331
23EB
  5
241B
331
2731
  5
272D
331
22A8
  5
22CE
331
231E
  5
2359
331
2452
  5
2326
331
2739
  5
2735
331
236D
  5
23EF
331
2741
  5
273D
331
22F7
  5
2331
331
22B8
  5
22DE
331
241B
  5
2429
331
23BC
  5
22A6
331
2749
  5
2745
331
22FF
  5
2339
331
279E
  5
279D
331
27A6
  5
27A5
331
229B
  5
22C2
331
22C0
  5
22E6
331
2423
  5
2442
331
23C4
  5
22AE
331
2307
  5
2341
331
22C8
  5
22EC
331
23CC
  5
22B6
331
242B
  5
244A
331
22D0
  5
22F8
331
2771
  5
276C
331
2356
  5
23C5
331
2443
  5
2451
331
235E
  5
23CB
331
277F
  5
2779
331
2787
  5
2783
331
2797
  5
2791
331
22A1
  5
22C7
331
22E0
  5
230A
331
244B
  5
231F
331
23EC
  5
241C
331
2732
  5
272E
331
22A9
  5
22CF
331
231F
  5
235A
331
2453
  5
2327
331
273A
  5
2736
331
22F0
  5
232D
331
2414
  5
22FD
331
2742
  5
273E
331
22F8
  5
2332
331
22B9
  5
22DF
331
241C
  5
242A
331
274A
  5
2746
331
233F
  5
23A9
331
279F
  5
279E
331
27A7
  5
27A7
331
2294
  5
2792
331
2300
  5
233A
331
22C1
  5
22E7
331
2424
  5
2443
331
23C5
  5
22AF
331
2752
  5
2750
331
2308
  5
2342
331
242C
  5
244B
331
2310
  5
234A
331
2772
  5
276E
331
2444
  5
2317
331
235F
  5
27C4
331
2778
  5
2774
331
2780
  5
277C
331
2788
  5
2784
331
22A2
  5
22C8
331
2318
  5
2353
331
244C
  5
2320
331
23ED
  5
241D
331
2733
  5
272F
331
22AA
  5
22D0
331
2320
  5
235B
331
2454
  5
2328
331
273B
  5
2737
331
22B2
  5
22D8
331
22F1
  5
232E
331
2415
  5
2423
331
2743
  5
273F
331
22F9
  5
2333
331
22BA
  5
22E0
331
241D
  5
242B
331
23BE
  5
22A8
331
274B
  5
2747
331
2798
  5
2797
331
27A0
  5
279F
331
2295
  5
22BC
331
229D
  5
2793
  0
SORTENTSTABLE
  5
2380
102
{ACAD_REACTORS
330
237F
102
}
330
237F
100
AcDbSortentsTable
330
2374
  0
SORTENTSTABLE
  5
23A6
102
{ACAD_REACTORS
330
23A5
102
}
330
23A5
100
AcDbSortentsTable
330
239B
  0
SORTENTSTABLE
  5
24C3
102
{ACAD_REACTORS
330
24C2
102
}
330
24C2
100
AcDbSortentsTable
330
24C1
  0
SORTENTSTABLE
  5
2B40
102
{ACAD_REACTORS
330
2B3F
102
}
330
2B3F
100
AcDbSortentsTable
330
2B2E
  0
SORTENTSTABLE
  5
2B51
102
{ACAD_REACTORS
330
2B50
102
}
330
2B50
100
AcDbSortentsTable
330
2B45
  0
XRECORD
  5
2C0C
102
{ACAD_REACTORS
330
236E
102
}
330
236E
100
AcDbXrecord
280
     1
 40
420759.0
  1
{\LDETAL 11a\P}Sposób (alternatywny) zamocowania\Pstolarki w ścianie z dociepleniem
  0
DICTIONARY
  5
236F
102
{ACAD_REACTORS
330
236E
102
}
330
236E
100
AcDbDictionary
281
     1
  3
ACDB_ANNOTATIONSCALES
350
2370
  0
XRECORD
  5
2C0E
102
{ACAD_REACTORS
330
2C0D
102
}
330
2C0D
100
AcDbXrecord
280
     1
 40
25446.0
  1
Wieniec żelbetowy
  0
XRECORD
  5
2C10
102
{ACAD_REACTORS
330
2C0F
102
}
330
2C0F
100
AcDbXrecord
280
     1
 40
34960.0
  1
Warstwa wykończeniowa
  0
XRECORD
  5
2C12
102
{ACAD_REACTORS
330
2C11
102
}
330
2C11
100
AcDbXrecord
280
     1
 40
42625.0
  1
Płyty izolacyjne twarde
  0
XRECORD
  5
2AA1
102
{ACAD_REACTORS
330
2AA0
102
}
330
2AA0
100
AcDbXrecord
280
     1
 40
24757.0
  1
\pxqc;B\P(5 : 1)
  0
XRECORD
  5
2C14
102
{ACAD_REACTORS
330
2C13
102
}
330
2C13
100
AcDbXrecord
280
     1
 40
16792.0
  1
Nadproża SOLBET
  0
XRECORD
  5
2C16
102
{ACAD_REACTORS
330
2C15
102
}
330
2C15
100
AcDbXrecord
280
     1
 40
34304.0
  1
Tynk zewnętrzny SOLBET 
  0
XRECORD
  5
2C18
102
{ACAD_REACTORS
330
2C17
102
}
330
2C17
100
AcDbXrecord
280
     1
 40
124059.0
  1
Siatka z klejem SOLBET Gabit T\Pjeżeli wymagane
  0
XRECORD
  5
2C1A
102
{ACAD_REACTORS
330
2C19
102
}
330
2C19
100
AcDbXrecord
280
     1
 40
33358.0
  1
Tynk wewnętrzny SOLBET
  0
XRECORD
  5
2AA3
102
{ACAD_REACTORS
330
2AA2
102
}
330
2AA2
100
AcDbXrecord
280
     1
 40
24693.0
  1
\pxqc;A\P(5 : 1)
  0
XRECORD
  5
2C1C
102
{ACAD_REACTORS
330
2C1B
102
}
330
2C1B
100
AcDbXrecord
280
     1
 40
32022.0
  1
Pianka uszczelniająca
  0
XRECORD
  5
2C1E
102
{ACAD_REACTORS
330
2C1D
102
}
330
2C1D
100
AcDbXrecord
280
     1
 40
41683.0
  1
Płaskownik mocujący
  0
XRECORD
  5
2C20
102
{ACAD_REACTORS
330
2C1F
102
}
330
2C1F
100
AcDbXrecord
280
     1
 40
78345.0
  1
Taśma uszczelniająca butylowa
  0
XRECORD
  5
2C22
102
{ACAD_REACTORS
330
2C21
102
}
330
2C21
100
AcDbXrecord
280
     1
 40
40925.0
  1
Profil tynkarski narożny
  0
XRECORD
  5
2C24
102
{ACAD_REACTORS
330
2C23
102
}
330
2C23
100
AcDbXrecord
280
     1
 40
28566.0
  1
Uszczelnienie pianką
  0
XRECORD
  5
2C26
102
{ACAD_REACTORS
330
2C25
102
}
330
2C25
100
AcDbXrecord
280
     1
 40
42007.0
  1
Płaskownik kotwiący
  0
XRECORD
  5
2C28
102
{ACAD_REACTORS
330
2C27
102
}
330
2C27
100
AcDbXrecord
280
     1
 40
78345.0
  1
Taśma uszczelniająca butylowa
  0
XRECORD
  5
2BBD
102
{ACAD_REACTORS
330
2BBC
102
}
330
2BBC
100
AcDbXrecord
280
     1
 40
24748.0
  1
\pxqc;C\P(5 : 1)
  0
LAYOUT
  5
D3
102
{ACAD_XDICTIONARY
360
2C03
102
}
102
{ACAD_REACTORS
330
1A
102
}
330
1A
100
AcDbPlotSettings
  1

  2
C:\Documents and Settings\basas\Application Data\Autodesk\AutoCAD 2005\R16.1\enu\plotters\Default Windows System Printer.pc3
  4

  6

 40
0.0
 41
0.0
 42
0.0
 43
0.0
 44
0.0
 45
0.0
 46
0.0
 47
0.0
 48
0.0
 49
0.0
140
0.0
141
0.0
142
1.0
143
1.0
 70
   688
 72
     0
 73
     0
 74
     5
  7

 75
    16
147
1.0
148
0.0
149
0.0
100
AcDbLayout
  1
Arkusz1
 70
     1
 71
     1
 10
0.0
 20
0.0
 11
12.0
 21
9.0
 12
0.0
 22
0.0
 32
0.0
 14
0.0
 24
0.0
 34
0.0
 15
0.0
 25
0.0
 35
0.0
146
0.0
 13
0.0
 23
0.0
 33
0.0
 16
1.0
 26
0.0
 36
0.0
 17
0.0
 27
1.0
 37
0.0
 76
     0
330
D2
  0
LAYOUT
  5
D7
102
{ACAD_XDICTIONARY
360
2C05
102
}
102
{ACAD_REACTORS
330
1A
102
}
330
1A
100
AcDbPlotSettings
  1

  2
C:\Documents and Settings\basas\Application Data\Autodesk\AutoCAD 2005\R16.1\enu\plotters\Default Windows System Printer.pc3
  4

  6

 40
0.0
 41
0.0
 42
0.0
 43
0.0
 44
0.0
 45
0.0
 46
0.0
 47
0.0
 48
0.0
 49
0.0
140
0.0
141
0.0
142
1.0
143
1.0
 70
   688
 72
     0
 73
     0
 74
     5
  7

 75
    16
147
1.0
148
0.0
149
0.0
100
AcDbLayout
  1
Arkusz2
 70
     1
 71
     2
 10
0.0
 20
0.0
 11
12.0
 21
9.0
 12
0.0
 22
0.0
 32
0.0
 14
0.0
 24
0.0
 34
0.0
 15
0.0
 25
0.0
 35
0.0
146
0.0
 13
0.0
 23
0.0
 33
0.0
 16
1.0
 26
0.0
 36
0.0
 17
0.0
 27
1.0
 37
0.0
 76
     0
330
D6
  0
LAYOUT
  5
22
102
{ACAD_XDICTIONARY
360
2C00
102
}
102
{ACAD_REACTORS
330
1A
102
}
330
1A
100
AcDbPlotSettings
  1

  2
none_device
  4
Letter_(8.50_x_11.00_Inches)
  6

 40
6.349999904632568
 41
6.349999904632568
 42
6.350006103515625
 43
6.350006103515625
 44
215.8999938964844
 45
279.3999938964844
 46
11.54999923706054
 47
-13.65000009536743
 48
0.0
 49
0.0
140
210.0
141
297.0
142
1.0
143
1.0
 70
 11936
 72
     1
 73
     0
 74
     4
  7

 75
     0
147
0.9999999999999998
148
0.0
149
0.0
100
AcDbLayout
  1
Model
 70
     1
 71
     0
 10
0.0
 20
0.0
 11
12.0
 21
9.0
 12
0.0
 22
0.0
 32
0.0
 14
0.0
 24
0.0
 34
0.0
 15
0.0
 25
0.0
 35
0.0
146
0.0
 13
0.0
 23
0.0
 33
0.0
 16
1.0
 26
0.0
 36
0.0
 17
0.0
 27
1.0
 37
0.0
 76
     0
330
1F
331
EA
1001
ACAD_PSEXT
1000
Brak
1000
Brak
1000
Nie można zastosować.
1000
Arkusz nie zostanie wydrukowany dopóki nie wybrano konfiguracji plotera.
1070
     0
  0
MATERIAL
  5
ED
102
{ACAD_XDICTIONARY
360
2C09
102
}
102
{ACAD_REACTORS
330
6A
102
}
330
6A
100
AcDbMaterial
  1
ByBlock
 73
     2
 78
     2
172
     2
176
     2
270
     2
274
     2
  0
MATERIAL
  5
EC
102
{ACAD_XDICTIONARY
360
2C07
102
}
102
{ACAD_REACTORS
330
6A
102
}
330
6A
100
AcDbMaterial
  1
ByLayer
 73
     2
 78
     2
172
     2
176
     2
270
     2
274
     2
  0
MATERIAL
  5
EE
102
{ACAD_XDICTIONARY
360
173
102
}
102
{ACAD_REACTORS
330
6A
102
}
330
6A
100
AcDbMaterial
  1
Global
 73
     2
 43
0.0007999999797903
 43
0.0
 43
0.0
 43
0.0
 43
0.0
 43
0.0007999999797903
 43
0.0
 43
0.0
 43
0.0
 43
0.0
 43
1.0
 43
0.0
 43
0.0
 43
0.0
 43
0.0
 43
1.0
 78
     2
172
     2
 49
0.0007999999797903
 49
0.0
 49
0.0
 49
0.0
 49
0.0
 49
0.0007999999797903
 49
0.0
 49
0.0
 49
0.0
 49
0.0
 49
1.0
 49
0.0
 49
0.0
 49
0.0
 49
0.0
 49
1.0
176
     2
142
0.0007999999797903
142
0.0
142
0.0
142
0.0
142
0.0
142
0.0007999999797903
142
0.0
142
0.0
142
0.0
142
0.0
142
1.0
142
0.0
142
0.0
142
0.0
142
0.0
142
1.0
270
     2
144
0.0007999999797903
144
0.0
144
0.0
144
0.0
144
0.0
144
0.0007999999797903
144
0.0
144
0.0
144
0.0
144
0.0
144
1.0
144
0.0
144
0.0
144
0.0
144
0.0
144
1.0
274
     2
1001
ACAD
1070
    -1
1070
     3
1070
     0
1000

1071
        0
1070
     0
  0
ACAD_PROXY_OBJECT
  5
12E
102
{ACAD_REACTORS
330
12D
102
}
330
12D
100
AcDbProxyObject
 90
      499
 91
      508
 95
       23
 70
     0
 93
      618
310
40901902A4063FBFFFFFE0000000000000020400000000000020404254DD185B99185C99000000000000000104090140501A0000000000000410000000000000004102576400000000000003903F
340
14
340
0
340
11
340
0
 94
        0
1001
ACAD_MLEADERVER
1070
     2
1001
ACAD
1000
AcRTDxfName
1000
MLEADERSTYLE
1000
AcRTDxfName
1000
MLEADERSTYLE
  0
MLINESTYLE
  5
7E9
102
{ACAD_REACTORS
330
17
102
}
330
17
100
AcDbMlineStyle
  2
SOLBET_IZOLACJA
 70
   272
  3

 62
   256
 51
90.0
 52
90.0
 71
     2
 49
0.008
 62
   256
  6
BYLAYER
 49
-0.008
 62
   256
  6
BYLAYER
  0
MLINESTYLE
  5
18
102
{ACAD_REACTORS
330
17
102
}
330
17
100
AcDbMlineStyle
  2
STANDARD
 70
     0
  3

 62
   256
 51
90.0
 52
90.0
 71
     2
 49
0.5
 62
   256
  6
BYLAYER
 49
-0.5
 62
   256
  6
BYLAYER
  0
ACDBPLACEHOLDER
  5
F
102
{ACAD_REACTORS
330
E
102
}
330
E
  0
ACAD_PROXY_OBJECT
  5
10D
102
{ACAD_REACTORS
330
10C
102
}
330
10C
100
AcDbProxyObject
 90
      499
 91
      507
 95
       23
 70
     0
 93
       49
310
904313A31005FF
 94
        0
1001
ACAD
1000
AcRTDxfName
1000
SCALE
1000
AcRTDxfName
1000
SCALE
  0
ACAD_PROXY_OBJECT
  5
188
102
{ACAD_REACTORS
330
10C
102
}
330
10C
100
AcDbProxyObject
 90
      499
 91
      507
 95
       23
 70
     0
 93
      113
310
904313A3200400000000000000407F
 94
        0
1001
ACAD
1000
AcRTDxfName
1000
SCALE
1000
AcRTDxfName
1000
SCALE
  0
ACAD_PROXY_OBJECT
  5
189
102
{ACAD_REACTORS
330
10C
102
}
330
10C
100
AcDbProxyObject
 90
      499
 91
      507
 95
       23
 70
     0
 93
      113
310
904313A3400400000000000010407F
 94
        0
1001
ACAD
1000
AcRTDxfName
1000
SCALE
1000
AcRTDxfName
1000
SCALE
  0
ACAD_PROXY_OBJECT
  5
18A
102
{ACAD_REACTORS
330
10C
102
}
330
10C
100
AcDbProxyObject
 90
      499
 91
      507
 95
       23
 70
     0
 93
      113
310
904313A3500400000000000014407F
 94
        0
1001
ACAD
1000
AcRTDxfName
1000
SCALE
1000
AcRTDxfName
1000
SCALE
  0
ACAD_PROXY_OBJECT
  5
18B
102
{ACAD_REACTORS
330
10C
102
}
330
10C
100
AcDbProxyObject
 90
      499
 91
      507
 95
       23
 70
     0
 93
      113
310
904313A3800400000000000020407F
 94
        0
1001
ACAD
1000
AcRTDxfName
1000
SCALE
1000
AcRTDxfName
1000
SCALE
  0
ACAD_PROXY_OBJECT
  5
18C
102
{ACAD_REACTORS
330
10C
102
}
330
10C
100
AcDbProxyObject
 90
      499
 91
      507
 95
       23
 70
     0
 93
      121
310
905313A313000400000000000024407F
 94
        0
1001
ACAD
1000
AcRTDxfName
1000
SCALE
1000
AcRTDxfName
1000
SCALE
  0
ACAD_PROXY_OBJECT
  5
18D
102
{ACAD_REACTORS
330
10C
102
}
330
10C
100
AcDbProxyObject
 90
      499
 91
      507
 95
       23
 70
     0
 93
      121
310
905313A313600400000000000030407F
 94
        0
1001
ACAD
1000
AcRTDxfName
1000
SCALE
1000
AcRTDxfName
1000
SCALE
  0
ACAD_PROXY_OBJECT
  5
18E
102
{ACAD_REACTORS
330
10C
102
}
330
10C
100
AcDbProxyObject
 90
      499
 91
      507
 95
       23
 70
     0
 93
      121
310
905313A323000400000000000034407F
 94
        0
1001
ACAD
1000
AcRTDxfName
1000
SCALE
1000
AcRTDxfName
1000
SCALE
  0
ACAD_PROXY_OBJECT
  5
18F
102
{ACAD_REACTORS
330
10C
102
}
330
10C
100
AcDbProxyObject
 90
      499
 91
      507
 95
       23
 70
     0
 93
      121
310
905313A33300040000000000003E407F
 94
        0
1001
ACAD
1000
AcRTDxfName
1000
SCALE
1000
AcRTDxfName
1000
SCALE
  0
ACAD_PROXY_OBJECT
  5
190
102
{ACAD_REACTORS
330
10C
102
}
330
10C
100
AcDbProxyObject
 90
      499
 91
      507
 95
       23
 70
     0
 93
      121
310
905313A343000400000000000044407F
 94
        0
1001
ACAD
1000
AcRTDxfName
1000
SCALE
1000
AcRTDxfName
1000
SCALE
  0
ACAD_PROXY_OBJECT
  5
191
102
{ACAD_REACTORS
330
10C
102
}
330
10C
100
AcDbProxyObject
 90
      499
 91
      507
 95
       23
 70
     0
 93
      121
310
905313A353000400000000000049407F
 94
        0
1001
ACAD
1000
AcRTDxfName
1000
SCALE
1000
AcRTDxfName
1000
SCALE
  0
ACAD_PROXY_OBJECT
  5
192
102
{ACAD_REACTORS
330
10C
102
}
330
10C
100
AcDbProxyObject
 90
      499
 91
      507
 95
       23
 70
     0
 93
      129
310
906313A31303000400000000000059407F
 94
        0
1001
ACAD
1000
AcRTDxfName
1000
SCALE
1000
AcRTDxfName
1000
SCALE
  0
ACAD_PROXY_OBJECT
  5
193
102
{ACAD_REACTORS
330
10C
102
}
330
10C
100
AcDbProxyObject
 90
      499
 91
      507
 95
       23
 70
     0
 93
      113
310
904323A3100000000000000001017F
 94
        0
1001
ACAD
1000
AcRTDxfName
1000
SCALE
1000
AcRTDxfName
1000
SCALE
  0
ACAD_PROXY_OBJECT
  5
194
102
{ACAD_REACTORS
330
10C
102
}
330
10C
100
AcDbProxyObject
 90
      499
 91
      507
 95
       23
 70
     0
 93
      113
310
904343A3100000000000000041017F
 94
        0
1001
ACAD
1000
AcRTDxfName
1000
SCALE
1000
AcRTDxfName
1000
SCALE
  0
ACAD_PROXY_OBJECT
  5
195
102
{ACAD_REACTORS
330
10C
102
}
330
10C
100
AcDbProxyObject
 90
      499
 91
      507
 95
       23
 70
     0
 93
      113
310
904383A3100000000000000081017F
 94
        0
1001
ACAD
1000
AcRTDxfName
1000
SCALE
1000
AcRTDxfName
1000
SCALE
  0
ACAD_PROXY_OBJECT
  5
196
102
{ACAD_REACTORS
330
10C
102
}
330
10C
100
AcDbProxyObject
 90
      499
 91
      507
 95
       23
 70
     0
 93
      121
310
90531303A3100000000000000091017F
 94
        0
1001
ACAD
1000
AcRTDxfName
1000
SCALE
1000
AcRTDxfName
1000
SCALE
  0
ACAD_PROXY_OBJECT
  5
197
102
{ACAD_REACTORS
330
10C
102
}
330
10C
100
AcDbProxyObject
 90
      499
 91
      507
 95
       23
 70
     0
 93
      129
310
9063130303A3100000000000000165017F
 94
        0
1001
ACAD
1000
AcRTDxfName
1000
SCALE
1000
AcRTDxfName
1000
SCALE
  0
ACAD_PROXY_OBJECT
  5
198
102
{ACAD_REACTORS
330
10C
102
}
330
10C
100
AcDbProxyObject
 90
      499
 91
      507
 95
       23
 70
     0
 93
      265
310
90F312F31323822203D2031272D302200000000000000200FC00000000000028407F
 94
        0
1001
ACAD
1000
AcRTDxfName
1000
SCALE
1000
AcRTDxfName
1000
SCALE
  0
ACAD_PROXY_OBJECT
  5
199
102
{ACAD_REACTORS
330
10C
102
}
330
10C
100
AcDbProxyObject
 90
      499
 91
      507
 95
       23
 70
     0
 93
      257
310
90E312F363422203D2031272D302200000000000000240FC00000000000028407F
 94
        0
1001
ACAD
1000
AcRTDxfName
1000
SCALE
1000
AcRTDxfName
1000
SCALE
  0
ACAD_PROXY_OBJECT
  5
19A
102
{ACAD_REACTORS
330
10C
102
}
330
10C
100
AcDbProxyObject
 90
      499
 91
      507
 95
       23
 70
     0
 93
      257
310
90E312F333222203D2031272D302200000000000000280FC00000000000028407F
 94
        0
1001
ACAD
1000
AcRTDxfName
1000
SCALE
1000
AcRTDxfName
1000
SCALE
  0
ACAD_PROXY_OBJECT
  5
19B
102
{ACAD_REACTORS
330
10C
102
}
330
10C
100
AcDbProxyObject
 90
      499
 91
      507
 95
       23
 70
     0
 93
      257
310
90E312F313622203D2031272D3022000000000000002C0FC00000000000028407F
 94
        0
1001
ACAD
1000
AcRTDxfName
1000
SCALE
1000
AcRTDxfName
1000
SCALE
  0
ACAD_PROXY_OBJECT
  5
19C
102
{ACAD_REACTORS
330
10C
102
}
330
10C
100
AcDbProxyObject
 90
      499
 91
      507
 95
       23
 70
     0
 93
      257
310
90E332F333222203D2031272D3022000000000000002E0FC00000000000028407F
 94
        0
1001
ACAD
1000
AcRTDxfName
1000
SCALE
1000
AcRTDxfName
1000
SCALE
  0
ACAD_PROXY_OBJECT
  5
19D
102
{ACAD_REACTORS
330
10C
102
}
330
10C
100
AcDbProxyObject
 90
      499
 91
      507
 95
       23
 70
     0
 93
      249
310
90D312F3822203D2031272D302200000000000000300FC00000000000028407F
 94
        0
1001
ACAD
1000
AcRTDxfName
1000
SCALE
1000
AcRTDxfName
1000
SCALE
  0
ACAD_PROXY_OBJECT
  5
19E
102
{ACAD_REACTORS
330
10C
102
}
330
10C
100
AcDbProxyObject
 90
      499
 91
      507
 95
       23
 70
     0
 93
      257
310
90E332F313622203D2031272D302200000000000000320FC00000000000028407F
 94
        0
1001
ACAD
1000
AcRTDxfName
1000
SCALE
1000
AcRTDxfName
1000
SCALE
  0
ACAD_PROXY_OBJECT
  5
19F
102
{ACAD_REACTORS
330
10C
102
}
330
10C
100
AcDbProxyObject
 90
      499
 91
      507
 95
       23
 70
     0
 93
      249
310
90D312F3422203D2031272D302200000000000000340FC00000000000028407F
 94
        0
1001
ACAD
1000
AcRTDxfName
1000
SCALE
1000
AcRTDxfName
1000
SCALE
  0
ACAD_PROXY_OBJECT
  5
1A0
102
{ACAD_REACTORS
330
10C
102
}
330
10C
100
AcDbProxyObject
 90
      499
 91
      507
 95
       23
 70
     0
 93
      249
310
90D332F3822203D2031272D302200000000000000360FC00000000000028407F
 94
        0
1001
ACAD
1000
AcRTDxfName
1000
SCALE
1000
AcRTDxfName
1000
SCALE
  0
ACAD_PROXY_OBJECT
  5
1A1
102
{ACAD_REACTORS
330
10C
102
}
330
10C
100
AcDbProxyObject
 90
      499
 91
      507
 95
       23
 70
     0
 93
      249
310
90D312F3222203D2031272D302200000000000000380FC00000000000028407F
 94
        0
1001
ACAD
1000
AcRTDxfName
1000
SCALE
1000
AcRTDxfName
1000
SCALE
  0
ACAD_PROXY_OBJECT
  5
1A2
102
{ACAD_REACTORS
330
10C
102
}
330
10C
100
AcDbProxyObject
 90
      499
 91
      507
 95
       23
 70
     0
 93
      249
310
90D332F3422203D2031272D3022000000000000003A0FC00000000000028407F
 94
        0
1001
ACAD
1000
AcRTDxfName
1000
SCALE
1000
AcRTDxfName
1000
SCALE
  0
ACAD_PROXY_OBJECT
  5
1A3
102
{ACAD_REACTORS
330
10C
102
}
330
10C
100
AcDbProxyObject
 90
      499
 91
      507
 95
       23
 70
     0
 93
      169
310
90B3122203D2031272D302200400000000000028407F
 94
        0
1001
ACAD
1000
AcRTDxfName
1000
SCALE
1000
AcRTDxfName
1000
SCALE
  0
ACAD_PROXY_OBJECT
  5
1A4
102
{ACAD_REACTORS
330
10C
102
}
330
10C
100
AcDbProxyObject
 90
      499
 91
      507
 95
       23
 70
     0
 93
      265
310
90F312D312F3222203D2031272D3022000000000000003E0FC00000000000028407F
 94
        0
1001
ACAD
1000
AcRTDxfName
1000
SCALE
1000
AcRTDxfName
1000
SCALE
  0
ACAD_PROXY_OBJECT
  5
1A5
102
{ACAD_REACTORS
330
10C
102
}
330
10C
100
AcDbProxyObject
 90
      499
 91
      507
 95
       23
 70
     0
 93
      233
310
90B3322203D2031272D3022000000000000000210000000000000028407F
 94
        0
1001
ACAD
1000
AcRTDxfName
1000
SCALE
1000
AcRTDxfName
1000
SCALE
  0
ACAD_PROXY_OBJECT
  5
1A6
102
{ACAD_REACTORS
330
10C
102
}
330
10C
100
AcDbProxyObject
 90
      499
 91
      507
 95
       23
 70
     0
 93
      233
310
90B3622203D2031272D3022000000000000000610000000000000028407F
 94
        0
1001
ACAD
1000
AcRTDxfName
1000
SCALE
1000
AcRTDxfName
1000
SCALE
  0
ACAD_PROXY_OBJECT
  5
1A7
102
{ACAD_REACTORS
330
10C
102
}
330
10C
100
AcDbProxyObject
 90
      499
 91
      507
 95
       23
 70
     0
 93
      257
310
90E31272D3022203D2031272D3022000000000000000A10000000000000028407F
 94
        0
1001
ACAD
1000
AcRTDxfName
1000
SCALE
1000
AcRTDxfName
1000
SCALE
  0
TABLESTYLE
  5
7F
102
{ACAD_XDICTIONARY
360
162
102
}
102
{ACAD_REACTORS
330
7E
102
}
330
7E
100
AcDbTableStyle
  3
Standard
 70
     0
 71
     0
 40
1.5
 41
1.5
280
     0
281
     0
  7
Standard
140
4.5
170
     2
 62
     0
 63
     7
283
     0
274
    -2
284
     1
 64
     0
275
    -2
285
     1
 65
     0
276
    -2
286
     1
 66
     0
277
    -2
287
     1
 67
     0
278
    -2
288
     1
 68
     0
279
    -2
289
     1
 69
     0
  7
Standard
140
6.0
170
     5
 62
     0
 63
     7
283
     0
274
    -2
284
     1
 64
     0
275
    -2
285
     1
 65
     0
276
    -2
286
     1
 66
     0
277
    -2
287
     1
 67
     0
278
    -2
288
     1
 68
     0
279
    -2
289
     1
 69
     0
  7
Standard
140
4.5
170
     5
 62
     0
 63
     7
283
     0
274
    -2
284
     1
 64
     0
275
    -2
285
     1
 65
     0
276
    -2
286
     1
 66
     0
277
    -2
287
     1
 67
     0
278
    -2
288
     1
 68
     0
279
    -2
289
     1
 69
     0
  0
VISUALSTYLE
  5
F5
102
{ACAD_REACTORS
330
EF
102
}
330
EF
100
AcDbVisualStyle
  2
2dWireframe
 70
     4
 71
     0
 72
     2
 73
     1
 90
        0
 40
-0.6
 41
-30.0
 62
     5
 63
     7
 74
     1
 91
        4
 64
     7
 65
   257
 75
     1
175
     1
 42
1.0
 92
        0
 66
   257
 43
1.0
 76
     1
 77
     6
 78
     2
 67
     7
 79
     5
170
     0
171
     0
290
     0
174
     0
 93
        1
 44
0.0
173
     0
291
     0
 45
0.0
1001
ACAD
1000
AcDbSavedByObjectVersion
1070
     0
  0
VISUALSTYLE
  5
F7
102
{ACAD_REACTORS
330
EF
102
}
330
EF
100
AcDbVisualStyle
  2
3D Hidden
 70
     6
 71
     1
 72
     2
 73
     2
 90
        0
 40
-0.6
 41
-30.0
 62
     5
 63
     7
 74
     2
 91
        2
 64
     7
 65
   257
 75
     2
175
     1
 42
40.0
 92
        0
 66
   257
 43
1.0
 76
     1
 77
     6
 78
     2
 67
     7
 79
     3
170
     0
171
     0
290
     0
174
     0
 93
        1
 44
0.0
173
     0
291
     0
 45
0.0
1001
ACAD
1000
AcDbSavedByObjectVersion
1070
     0
  0
VISUALSTYLE
  5
F6
102
{ACAD_REACTORS
330
EF
102
}
330
EF
100
AcDbVisualStyle
  2
3dWireframe
 70
     5
 71
     0
 72
     2
 73
     1
 90
        0
 40
-0.6
 41
-30.0
 62
     5
 63
     7
 74
     1
 91
        4
 64
     7
 65
   257
 75
     1
175
     1
 42
1.0
 92
        0
 66
   257
 43
1.0
 76
     1
 77
     6
 78
     2
 67
     7
 79
     5
170
     0
171
     0
290
     0
174
     0
 93
        1
 44
0.0
173
     0
291
     0
 45
0.0
1001
ACAD
1000
AcDbSavedByObjectVersion
1070
     0
  0
VISUALSTYLE
  5
F4
102
{ACAD_REACTORS
330
EF
102
}
330
EF
100
AcDbVisualStyle
  2
Basic
 70
     7
 71
     1
 72
     0
 73
     1
 90
        0
 40
-0.6
 41
-30.0
 62
     5
 63
     7
 74
     0
 91
        4
 64
     7
 65
   257
 75
     1
175
     1
 42
1.0
 92
        8
 66
     7
 43
1.0
 76
     1
 77
     6
 78
     2
 67
     7
 79
     5
170
     0
171
     0
290
     0
174
     0
 93
        1
 44
0.0
173
     0
291
     1
 45
0.0
1001
ACAD
1000
AcDbSavedByObjectVersion
1070
     0
  0
VISUALSTYLE
  5
FB
102
{ACAD_REACTORS
330
EF
102
}
330
EF
100
AcDbVisualStyle
  2
Brighten
 70
    12
 71
     2
 72
     2
 73
     1
 90
        0
 40
-0.6
 41
-30.0
 62
     5
 63
     7
 74
     1
 91
        4
 64
     7
 65
   257
 75
     1
175
     1
 42
1.0
 92
        8
 66
     7
 43
1.0
 76
     1
 77
     6
 78
     2
 67
     7
 79
     5
170
     0
171
     0
290
     0
174
     0
 93
        1
 44
50.0
173
     0
291
     1
 45
0.0
1001
ACAD
1000
AcDbSavedByObjectVersion
1070
     0
  0
VISUALSTYLE
  5
FF
102
{ACAD_REACTORS
330
EF
102
}
330
EF
100
AcDbVisualStyle
  2
ColorChange
 70
    16
 71
     2
 72
     2
 73
     3
 90
        0
 40
-0.6
 41
-30.0
 62
     5
 63
     8
 74
     1
 91
        4
 64
     7
 65
   257
 75
     1
175
     1
 42
1.0
 92
        8
 66
     8
 43
1.0
 76
     1
 77
     6
 78
     2
 67
     7
 79
     5
170
     0
171
     0
290
     0
174
     0
 93
        1
 44
0.0
173
     0
291
     1
 45
0.0
1001
ACAD
1000
AcDbSavedByObjectVersion
1070
     0
  0
VISUALSTYLE
  5
F8
102
{ACAD_REACTORS
330
EF
102
}
330
EF
100
AcDbVisualStyle
  2
Conceptual
 70
     9
 71
     3
 72
     2
 73
     1
 90
        0
 40
-0.6
 41
-30.0
 62
     5
 63
     7
 74
     2
 91
        2
 64
     7
 65
   257
 75
     1
175
     1
 42
40.0
 92
        8
 66
     7
 43
1.0
 76
     1
 77
     6
 78
     2
 67
     7
 79
     3
170
     0
171
     0
290
     0
174
     0
 93
        1
 44
0.0
173
     0
291
     0
 45
0.0
1001
ACAD
1000
AcDbSavedByObjectVersion
1070
     0
  0
VISUALSTYLE
  5
FA
102
{ACAD_REACTORS
330
EF
102
}
330
EF
100
AcDbVisualStyle
  2
Dim
 70
    11
 71
     2
 72
     2
 73
     1
 90
        0
 40
-0.6
 41
-30.0
 62
     5
 63
     7
 74
     1
 91
        4
 64
     7
 65
   257
 75
     1
175
     1
 42
1.0
 92
        8
 66
     7
 43
1.0
 76
     1
 77
     6
 78
     2
 67
     7
 79
     5
170
     0
171
     0
290
     0
174
     0
 93
        1
 44
-50.0
173
     0
291
     1
 45
0.0
1001
ACAD
1000
AcDbSavedByObjectVersion
1070
     0
  0
VISUALSTYLE
  5
FE
102
{ACAD_REACTORS
330
EF
102
}
330
EF
100
AcDbVisualStyle
  2
Facepattern
 70
    15
 71
     2
 72
     2
 73
     1
 90
        0
 40
-0.6
 41
-30.0
 62
     5
 63
     7
 74
     1
 91
        4
 64
     7
 65
   257
 75
     1
175
     1
 42
1.0
 92
        8
 66
     7
 43
1.0
 76
     1
 77
     6
 78
     2
 67
     7
 79
     5
170
     0
171
     0
290
     0
174
     0
 93
        1
 44
0.0
173
     0
291
     1
 45
0.0
1001
ACAD
1000
AcDbSavedByObjectVersion
1070
     0
  0
VISUALSTYLE
  5
F0
102
{ACAD_REACTORS
330
EF
102
}
330
EF
100
AcDbVisualStyle
  2
Flat
 70
     0
 71
     2
 72
     1
 73
     1
 90
        2
 40
-0.6
 41
30.0
 62
     5
 63
     7
 74
     0
 91
        4
 64
     7
 65
   257
 75
     1
175
     1
 42
1.0
 92
        8
 66
     7
 43
1.0
 76
     1
 77
     6
 78
     2
 67
     7
 79
     5
170
     0
171
     0
290
     0
174
     0
 93
        1
 44
0.0
173
     0
291
     1
 45
0.0
1001
ACAD
1000
AcDbSavedByObjectVersion
1070
     0
  0
VISUALSTYLE
  5
F1
102
{ACAD_REACTORS
330
EF
102
}
330
EF
100
AcDbVisualStyle
  2
FlatWithEdges
 70
     1
 71
     2
 72
     1
 73
     1
 90
        2
 40
-0.6
 41
30.0
 62
     5
 63
     7
 74
     1
 91
        4
 64
     7
 65
   257
 75
     1
175
     1
 42
1.0
 92
        0
 66
   257
 43
1.0
 76
     1
 77
     6
 78
     2
 67
     7
 79
     5
170
     0
171
     0
290
     0
174
     0
 93
        1
 44
0.0
173
     0
291
     1
 45
0.0
1001
ACAD
1000
AcDbSavedByObjectVersion
1070
     0
  0
VISUALSTYLE
  5
F2
102
{ACAD_REACTORS
330
EF
102
}
330
EF
100
AcDbVisualStyle
  2
Gouraud
 70
     2
 71
     2
 72
     2
 73
     1
 90
        2
 40
-0.6
 41
30.0
 62
     5
 63
     7
 74
     0
 91
        4
 64
     7
 65
   257
 75
     1
175
     1
 42
1.0
 92
        0
 66
     7
 43
1.0
 76
     1
 77
     6
 78
     2
 67
     7
 79
     5
170
     0
171
     0
290
     0
174
     0
 93
        1
 44
0.0
173
     0
291
     1
 45
0.0
1001
ACAD
1000
AcDbSavedByObjectVersion
1070
     0
  0
VISUALSTYLE
  5
F3
102
{ACAD_REACTORS
330
EF
102
}
330
EF
100
AcDbVisualStyle
  2
GouraudWithEdges
 70
     3
 71
     2
 72
     2
 73
     1
 90
        2
 40
-0.6
 41
30.0
 62
     5
 63
     7
 74
     1
 91
        4
 64
     7
 65
   257
 75
     1
175
     1
 42
1.0
 92
        0
 66
   257
 43
1.0
 76
     1
 77
     6
 78
     2
 67
     7
 79
     5
170
     0
171
     0
290
     0
174
     0
 93
        1
 44
0.0
173
     0
291
     1
 45
0.0
1001
ACAD
1000
AcDbSavedByObjectVersion
1070
     0
  0
VISUALSTYLE
  5
FD
102
{ACAD_REACTORS
330
EF
102
}
330
EF
100
AcDbVisualStyle
  2
Linepattern
 70
    14
 71
     2
 72
     2
 73
     1
 90
        0
 40
-0.6
 41
-30.0
 62
     5
 63
     7
 74
     1
 91
        4
 64
     7
 65
   257
 75
     7
175
     7
 42
1.0
 92
        8
 66
     7
 43
1.0
 76
     1
 77
     6
 78
     2
 67
     7
 79
     5
170
     0
171
     0
290
     0
174
     0
 93
        1
 44
0.0
173
     0
291
     1
 45
0.0
1001
ACAD
1000
AcDbSavedByObjectVersion
1070
     0
  0
VISUALSTYLE
  5
F9
102
{ACAD_REACTORS
330
EF
102
}
330
EF
100
AcDbVisualStyle
  2
Realistic
 70
     8
 71
     2
 72
     2
 73
     1
 90
        0
 40
-0.6
 41
-30.0
 62
     5
 63
     7
 74
     1
 91
        0
 64
     7
 65
   257
 75
     1
175
     1
 42
1.0
 92
        8
 66
     8
 43
1.0
 76
     1
 77
     6
 78
     2
 67
     7
 79
     5
170
     0
171
     0
290
     0
174
     0
 93
       13
 44
0.0
173
     0
291
     0
 45
0.0
1001
ACAD
1000
AcDbSavedByObjectVersion
1070
     0
  0
VISUALSTYLE
  5
FC
102
{ACAD_REACTORS
330
EF
102
}
330
EF
100
AcDbVisualStyle
  2
Thicken
 70
    13
 71
     2
 72
     2
 73
     1
 90
        0
 40
-0.6
 41
-30.0
 62
     5
 63
     7
 74
     1
 91
        4
 64
     7
 65
   257
 75
     1
175
     1
 42
1.0
 92
       12
 66
     7
 43
1.0
 76
     1
 77
     6
 78
     2
 67
     7
 79
     5
170
     0
171
     0
290
     0
174
     0
 93
        1
 44
0.0
173
     0
291
     1
 45
0.0
1001
ACAD
1000
AcDbSavedByObjectVersion
1070
     0
  0
DICTIONARYVAR
  5
146
102
{ACAD_REACTORS
330
5E
102
}
330
5E
100
DictionaryVariables
280
     0
  1
1:1
  0
DICTIONARYVAR
  5
145
102
{ACAD_REACTORS
330
5E
102
}
330
5E
100
DictionaryVariables
280
     0
  1
STANDARD
  0
DICTIONARYVAR
  5
84
102
{ACAD_REACTORS
330
5E
102
}
330
5E
100
DictionaryVariables
280
     0
  1
STANDARD
  0
DICTIONARYVAR
  5
5F
102
{ACAD_REACTORS
330
5E
102
}
330
5E
100
DictionaryVariables
280
     0
  1
2
  0
DICTIONARYVAR
  5
63
102
{ACAD_REACTORS
330
5E
102
}
330
5E
100
DictionaryVariables
280
     0
  1
1
  0
DICTIONARYVAR
  5
466
102
{ACAD_REACTORS
330
5E
102
}
330
5E
100
DictionaryVariables
280
     0
  1
0
  0
DICTIONARYVAR
  5
464
102
{ACAD_REACTORS
330
5E
102
}
330
5E
100
DictionaryVariables
280
     0
  1
2
  0
DICTIONARYVAR
  5
463
102
{ACAD_REACTORS
330
5E
102
}
330
5E
100
DictionaryVariables
280
     0
  1
1
  0
DICTIONARYVAR
  5
2BFE
102
{ACAD_REACTORS
330
5E
102
}
330
5E
100
DictionaryVariables
280
     0
  1
80.000000
  0
DICTIONARYVAR
  5
2BFD
102
{ACAD_REACTORS
330
5E
102
}
330
5E
100
DictionaryVariables
280
     0
  1
5.000000
  0
DICTIONARYVAR
  5
465
102
{ACAD_REACTORS
330
5E
102
}
330
5E
100
DictionaryVariables
280
     0
  1
127
  0
DICTIONARY
  5
2370
102
{ACAD_REACTORS
330
236F
102
}
330
236F
100
AcDbDictionary
281
     1
  0
DICTIONARY
  5
2C03
330
D3
100
AcDbDictionary
280
     1
281
     1
  3
ACAD_XREC_ROUNDTRIP
360
2C04
  0
DICTIONARY
  5
2C05
330
D7
100
AcDbDictionary
280
     1
281
     1
  3
ACAD_XREC_ROUNDTRIP
360
2C06
  0
DICTIONARY
  5
2C00
330
22
100
AcDbDictionary
280
     1
281
     1
  3
ACAD_XREC_ROUNDTRIP
360
2C01
  0
DICTIONARY
  5
2C09
330
ED
100
AcDbDictionary
280
     1
281
     1
  3
ACAD_XREC_ROUNDTRIP
360
2C0A
  0
DICTIONARY
  5
2C07
330
EC
100
AcDbDictionary
280
     1
281
     1
  3
ACAD_XREC_ROUNDTRIP
360
2C08
  0
DICTIONARY
  5
173
330
EE
100
AcDbDictionary
280
     1
281
     1
  3
ACAD_XREC_ROUNDTRIP
360
2C0B
  3
BUMPTILE
360
175
  3
DIFFUSETILE
360
174
  3
OPACITYTILE
360
176
  3
REFLECTIONTILE
360
177
  0
DICTIONARY
  5
162
330
7F
100
AcDbDictionary
280
     1
281
     1
  3
ACAD_ROUNDTRIP_2008_TABLESTYLE_CELLSTYLEMAP
360
2A9C
  3
ACAD_XREC_ROUNDTRIP
360
2C02
  0
XRECORD
  5
2C04
102
{ACAD_REACTORS
330
2C03
102
}
330
2C03
100
AcDbXrecord
280
     1
102
SHADEPLOT
 70
     0
102
SHADEPLOTRESLEVEL
 70
     2
102
SHADEPLOTCUSTOMDPI
 70
   300
  0
XRECORD
  5
2C06
102
{ACAD_REACTORS
330
2C05
102
}
330
2C05
100
AcDbXrecord
280
     1
102
SHADEPLOT
 70
     0
102
SHADEPLOTRESLEVEL
 70
     2
102
SHADEPLOTCUSTOMDPI
 70
   300
  0
XRECORD
  5
2C01
102
{ACAD_REACTORS
330
2C00
102
}
330
2C00
100
AcDbXrecord
280
     1
102
SHADEPLOT
 70
     0
102
SHADEPLOTRESLEVEL
 70
     2
102
SHADEPLOTCUSTOMDPI
 70
   300
  0
XRECORD
  5
2C0A
102
{ACAD_REACTORS
330
2C09
102
}
330
2C09
100
AcDbXrecord
280
     1
102
MATERIAL
148
0.0
149
0.0
149
0.0
 93
        0
 94
       63
282
     0
 72
     1
 77
     1
171
     1
175
     1
179
     1
273
     0
  0
XRECORD
  5
2C08
102
{ACAD_REACTORS
330
2C07
102
}
330
2C07
100
AcDbXrecord
280
     1
102
MATERIAL
148
0.0
149
0.0
149
0.0
 93
        0
 94
       63
282
     0
 72
     1
 77
     1
171
     1
175
     1
179
     1
273
     0
  0
XRECORD
  5
2C0B
102
{ACAD_REACTORS
330
173
102
}
330
173
100
AcDbXrecord
280
     1
102
MATERIAL
148
0.0
149
0.0
149
0.0
 93
        0
 94
       63
282
     0
 72
     1
 77
     1
171
     1
175
     1
179
     1
273
     0
  0
XRECORD
  5
175
102
{ACAD_REACTORS
330
173
102
}
330
173
100
AcDbXrecord
280
     1
270
     1
271
     1
  0
XRECORD
  5
174
102
{ACAD_REACTORS
330
173
102
}
330
173
100
AcDbXrecord
280
     1
270
     1
271
     1
  0
XRECORD
  5
176
102
{ACAD_REACTORS
330
173
102
}
330
173
100
AcDbXrecord
280
     1
270
     1
271
     1
  0
XRECORD
  5
177
102
{ACAD_REACTORS
330
173
102
}
330
173
100
AcDbXrecord
280
     1
270
     1
271
     1
  0
ACAD_PROXY_OBJECT
  5
2A9C
102
{ACAD_REACTORS
330
162
102
}
330
162
100
AcDbProxyObject
 90
      499
 91
      509
 95
       23
 70
     0
 93
     5304
310
40D054060020000020000003200101A000080002A5058000000C10000000000000006101010000000000003E0FC000000000000F83F0000000000003E0FC000000000000F83F02B5E8DC0F42B1CFC0AD7A3703D0AC73F419019018000000C1003FBFFFFFE0000000000003C8FD029018000000C1003FBFFFFFE00000000000
310
03C8FD049018000000C1003FBFFFFFE0000000000003C8FD089018000000C1003FBFFFFFE0000000000003C8FD109018000000C1003FBFFFFFE0000000000003C8FD209018000000C1003FBFFFFFE0000000000003C8FD01405075F5449544C450041501A8000000C800406800020000A94160000003040000000000000012
310
40404000000000000F83F0000000000003E0FC000000000000F83F0000000000003E0FC0AD7A3703D0AC73F02B5E8DC0F42B1CFD0640640600000030400FEFFFFFF8000000000000F23F40A40600000030400FEFFFFFF8000000000000F23F41240600000030400FEFFFFFF8000000000000F23F42240600000030400FEFFF
310
FFF8000000000000F23F44240600000030400FEFFFFFF8000000000000F23F48240600000030400FEFFFFFF8000000000000F23F409014217D2115051115480105406A0000003200101A000080002A5028000000C10000000000000004901010000000000003E0FC000000000000F83F0000000000003E0FC000000000000F
310
83F02B5E8DC0F42B1CFC0AD7A3703D0AC73F419019018000000C1003FBFFFFFE0000000000003C8FD029018000000C1003FBFFFFFE0000000000003C8FD049018000000C1003FBFFFFFE0000000000003C8FD089018000000C1003FBFFFFFE0000000000003C8FD109018000000C1003FBFFFFFE0000000000003C8FD20901
310
8000000C1003FBFFFFFE0000000000003C8FD03409065F444154410000
340
11
340
14
340
14
340
14
340
14
340
14
340
14
340
11
340
14
340
14
340
14
340
14
340
14
340
14
340
11
340
14
340
14
340
14
340
14
340
14
340
14
 94
        0
1001
ACAD
1000
AcRTDxfName
1000
CELLSTYLEMAP
1000
AcRTDxfName
1000
CELLSTYLEMAP
  0
XRECORD
  5
2C02
102
{ACAD_REACTORS
330
162
102
}
330
162
100
AcDbXrecord
280
     1
102
ACAD_ROUNDTRIP_PRE2007_TABLESTYLE
 90
      512
 91
        0
  1

 92
      512
 93
        0
  2

 94
      512
 95
        0
  3

  0
ENDSEC
  0
EOF
