  0
SECTION
  2
HEADER
  9
$ACADVER
  1
AC1015
  9
$ACADMAINTVER
 70
    20
  9
$DWGCODEPAGE
  3
ANSI_1250
  9
$INSBASE
 10
0.0
 20
0.0
 30
0.0
  9
$EXTMIN
 10
0.0745645486254034
 20
0.0132175531134635
 30
-0.0000000000112498
  9
$EXTMAX
 10
334.4365397558855
 20
297.0222790609033
 30
0.0000000000002956
  9
$LIMMIN
 10
0.0796627706477011
 20
0.0177462323606506
  9
$LIMMAX
 10
334.4314368627376
 20
297.0177462323606
  9
$ORTHOMODE
 70
     0
  9
$REGENMODE
 70
     1
  9
$FILLMODE
 70
     1
  9
$QTEXTMODE
 70
     0
  9
$MIRRTEXT
 70
     0
  9
$LTSCALE
 40
1.0
  9
$ATTMODE
 70
     2
  9
$TEXTSIZE
 40
5.0
  9
$TRACEWID
 40
1.0
  9
$TEXTSTYLE
  7
Solbet_5
  9
$CLAYER
  8
SOLBET_Bloczki
  9
$CELTYPE
  6
ByLayer
  9
$CECOLOR
 62
   256
  9
$CELTSCALE
 40
1.0
  9
$DISPSILH
 70
     0
  9
$DIMSCALE
 40
1.0
  9
$DIMASZ
 40
2.5
  9
$DIMEXO
 40
0.0
  9
$DIMDLI
 40
3.75
  9
$DIMRND
 40
0.0
  9
$DIMDLE
 40
0.0
  9
$DIMEXE
 40
1.25
  9
$DIMTP
 40
0.0
  9
$DIMTM
 40
0.0
  9
$DIMTXT
 40
2.5
  9
$DIMCEN
 40
2.5
  9
$DIMTSZ
 40
0.0
  9
$DIMTOL
 70
     0
  9
$DIMLIM
 70
     0
  9
$DIMTIH
 70
     0
  9
$DIMTOH
 70
     0
  9
$DIMSE1
 70
     0
  9
$DIMSE2
 70
     0
  9
$DIMTAD
 70
     1
  9
$DIMZIN
 70
     8
  9
$DIMBLK
  1

  9
$DIMASO
 70
     1
  9
$DIMSHO
 70
     1
  9
$DIMPOST
  1

  9
$DIMAPOST
  1

  9
$DIMALT
 70
     0
  9
$DIMALTD
 70
     3
  9
$DIMALTF
 40
0.03937007874016
  9
$DIMLFAC
 40
1.0
  9
$DIMTOFL
 70
     1
  9
$DIMTVP
 40
0.0
  9
$DIMTIX
 70
     0
  9
$DIMSOXD
 70
     0
  9
$DIMSAH
 70
     0
  9
$DIMBLK1
  1

  9
$DIMBLK2
  1

  9
$DIMSTYLE
  2
Solbet
  9
$DIMCLRD
 70
     0
  9
$DIMCLRE
 70
     0
  9
$DIMCLRT
 70
     0
  9
$DIMTFAC
 40
1.0
  9
$DIMGAP
 40
0.625
  9
$DIMJUST
 70
     0
  9
$DIMSD1
 70
     0
  9
$DIMSD2
 70
     0
  9
$DIMTOLJ
 70
     0
  9
$DIMTZIN
 70
     8
  9
$DIMALTZ
 70
     0
  9
$DIMALTTZ
 70
     0
  9
$DIMUPT
 70
     0
  9
$DIMDEC
 70
     2
  9
$DIMTDEC
 70
     2
  9
$DIMALTU
 70
     2
  9
$DIMALTTD
 70
     3
  9
$DIMTXSTY
  7
Solbet_2_5
  9
$DIMAUNIT
 70
     0
  9
$DIMADEC
 70
     0
  9
$DIMALTRND
 40
0.0
  9
$DIMAZIN
 70
     0
  9
$DIMDSEP
 70
    44
  9
$DIMATFIT
 70
     3
  9
$DIMFRAC
 70
     0
  9
$DIMLDRBLK
  1

  9
$DIMLUNIT
 70
     2
  9
$DIMLWD
 70
    -2
  9
$DIMLWE
 70
    -2
  9
$DIMTMOVE
 70
     0
  9
$LUNITS
 70
     2
  9
$LUPREC
 70
     4
  9
$SKETCHINC
 40
1.0
  9
$FILLETRAD
 40
0.0
  9
$AUNITS
 70
     0
  9
$AUPREC
 70
     0
  9
$MENU
  1
.
  9
$ELEVATION
 40
0.0
  9
$PELEVATION
 40
0.0
  9
$THICKNESS
 40
0.0
  9
$LIMCHECK
 70
     0
  9
$CHAMFERA
 40
0.0
  9
$CHAMFERB
 40
0.0
  9
$CHAMFERC
 40
0.0
  9
$CHAMFERD
 40
0.0
  9
$SKPOLY
 70
     0
  9
$TDCREATE
 40
2454690.075573148
  9
$TDUCREATE
 40
2454690.033906482
  9
$TDUPDATE
 40
2454848.862422500
  9
$TDUUPDATE
 40
2454848.820755833
  9
$TDINDWG
 40
0.5058145139
  9
$TDUSRTIMER
 40
0.5058099884
  9
$USRTIMER
 70
     1
  9
$ANGBASE
 50
0.0
  9
$ANGDIR
 70
     0
  9
$PDMODE
 70
     0
  9
$PDSIZE
 40
0.0
  9
$PLINEWID
 40
0.0
  9
$SPLFRAME
 70
     0
  9
$SPLINETYPE
 70
     6
  9
$SPLINESEGS
 70
     8
  9
$HANDSEED
  5
29B0
  9
$SURFTAB1
 70
     6
  9
$SURFTAB2
 70
     6
  9
$SURFTYPE
 70
     6
  9
$SURFU
 70
     6
  9
$SURFV
 70
     6
  9
$UCSBASE
  2

  9
$UCSNAME
  2

  9
$UCSORG
 10
0.0
 20
0.0
 30
0.0
  9
$UCSXDIR
 10
1.0
 20
0.0
 30
0.0
  9
$UCSYDIR
 10
0.0
 20
1.0
 30
0.0
  9
$UCSORTHOREF
  2

  9
$UCSORTHOVIEW
 70
     0
  9
$UCSORGTOP
 10
0.0
 20
0.0
 30
0.0
  9
$UCSORGBOTTOM
 10
0.0
 20
0.0
 30
0.0
  9
$UCSORGLEFT
 10
0.0
 20
0.0
 30
0.0
  9
$UCSORGRIGHT
 10
0.0
 20
0.0
 30
0.0
  9
$UCSORGFRONT
 10
0.0
 20
0.0
 30
0.0
  9
$UCSORGBACK
 10
0.0
 20
0.0
 30
0.0
  9
$PUCSBASE
  2

  9
$PUCSNAME
  2

  9
$PUCSORG
 10
0.0
 20
0.0
 30
0.0
  9
$PUCSXDIR
 10
1.0
 20
0.0
 30
0.0
  9
$PUCSYDIR
 10
0.0
 20
1.0
 30
0.0
  9
$PUCSORTHOREF
  2

  9
$PUCSORTHOVIEW
 70
     0
  9
$PUCSORGTOP
 10
0.0
 20
0.0
 30
0.0
  9
$PUCSORGBOTTOM
 10
0.0
 20
0.0
 30
0.0
  9
$PUCSORGLEFT
 10
0.0
 20
0.0
 30
0.0
  9
$PUCSORGRIGHT
 10
0.0
 20
0.0
 30
0.0
  9
$PUCSORGFRONT
 10
0.0
 20
0.0
 30
0.0
  9
$PUCSORGBACK
 10
0.0
 20
0.0
 30
0.0
  9
$USERI1
 70
     0
  9
$USERI2
 70
     0
  9
$USERI3
 70
     0
  9
$USERI4
 70
     0
  9
$USERI5
 70
     0
  9
$USERR1
 40
0.0
  9
$USERR2
 40
0.0
  9
$USERR3
 40
0.0
  9
$USERR4
 40
0.0
  9
$USERR5
 40
0.0
  9
$WORLDVIEW
 70
     1
  9
$SHADEDGE
 70
     3
  9
$SHADEDIF
 70
    70
  9
$TILEMODE
 70
     1
  9
$MAXACTVP
 70
    64
  9
$PINSBASE
 10
0.0
 20
0.0
 30
0.0
  9
$PLIMCHECK
 70
     0
  9
$PEXTMIN
 10
0.0
 20
0.0
 30
0.0
  9
$PEXTMAX
 10
0.0
 20
0.0
 30
0.0
  9
$PLIMMIN
 10
0.0
 20
0.0
  9
$PLIMMAX
 10
12.0
 20
9.0
  9
$UNITMODE
 70
     0
  9
$VISRETAIN
 70
     1
  9
$PLINEGEN
 70
     0
  9
$PSLTSCALE
 70
     1
  9
$TREEDEPTH
 70
  3020
  9
$CMLSTYLE
  2
SOLBET_IZOLACJA
  9
$CMLJUST
 70
     0
  9
$CMLSCALE
 40
20.0
  9
$PROXYGRAPHICS
 70
     1
  9
$MEASUREMENT
 70
     1
  9
$CELWEIGHT
370
    -1
  9
$ENDCAPS
280
     0
  9
$JOINSTYLE
280
     0
  9
$LWDISPLAY
290
     1
  9
$INSUNITS
 70
     4
  9
$HYPERLINKBASE
  1

  9
$STYLESHEET
  1

  9
$XEDIT
290
     1
  9
$CEPSNTYPE
380
     0
  9
$PSTYLEMODE
290
     1
  9
$FINGERPRINTGUID
  2
{6B12AB33-8E39-428E-8E85-461C8D99A3CB}
  9
$VERSIONGUID
  2
{A687BE9E-A7F3-435B-8017-CBA8F5F5F311}
  9
$EXTNAMES
290
     1
  9
$PSVPSCALE
 40
0.0
  9
$OLESTARTUP
290
     0
  0
ENDSEC
  0
SECTION
  2
CLASSES
  0
CLASS
  1
ACDBDICTIONARYWDFLT
  2
AcDbDictionaryWithDefault
  3
ObjectDBX Classes
 90
        0
280
     0
281
     0
  0
CLASS
  1
ACDBPLACEHOLDER
  2
AcDbPlaceHolder
  3
ObjectDBX Classes
 90
        0
280
     0
281
     0
  0
CLASS
  1
LAYOUT
  2
AcDbLayout
  3
ObjectDBX Classes
 90
        0
280
     0
281
     0
  0
CLASS
  1
DICTIONARYVAR
  2
AcDbDictionaryVar
  3
ObjectDBX Classes
 90
        0
280
     0
281
     0
  0
CLASS
  1
TABLESTYLE
  2
AcDbTableStyle
  3
ObjectDBX Classes
 90
     4095
280
     0
281
     0
  0
CLASS
  1
MATERIAL
  2
AcDbMaterial
  3
ObjectDBX Classes
 90
     1024
280
     0
281
     0
  0
CLASS
  1
VISUALSTYLE
  2
AcDbVisualStyle
  3
ObjectDBX Classes
 90
     4095
280
     0
281
     0
  0
CLASS
  1
SCALE
  2
AcDbScale
  3
ObjectDBX Classes
 90
     1153
280
     0
281
     0
  0
CLASS
  1
MLEADERSTYLE
  2
AcDbMLeaderStyle
  3
ACDB_MLEADERSTYLE_CLASS
 90
     4095
280
     0
281
     0
  0
CLASS
  1
CELLSTYLEMAP
  2
AcDbCellStyleMap
  3
ObjectDBX Classes
 90
     1152
280
     0
281
     0
  0
CLASS
  1
DIMASSOC
  2
AcDbDimAssoc
  3
"AcDbDimAssoc|Product Desc:     AcDim ARX App For Dimension|Company:          Autodesk, Inc.|WEB Address:      www.autodesk.com"
 90
    32768
280
     0
281
     0
  0
CLASS
  1
SORTENTSTABLE
  2
AcDbSortentsTable
  3
ObjectDBX Classes
 90
        0
280
     0
281
     0
  0
CLASS
  1
MULTILEADER
  2
AcDbMLeader
  3
ACDB_MLEADER_CLASS
 90
    33793
280
     0
281
     1
  0
CLASS
  1
ACDB_MTEXTOBJECTCONTEXTDATA_CLASS
  2
AcDbMTextObjectContextData
  3
ObjectDBX Classes
 90
    33921
280
     0
281
     0
  0
ENDSEC
  0
SECTION
  2
TABLES
  0
TABLE
  2
VPORT
  5
8
102
{ACAD_XDICTIONARY
360
443
102
}
330
0
100
AcDbSymbolTable
 70
     1
  0
VPORT
  5
EA
330
8
100
AcDbSymbolTableRecord
100
AcDbViewportTableRecord
  2
*Active
 70
     0
 10
0.0
 20
0.0
 11
1.0
 21
1.0
 12
167.2555521522554
 22
148.5177483070084
 13
0.0
 23
0.0
 14
10.0
 24
10.0
 15
10.0
 25
10.0
 16
0.0
 26
0.0
 36
1.0
 17
0.0
 27
0.0
 37
0.0
 40
300.3091621912098
 41
1.74582560296846
 42
50.0
 43
0.0
 44
0.0
 50
0.0
 51
0.0
 71
     0
 72
  1000
 73
     1
 74
     3
 75
     0
 76
     0
 77
     0
 78
     0
281
     0
 65
     1
110
0.0
120
0.0
130
0.0
111
1.0
121
0.0
131
0.0
112
0.0
122
1.0
132
0.0
 79
     0
146
0.0
  0
ENDTAB
  0
TABLE
  2
LTYPE
  5
5
330
0
100
AcDbSymbolTable
 70
     3
  0
LTYPE
  5
14
330
5
100
AcDbSymbolTableRecord
100
AcDbLinetypeTableRecord
  2
ByBlock
 70
     0
  3

 72
    65
 73
     0
 40
0.0
  0
LTYPE
  5
15
330
5
100
AcDbSymbolTableRecord
100
AcDbLinetypeTableRecord
  2
ByLayer
 70
     0
  3

 72
    65
 73
     0
 40
0.0
  0
LTYPE
  5
16
330
5
100
AcDbSymbolTableRecord
100
AcDbLinetypeTableRecord
  2
Continuous
 70
     0
  3
Solid line
 72
    65
 73
     0
 40
0.0
  0
LTYPE
  5
2B9
330
5
100
AcDbSymbolTableRecord
100
AcDbLinetypeTableRecord
  2
VERDECKT
 70
     0
  3
__ __ __ __ __ __ __ __ __ __ __ __ __ __ __ __
 72
    65
 73
     2
 40
0.375
 49
0.25
 74
     0
 49
-0.125
 74
     0
  0
LTYPE
  5
982
330
5
100
AcDbSymbolTableRecord
100
AcDbLinetypeTableRecord
  2
BATTING
 70
     0
  3
Batting SSSSSSSSSSSSSSSSSSSSSSSSSSSSSSSSSSSSSSSSSSSSSSS
 72
    65
 73
     4
 40
10.16254
 49
0.00254
 74
     0
 49
-2.54
 74
     4
 75
   134
340
7E7
 46
2.54
 50
0.0
 44
-2.54
 45
0.0
 49
-5.08
 74
     4
 75
   134
340
7E7
 46
2.54
 50
180.0
 44
2.54
 45
0.0
 49
-2.54
 74
     0
  0
ENDTAB
  0
TABLE
  2
LAYER
  5
2
102
{ACAD_XDICTIONARY
360
3E5
102
}
330
0
100
AcDbSymbolTable
 70
    13
  0
LAYER
  5
10
102
{ACAD_XDICTIONARY
360
13C
102
}
330
2
100
AcDbSymbolTableRecord
100
AcDbLayerTableRecord
  2
0
 70
     0
 62
     7
  6
Continuous
370
    -3
390
F
  0
LAYER
  5
2BB
330
2
100
AcDbSymbolTableRecord
100
AcDbLayerTableRecord
  2
DEFPOINTS
 70
     0
 62
     7
  6
Continuous
290
     0
370
    -3
390
F
  0
LAYER
  5
3DD
102
{ACAD_XDICTIONARY
360
403
102
}
330
2
100
AcDbSymbolTableRecord
100
AcDbLayerTableRecord
  2
SOLBET_Bloczki
 70
     0
 62
   140
  6
Continuous
370
    -3
390
F
1001
AcAecLayerStandard
1000

1000

  0
LAYER
  5
3DF
102
{ACAD_XDICTIONARY
360
405
102
}
330
2
100
AcDbSymbolTableRecord
100
AcDbLayerTableRecord
  2
SOLBET_Wymiary_Opisy
 70
     0
 62
     1
  6
Continuous
370
    -3
390
F
1001
AcAecLayerStandard
1000

1000

  0
LAYER
  5
3E0
102
{ACAD_XDICTIONARY
360
407
102
}
330
2
100
AcDbSymbolTableRecord
100
AcDbLayerTableRecord
  2
SOLBET_Beton
 70
     0
 62
     9
  6
Continuous
370
    -3
390
F
1001
AcAecLayerStandard
1000

1000

  0
LAYER
  5
3E1
102
{ACAD_XDICTIONARY
360
409
102
}
330
2
100
AcDbSymbolTableRecord
100
AcDbLayerTableRecord
  2
SOLBET_Izolacja
 70
     0
 62
    40
  6
Continuous
370
    -3
390
F
1001
AcAecLayerStandard
1000

1000

  0
LAYER
  5
3E2
102
{ACAD_XDICTIONARY
360
40B
102
}
330
2
100
AcDbSymbolTableRecord
100
AcDbLayerTableRecord
  2
SOLBET_Zbrojenie_Konstrukcja
 70
     0
 62
     7
  6
Continuous
370
    -3
390
F
1001
AcAecLayerStandard
1000

1000

  0
LAYER
  5
3E4
102
{ACAD_XDICTIONARY
360
40F
102
}
330
2
100
AcDbSymbolTableRecord
100
AcDbLayerTableRecord
  2
SOLBET_Tynki_Posadzki
 70
     0
 62
     3
  6
Continuous
370
    -3
390
F
1001
AcAecLayerStandard
1000

1000

  0
LAYER
  5
3E8
102
{ACAD_XDICTIONARY
360
411
102
}
330
2
100
AcDbSymbolTableRecord
100
AcDbLayerTableRecord
  2
SOLBET_Ramka_05
 70
     0
 62
     2
  6
Continuous
370
    -3
390
F
1001
AcAecLayerStandard
1000

1000

  0
LAYER
  5
472
330
2
100
AcDbSymbolTableRecord
100
AcDbLayerTableRecord
  2
SOLBET_Zaprawy
 70
     0
 62
     4
  6
Continuous
370
    -3
390
F
1001
AcAecLayerStandard
1000

1000

  0
LAYER
  5
4E2
330
2
100
AcDbSymbolTableRecord
100
AcDbLayerTableRecord
  2
SOLBET_Emulsje_Folie
 70
     0
 62
     6
  6
Continuous
370
    -3
390
F
1001
AcAecLayerStandard
1000

1000

  0
LAYER
  5
2504
330
2
100
AcDbSymbolTableRecord
100
AcDbLayerTableRecord
  2
SOLBET_Stolarka_Okna
 70
     0
 62
     2
  6
Continuous
370
    -3
390
F
1001
AcAecLayerStandard
1000

1000

  0
LAYER
  5
2884
102
{ACAD_XDICTIONARY
360
2885
102
}
330
2
100
AcDbSymbolTableRecord
100
AcDbLayerTableRecord
  2
SOLBET_Wymiary_Opisy @ 1
 70
     0
 62
     1
  6
Continuous
370
    -3
390
F
1001
AcAecLayerStandard
1000

1000

1001
AcadAnnotativeDecomposition
1000
AnnotativeData
1002
{
1070
     1
1070
     1
1002
}
  0
ENDTAB
  0
TABLE
  2
STYLE
  5
3
330
0
100
AcDbSymbolTable
 70
     5
  0
STYLE
  5
11
330
3
100
AcDbSymbolTableRecord
100
AcDbTextStyleTableRecord
  2
Standard
 70
     0
 40
0.0
 41
1.0
 50
0.0
 71
     0
 42
2.5
  3
txt.shx
  4

  0
STYLE
  5
7D7
330
3
100
AcDbSymbolTableRecord
100
AcDbTextStyleTableRecord
  2
Solbet_5
 70
     0
 40
5.0
 41
1.0
 50
0.0
 71
     0
 42
5.0
  3
isocpeur.ttf
  4

1001
ACAD
1000
ISOCPEUR
1071
       34
  0
STYLE
  5
7D9
330
3
100
AcDbSymbolTableRecord
100
AcDbTextStyleTableRecord
  2
Solbet_2_5
 70
     0
 40
2.5
 41
1.0
 50
0.0
 71
     0
 42
2.5
  3
isocpeur.ttf
  4

1001
ACAD
1000
ISOCPEUR
1071
       34
  0
STYLE
  5
7E7
330
3
100
AcDbSymbolTableRecord
100
AcDbTextStyleTableRecord
  2

 70
     1
 40
0.0
 41
1.0
 50
0.0
 71
     0
 42
2.5
  3
ltypeshp.shx
  4

  0
STYLE
  5
2403
330
3
100
AcDbSymbolTableRecord
100
AcDbTextStyleTableRecord
  2
Solbet_1
 70
     0
 40
1.0
 41
1.0
 50
0.0
 71
     0
 42
2.5
  3
isocpeur.ttf
  4

1001
ACAD
1000
ISOCPEUR
1071
       34
  0
ENDTAB
  0
TABLE
  2
VIEW
  5
6
330
0
100
AcDbSymbolTable
 70
     0
  0
ENDTAB
  0
TABLE
  2
UCS
  5
7
330
0
100
AcDbSymbolTable
 70
     0
  0
ENDTAB
  0
TABLE
  2
APPID
  5
9
330
0
100
AcDbSymbolTable
 70
    13
  0
APPID
  5
12
330
9
100
AcDbSymbolTableRecord
100
AcDbRegAppTableRecord
  2
ACAD
 70
     0
  0
APPID
  5
9E
330
9
100
AcDbSymbolTableRecord
100
AcDbRegAppTableRecord
  2
ACAD_PSEXT
 70
     0
  0
APPID
  5
133
330
9
100
AcDbSymbolTableRecord
100
AcDbRegAppTableRecord
  2
AcadAnnoPO
 70
     0
  0
APPID
  5
134
330
9
100
AcDbSymbolTableRecord
100
AcDbRegAppTableRecord
  2
AcadAnnotative
 70
     0
  0
APPID
  5
135
330
9
100
AcDbSymbolTableRecord
100
AcDbRegAppTableRecord
  2
ACAD_DSTYLE_DIMJAG
 70
     0
  0
APPID
  5
136
330
9
100
AcDbSymbolTableRecord
100
AcDbRegAppTableRecord
  2
ACAD_DSTYLE_DIMTALN
 70
     0
  0
APPID
  5
165
330
9
100
AcDbSymbolTableRecord
100
AcDbRegAppTableRecord
  2
ACAD_MLEADERVER
 70
     0
  0
APPID
  5
2C4
330
9
100
AcDbSymbolTableRecord
100
AcDbRegAppTableRecord
  2
ASO_SCHRAFF
 70
     0
  0
APPID
  5
3DE
330
9
100
AcDbSymbolTableRecord
100
AcDbRegAppTableRecord
  2
AcAecLayerStandard
 70
     0
  0
APPID
  5
7DE
330
9
100
AcDbSymbolTableRecord
100
AcDbRegAppTableRecord
  2
ACAD_EXEMPT_FROM_CAD_STANDARDS
 70
     0
  0
APPID
  5
948
330
9
100
AcDbSymbolTableRecord
100
AcDbRegAppTableRecord
  2
ACAD_DSTYLE_DIMBREAK
 70
     0
  0
APPID
  5
1D0A
330
9
100
AcDbSymbolTableRecord
100
AcDbRegAppTableRecord
  2
AcadAnnotativeDecomposition
 70
     0
  0
APPID
  5
2404
330
9
100
AcDbSymbolTableRecord
100
AcDbRegAppTableRecord
  2
AcDbAttr
 70
     0
  0
ENDTAB
  0
TABLE
  2
DIMSTYLE
  5
A
330
0
100
AcDbSymbolTable
 70
     2
100
AcDbDimStyleTable
 71
     1
340
949
  0
DIMSTYLE
105
949
330
A
100
AcDbSymbolTableRecord
100
AcDbDimStyleTableRecord
  2
Solbet
 70
     0
 41
2.5
 42
0.0
 43
3.75
 44
1.25
 73
     0
 74
     0
 77
     1
 78
     8
140
2.5
141
2.5
143
0.03937007874016
147
0.625
171
     3
172
     1
271
     2
272
     2
274
     3
278
    44
283
     0
284
     8
340
7D9
1001
ACAD_DSTYLE_DIMBREAK
1070
   391
1040
3.75
1001
ACAD_DSTYLE_DIMJAG
1070
   388
1040
1.5
1001
ACAD_DSTYLE_DIMTALN
1070
   392
1070
     0
  0
DIMSTYLE
105
954
330
A
100
AcDbSymbolTableRecord
100
AcDbDimStyleTableRecord
  2
Solbet$7
 70
     0
 41
2.5
 42
0.0
 43
3.75
 44
1.25
 73
     0
 74
     0
 77
     1
 78
     8
140
2.5
141
2.5
143
0.03937007874016
147
0.625
171
     3
172
     1
271
     2
272
     2
274
     3
278
    44
283
     0
284
     8
340
7D9
341
958
1001
ACAD_DSTYLE_DIMBREAK
1070
   391
1040
3.75
1001
ACAD_DSTYLE_DIMJAG
1070
   388
1040
1.5
1001
ACAD_DSTYLE_DIMTALN
1070
   392
1070
     0
  0
ENDTAB
  0
TABLE
  2
BLOCK_RECORD
  5
1
330
0
100
AcDbSymbolTable
 70
    15
  0
BLOCK_RECORD
  5
1F
102
{ACAD_XDICTIONARY
360
4A3
102
}
330
1
100
AcDbSymbolTableRecord
100
AcDbBlockTableRecord
  2
*Model_Space
340
22
  0
BLOCK_RECORD
  5
D2
330
1
100
AcDbSymbolTableRecord
100
AcDbBlockTableRecord
  2
*Paper_Space
340
D3
  0
BLOCK_RECORD
  5
D6
330
1
100
AcDbSymbolTableRecord
100
AcDbBlockTableRecord
  2
*Paper_Space0
340
D7
  0
BLOCK_RECORD
  5
1C2
330
1
100
AcDbSymbolTableRecord
100
AcDbBlockTableRecord
  2
ASOWDBLK
340
0
102
{BLKREFS
331
2547
331
2548
331
2549
331
254A
331
254B
331
254C
331
254D
331
254E
331
254F
331
2550
331
2551
331
2552
331
2553
331
2554
331
2555
331
2556
331
2557
331
2558
331
2559
331
255A
331
255B
331
255C
331
255D
331
255E
331
255F
331
2560
331
2561
331
2562
331
2563
331
2564
331
2565
331
2566
331
2567
331
2568
331
2569
331
256A
331
256B
331
256C
331
256D
331
256E
331
256F
331
2570
331
2571
331
2572
331
2573
331
2574
331
2575
331
2576
331
2577
331
2578
331
2579
331
257A
331
257B
331
257C
331
257D
331
257E
102
}
  0
BLOCK_RECORD
  5
958
330
1
100
AcDbSymbolTableRecord
100
AcDbBlockTableRecord
  2
_DotSmall
340
0
102
{BLKREFS
331
2669
331
26C6
331
26CA
102
}
  0
BLOCK_RECORD
  5
1EF2
330
1
100
AcDbSymbolTableRecord
100
AcDbBlockTableRecord
  2
_None
340
0
  0
BLOCK_RECORD
  5
2064
330
1
100
AcDbSymbolTableRecord
100
AcDbBlockTableRecord
  2
*X4
340
0
102
{BLKREFS
331
246F
102
}
  0
BLOCK_RECORD
  5
20E5
330
1
100
AcDbSymbolTableRecord
100
AcDbBlockTableRecord
  2
*U5
340
0
102
{BLKREFS
331
23B7
331
23BC
331
22E3
331
22E6
331
2616
331
2617
102
}
  0
BLOCK_RECORD
  5
210F
330
1
100
AcDbSymbolTableRecord
100
AcDbBlockTableRecord
  2
*U6
340
0
102
{BLKREFS
331
2338
102
}
  0
BLOCK_RECORD
  5
2114
330
1
100
AcDbSymbolTableRecord
100
AcDbBlockTableRecord
  2
*U7
340
0
102
{BLKREFS
331
2339
102
}
  0
BLOCK_RECORD
  5
2120
330
1
100
AcDbSymbolTableRecord
100
AcDbBlockTableRecord
  2
*U8
340
0
102
{BLKREFS
331
233A
102
}
  0
BLOCK_RECORD
  5
2125
330
1
100
AcDbSymbolTableRecord
100
AcDbBlockTableRecord
  2
*U9
340
0
102
{BLKREFS
331
2362
102
}
  0
BLOCK_RECORD
  5
2405
102
{ACAD_XDICTIONARY
360
2411
102
}
330
1
100
AcDbSymbolTableRecord
100
AcDbBlockTableRecord
  2
SOLBET_Bloczek_OPTIMAL_240x240x590_P+W_PRA
340
0
1001
ACAD
1000
DesignCenter Data
1002
{
1070
     1
1070
     4
1002
}
  0
BLOCK_RECORD
  5
2480
102
{ACAD_XDICTIONARY
360
248A
102
}
330
1
100
AcDbSymbolTableRecord
100
AcDbBlockTableRecord
  2
SOLBET_Nadproze_140_12_1400x240x120_PRA
340
0
1001
ACAD
1000
DesignCenter Data
1002
{
1070
     1
1070
     4
1002
}
  0
BLOCK_RECORD
  5
28F3
102
{ACAD_XDICTIONARY
360
2904
102
}
330
1
100
AcDbSymbolTableRecord
100
AcDbBlockTableRecord
  2
SOLBET_Nadproze_120x240x1400_zz_PRA
340
0
102
{BLKREFS
331
2908
331
2909
102
}
1001
ACAD
1000
DesignCenter Data
1002
{
1070
     1
1070
     4
1002
}
  0
BLOCK_RECORD
  5
290A
102
{ACAD_XDICTIONARY
360
2915
102
}
330
1
100
AcDbSymbolTableRecord
100
AcDbBlockTableRecord
  2
SOLBET_Bloczek_Optimal_240x240x590_G_KG500_PRA
340
0
102
{BLKREFS
331
2919
331
291A
331
291B
331
291C
331
291D
102
}
1001
ACAD
1000
DesignCenter Data
1002
{
1070
     1
1070
     4
1002
}
  0
ENDTAB
  0
ENDSEC
  0
SECTION
  2
BLOCKS
  0
BLOCK
  5
20
330
1F
100
AcDbEntity
  8
0
100
AcDbBlockBegin
  2
*Model_Space
 70
     0
 10
0.0
 20
0.0
 30
0.0
  3
*Model_Space
  1

  0
ENDBLK
  5
21
330
1F
100
AcDbEntity
  8
0
100
AcDbBlockEnd
  0
BLOCK
  5
D4
330
D2
100
AcDbEntity
 67
     1
  8
0
100
AcDbBlockBegin
  2
*Paper_Space
 70
     0
 10
0.0
 20
0.0
 30
0.0
  3
*Paper_Space
  1

  0
ENDBLK
  5
D5
330
D2
100
AcDbEntity
 67
     1
  8
0
100
AcDbBlockEnd
  0
BLOCK
  5
D8
330
D6
100
AcDbEntity
 67
     1
  8
0
100
AcDbBlockBegin
  2
*Paper_Space0
 70
     0
 10
0.0
 20
0.0
 30
0.0
  3
*Paper_Space0
  1

  0
ENDBLK
  5
D9
330
D6
100
AcDbEntity
 67
     1
  8
0
100
AcDbBlockEnd
  0
BLOCK
  5
1C3
330
1C2
100
AcDbEntity
  8
0
100
AcDbBlockBegin
  2
ASOWDBLK
 70
     0
 10
0.0
 20
0.0
 30
0.0
  3
ASOWDBLK
  1
ASOWDBLK
  0
ARC
  5
1C4
330
1C2
100
AcDbEntity
  8
0
  6
Continuous
 62
     0
100
AcDbCircle
 10
0.0
 20
0.25
 30
0.0
 40
0.25
100
AcDbArc
 50
270.0000011238745
 51
36.86989141244799
  0
ARC
  5
1C5
330
1C2
100
AcDbEntity
  8
0
  6
Continuous
 62
     0
100
AcDbCircle
 10
0.25
 20
0.75
 30
0.0
 40
0.25
100
AcDbArc
 50
323.1300909874582
 51
216.8699112602908
  0
LINE
  5
1C6
330
1C2
100
AcDbEntity
  8
0
  6
Continuous
 62
     0
100
AcDbLine
 10
0.05
 20
0.6
 30
0.0
 11
0.2
 21
0.4
 31
0.0
  0
ARC
  5
1C7
330
1C2
100
AcDbEntity
  8
0
  6
Continuous
 62
     0
100
AcDbCircle
 10
0.5
 20
0.25
 30
0.0
 40
0.25
100
AcDbArc
 50
143.1301284353948
 51
270.0000011238745
  0
LINE
  5
1C8
330
1C2
100
AcDbEntity
  8
0
  6
Continuous
 62
     0
100
AcDbLine
 10
0.45
 20
0.6
 30
0.0
 11
0.3
 21
0.4
 31
0.0
  0
ENDBLK
  5
1C9
330
1C2
100
AcDbEntity
  8
0
100
AcDbBlockEnd
  0
BLOCK
  5
95A
330
958
100
AcDbEntity
  8
0
100
AcDbBlockBegin
  2
_DotSmall
 70
     0
 10
0.0
 20
0.0
 30
0.0
  3
_DotSmall
  1

  0
LWPOLYLINE
  5
959
330
958
100
AcDbEntity
  8
0
  6
ByBlock
 62
     0
100
AcDbPolyline
 90
        2
 70
     1
 43
0.5
 10
-0.0625
 20
0.0
 42
1.0
 10
0.0625
 20
0.0
 42
1.0
  0
ENDBLK
  5
95B
330
958
100
AcDbEntity
  8
0
100
AcDbBlockEnd
  0
BLOCK
  5
1EF3
330
1EF2
100
AcDbEntity
  8
0
100
AcDbBlockBegin
  2
_None
 70
     0
 10
0.0
 20
0.0
 30
0.0
  3
_None
  1

  0
ENDBLK
  5
1EF4
330
1EF2
100
AcDbEntity
  8
0
100
AcDbBlockEnd
  0
BLOCK
  5
2065
330
2064
100
AcDbEntity
  8
0
100
AcDbBlockBegin
  2
*X4
 70
     1
 10
0.0
 20
0.0
 30
0.0
  3
*X4
  1
ASOWDBLK
  0
LINE
  5
2066
330
2064
100
AcDbEntity
  8
0
 62
     0
100
AcDbLine
 10
11.99304811965889
 20
9.120426821088543
 30
0.0
 11
12.03304811965889
 21
9.16042682108854
 31
0.0
  0
LINE
  5
2067
330
2064
100
AcDbEntity
  8
0
 62
     0
100
AcDbLine
 10
11.94885394583473
 20
9.120426821088543
 30
0.0
 11
11.98885394583473
 21
9.16042682108854
 31
0.0
  0
LINE
  5
2068
330
2064
100
AcDbEntity
  8
0
 62
     0
100
AcDbLine
 10
11.90465977201057
 20
9.120426821088543
 30
0.0
 11
11.94465977201057
 21
9.16042682108854
 31
0.0
  0
LINE
  5
2069
330
2064
100
AcDbEntity
  8
0
 62
     0
100
AcDbLine
 10
11.86046559818641
 20
9.120426821088543
 30
0.0
 11
11.90046559818641
 21
9.16042682108854
 31
0.0
  0
LINE
  5
206A
330
2064
100
AcDbEntity
  8
0
 62
     0
100
AcDbLine
 10
11.81627142436225
 20
9.120426821088543
 30
0.0
 11
11.85627142436225
 21
9.16042682108854
 31
0.0
  0
LINE
  5
206B
330
2064
100
AcDbEntity
  8
0
 62
     0
100
AcDbLine
 10
11.77207725053809
 20
9.120426821088543
 30
0.0
 11
11.81207725053809
 21
9.16042682108854
 31
0.0
  0
LINE
  5
206C
330
2064
100
AcDbEntity
  8
0
 62
     0
100
AcDbLine
 10
11.72788307671393
 20
9.120426821088543
 30
0.0
 11
11.76788307671393
 21
9.16042682108854
 31
0.0
  0
LINE
  5
206D
330
2064
100
AcDbEntity
  8
0
 62
     0
100
AcDbLine
 10
11.68368890288977
 20
9.120426821088543
 30
0.0
 11
11.72368890288977
 21
9.16042682108854
 31
0.0
  0
LINE
  5
206E
330
2064
100
AcDbEntity
  8
0
 62
     0
100
AcDbLine
 10
11.63949472906562
 20
9.120426821088543
 30
0.0
 11
11.67949472906562
 21
9.16042682108854
 31
0.0
  0
LINE
  5
206F
330
2064
100
AcDbEntity
  8
0
 62
     0
100
AcDbLine
 10
11.59530055524146
 20
9.120426821088543
 30
0.0
 11
11.63530055524145
 21
9.16042682108854
 31
0.0
  0
LINE
  5
2070
330
2064
100
AcDbEntity
  8
0
 62
     0
100
AcDbLine
 10
11.5511063814173
 20
9.120426821088543
 30
0.0
 11
11.59110638141729
 21
9.16042682108854
 31
0.0
  0
LINE
  5
2071
330
2064
100
AcDbEntity
  8
0
 62
     0
100
AcDbLine
 10
11.50691220759314
 20
9.120426821088543
 30
0.0
 11
11.54691220759314
 21
9.16042682108854
 31
0.0
  0
LINE
  5
2072
330
2064
100
AcDbEntity
  8
0
 62
     0
100
AcDbLine
 10
11.46271803376898
 20
9.120426821088543
 30
0.0
 11
11.50271803376898
 21
9.16042682108854
 31
0.0
  0
LINE
  5
2073
330
2064
100
AcDbEntity
  8
0
 62
     0
100
AcDbLine
 10
11.41852385994482
 20
9.120426821088543
 30
0.0
 11
11.45852385994482
 21
9.16042682108854
 31
0.0
  0
LINE
  5
2074
330
2064
100
AcDbEntity
  8
0
 62
     0
100
AcDbLine
 10
11.39401831761913
 20
9.140115452587011
 30
0.0
 11
11.41432968612066
 21
9.16042682108854
 31
0.0
  0
LINE
  5
2075
330
2064
100
AcDbEntity
  8
0
 62
     0
100
AcDbLine
 10
12.03724229348305
 20
9.120426821088543
 30
0.0
 11
12.07724229348305
 21
9.16042682108854
 31
0.0
  0
LINE
  5
2076
330
2064
100
AcDbEntity
  8
0
 62
     0
100
AcDbLine
 10
12.08143646730721
 20
9.120426821088543
 30
0.0
 11
12.12143646730721
 21
9.16042682108854
 31
0.0
  0
LINE
  5
2077
330
2064
100
AcDbEntity
  8
0
 62
     0
100
AcDbLine
 10
12.12563064113137
 20
9.120426821088543
 30
0.0
 11
12.16563064113137
 21
9.16042682108854
 31
0.0
  0
LINE
  5
2078
330
2064
100
AcDbEntity
  8
0
 62
     0
100
AcDbLine
 10
12.16982481495553
 20
9.120426821088543
 30
0.0
 11
12.20982481495552
 21
9.16042682108854
 31
0.0
  0
LINE
  5
2079
330
2064
100
AcDbEntity
  8
0
 62
     0
100
AcDbLine
 10
12.21401898877969
 20
9.120426821088543
 30
0.0
 11
12.25401898877968
 21
9.16042682108854
 31
0.0
  0
LINE
  5
207A
330
2064
100
AcDbEntity
  8
0
 62
     0
100
AcDbLine
 10
12.25821316260385
 20
9.120426821088543
 30
0.0
 11
12.29821316260384
 21
9.16042682108854
 31
0.0
  0
LINE
  5
207B
330
2064
100
AcDbEntity
  8
0
 62
     0
100
AcDbLine
 10
12.302407336428
 20
9.120426821088543
 30
0.0
 11
12.342407336428
 21
9.16042682108854
 31
0.0
  0
LINE
  5
207C
330
2064
100
AcDbEntity
  8
0
 62
     0
100
AcDbLine
 10
12.34660151025216
 20
9.120426821088543
 30
0.0
 11
12.38660151025216
 21
9.16042682108854
 31
0.0
  0
LINE
  5
207D
330
2064
100
AcDbEntity
  8
0
 62
     0
100
AcDbLine
 10
12.39079568407632
 20
9.120426821088543
 30
0.0
 11
12.43079568407632
 21
9.16042682108854
 31
0.0
  0
LINE
  5
207E
330
2064
100
AcDbEntity
  8
0
 62
     0
100
AcDbLine
 10
12.43498985790048
 20
9.120426821088543
 30
0.0
 11
12.47498985790048
 21
9.16042682108854
 31
0.0
  0
LINE
  5
207F
330
2064
100
AcDbEntity
  8
0
 62
     0
100
AcDbLine
 10
12.47918403172464
 20
9.120426821088543
 30
0.0
 11
12.51918403172464
 21
9.16042682108854
 31
0.0
  0
LINE
  5
2080
330
2064
100
AcDbEntity
  8
0
 62
     0
100
AcDbLine
 10
12.5233782055488
 20
9.120426821088543
 30
0.0
 11
12.5633782055488
 21
9.16042682108854
 31
0.0
  0
LINE
  5
2081
330
2064
100
AcDbEntity
  8
0
 62
     0
100
AcDbLine
 10
12.56757237937296
 20
9.120426821088543
 30
0.0
 11
12.60757237937296
 21
9.16042682108854
 31
0.0
  0
LINE
  5
2082
330
2064
100
AcDbEntity
  8
0
 62
     0
100
AcDbLine
 10
12.61176655319712
 20
9.120426821088543
 30
0.0
 11
12.65176655319712
 21
9.16042682108854
 31
0.0
  0
LINE
  5
2083
330
2064
100
AcDbEntity
  8
0
 62
     0
100
AcDbLine
 10
12.65596072702128
 20
9.120426821088543
 30
0.0
 11
12.68399674713724
 21
9.1484628412045
 31
0.0
  0
LINE
  5
2084
330
2064
100
AcDbEntity
  8
0
 62
     0
100
AcDbLine
 10
12.04858244068372
 20
9.120426821088543
 30
0.0
 11
12.00858244068372
 21
9.16042682108854
 31
0.0
  0
LINE
  5
2085
330
2064
100
AcDbEntity
  8
0
 62
     0
100
AcDbLine
 10
12.00438826685956
 20
9.120426821088543
 30
0.0
 11
11.96438826685956
 21
9.16042682108854
 31
0.0
  0
LINE
  5
2086
330
2064
100
AcDbEntity
  8
0
 62
     0
100
AcDbLine
 10
11.9601940930354
 20
9.120426821088543
 30
0.0
 11
11.9201940930354
 21
9.16042682108854
 31
0.0
  0
LINE
  5
2087
330
2064
100
AcDbEntity
  8
0
 62
     0
100
AcDbLine
 10
11.91599991921124
 20
9.120426821088543
 30
0.0
 11
11.87599991921124
 21
9.16042682108854
 31
0.0
  0
LINE
  5
2088
330
2064
100
AcDbEntity
  8
0
 62
     0
100
AcDbLine
 10
11.87180574538708
 20
9.120426821088543
 30
0.0
 11
11.83180574538708
 21
9.16042682108854
 31
0.0
  0
LINE
  5
2089
330
2064
100
AcDbEntity
  8
0
 62
     0
100
AcDbLine
 10
11.82761157156292
 20
9.120426821088543
 30
0.0
 11
11.78761157156293
 21
9.16042682108854
 31
0.0
  0
LINE
  5
208A
330
2064
100
AcDbEntity
  8
0
 62
     0
100
AcDbLine
 10
11.78341739773876
 20
9.120426821088543
 30
0.0
 11
11.74341739773877
 21
9.16042682108854
 31
0.0
  0
LINE
  5
208B
330
2064
100
AcDbEntity
  8
0
 62
     0
100
AcDbLine
 10
11.7392232239146
 20
9.120426821088543
 30
0.0
 11
11.69922322391461
 21
9.16042682108854
 31
0.0
  0
LINE
  5
208C
330
2064
100
AcDbEntity
  8
0
 62
     0
100
AcDbLine
 10
11.69502905009045
 20
9.120426821088543
 30
0.0
 11
11.65502905009045
 21
9.16042682108854
 31
0.0
  0
LINE
  5
208D
330
2064
100
AcDbEntity
  8
0
 62
     0
100
AcDbLine
 10
11.65083487626629
 20
9.120426821088543
 30
0.0
 11
11.61083487626629
 21
9.16042682108854
 31
0.0
  0
LINE
  5
208E
330
2064
100
AcDbEntity
  8
0
 62
     0
100
AcDbLine
 10
11.60664070244213
 20
9.120426821088543
 30
0.0
 11
11.56664070244213
 21
9.16042682108854
 31
0.0
  0
LINE
  5
208F
330
2064
100
AcDbEntity
  8
0
 62
     0
100
AcDbLine
 10
11.56244652861797
 20
9.120426821088543
 30
0.0
 11
11.52244652861797
 21
9.16042682108854
 31
0.0
  0
LINE
  5
2090
330
2064
100
AcDbEntity
  8
0
 62
     0
100
AcDbLine
 10
11.51825235479381
 20
9.120426821088543
 30
0.0
 11
11.47825235479381
 21
9.16042682108854
 31
0.0
  0
LINE
  5
2091
330
2064
100
AcDbEntity
  8
0
 62
     0
100
AcDbLine
 10
11.47405818096965
 20
9.120426821088543
 30
0.0
 11
11.43405818096965
 21
9.16042682108854
 31
0.0
  0
LINE
  5
2092
330
2064
100
AcDbEntity
  8
0
 62
     0
100
AcDbLine
 10
11.42986400714549
 20
9.120426821088543
 30
0.0
 11
11.39401831761913
 21
9.156272510614906
 31
0.0
  0
LINE
  5
2093
330
2064
100
AcDbEntity
  8
0
 62
     0
100
AcDbLine
 10
12.09277661450788
 20
9.120426821088543
 30
0.0
 11
12.05277661450788
 21
9.16042682108854
 31
0.0
  0
LINE
  5
2094
330
2064
100
AcDbEntity
  8
0
 62
     0
100
AcDbLine
 10
12.13697078833203
 20
9.120426821088543
 30
0.0
 11
12.09697078833204
 21
9.16042682108854
 31
0.0
  0
LINE
  5
2095
330
2064
100
AcDbEntity
  8
0
 62
     0
100
AcDbLine
 10
12.1811649621562
 20
9.120426821088543
 30
0.0
 11
12.1411649621562
 21
9.16042682108854
 31
0.0
  0
LINE
  5
2096
330
2064
100
AcDbEntity
  8
0
 62
     0
100
AcDbLine
 10
12.22535913598036
 20
9.120426821088543
 30
0.0
 11
12.18535913598036
 21
9.16042682108854
 31
0.0
  0
LINE
  5
2097
330
2064
100
AcDbEntity
  8
0
 62
     0
100
AcDbLine
 10
12.26955330980451
 20
9.120426821088543
 30
0.0
 11
12.22955330980451
 21
9.16042682108854
 31
0.0
  0
LINE
  5
2098
330
2064
100
AcDbEntity
  8
0
 62
     0
100
AcDbLine
 10
12.31374748362867
 20
9.120426821088543
 30
0.0
 11
12.27374748362868
 21
9.16042682108854
 31
0.0
  0
LINE
  5
2099
330
2064
100
AcDbEntity
  8
0
 62
     0
100
AcDbLine
 10
12.35794165745283
 20
9.120426821088543
 30
0.0
 11
12.31794165745283
 21
9.16042682108854
 31
0.0
  0
LINE
  5
209A
330
2064
100
AcDbEntity
  8
0
 62
     0
100
AcDbLine
 10
12.40213583127699
 20
9.120426821088543
 30
0.0
 11
12.36213583127699
 21
9.16042682108854
 31
0.0
  0
LINE
  5
209B
330
2064
100
AcDbEntity
  8
0
 62
     0
100
AcDbLine
 10
12.44633000510115
 20
9.120426821088543
 30
0.0
 11
12.40633000510115
 21
9.16042682108854
 31
0.0
  0
LINE
  5
209C
330
2064
100
AcDbEntity
  8
0
 62
     0
100
AcDbLine
 10
12.49052417892531
 20
9.120426821088543
 30
0.0
 11
12.45052417892531
 21
9.16042682108854
 31
0.0
  0
LINE
  5
209D
330
2064
100
AcDbEntity
  8
0
 62
     0
100
AcDbLine
 10
12.53471835274947
 20
9.120426821088543
 30
0.0
 11
12.49471835274947
 21
9.16042682108854
 31
0.0
  0
LINE
  5
209E
330
2064
100
AcDbEntity
  8
0
 62
     0
100
AcDbLine
 10
12.57891252657363
 20
9.120426821088543
 30
0.0
 11
12.53891252657363
 21
9.16042682108854
 31
0.0
  0
LINE
  5
209F
330
2064
100
AcDbEntity
  8
0
 62
     0
100
AcDbLine
 10
12.62310670039779
 20
9.120426821088543
 30
0.0
 11
12.58310670039779
 21
9.16042682108854
 31
0.0
  0
LINE
  5
20A0
330
2064
100
AcDbEntity
  8
0
 62
     0
100
AcDbLine
 10
12.66730087422195
 20
9.120426821088543
 30
0.0
 11
12.62730087422195
 21
9.16042682108854
 31
0.0
  0
LINE
  5
20A1
330
2064
100
AcDbEntity
  8
0
 62
     0
100
AcDbLine
 10
12.68399674713724
 20
9.147925121997415
 30
0.0
 11
12.67149504804611
 21
9.16042682108854
 31
0.0
  0
ENDBLK
  5
20A2
330
2064
100
AcDbEntity
  8
0
100
AcDbBlockEnd
  0
BLOCK
  5
20E6
330
20E5
100
AcDbEntity
  8
0
100
AcDbBlockBegin
  2
*U5
 70
     1
 10
0.0
 20
0.0
 30
0.0
  3
*U5
  1
*ANON
  0
SOLID
  5
20E7
330
20E5
100
AcDbEntity
  8
0
 62
     0
100
AcDbTrace
 10
8.138963202893219
 20
4.153110275044026
 30
0.0
 11
8.139143255728106
 21
4.152782880701087
 31
0.0
 12
8.138963202893224
 22
4.152372156093623
 32
0.0
 13
8.138963202893224
 23
4.152372156093623
 33
0.0
  0
SOLID
  5
20E8
330
20E5
100
AcDbEntity
  8
0
 62
     0
100
AcDbTrace
 10
8.138963202893224
 20
4.152372156093623
 30
0.0
 11
8.138028867975624
 21
4.151884078297518
 31
0.0
 12
8.136896703462809
 22
4.151631537884072
 32
0.0
 13
8.136896703462809
 23
4.151631537884072
 33
0.0
  0
SOLID
  5
20E9
330
20E5
100
AcDbEntity
  8
0
 62
     0
100
AcDbTrace
 10
8.138963202893224
 20
4.152372156093623
 30
0.0
 11
8.136896703462809
 21
4.151631537884072
 31
0.0
 12
8.135333985407216
 22
4.151529040414927
 32
0.0
 13
8.135333985407216
 23
4.151529040414927
 33
0.0
  0
SOLID
  5
20EA
330
20E5
100
AcDbEntity
  8
0
 62
     0
100
AcDbTrace
 10
8.138963202893224
 20
4.152372156093623
 30
0.0
 11
8.135333985407216
 21
4.151529040414927
 31
0.0
 12
8.133771267351626
 22
4.151631537884071
 32
0.0
 13
8.133771267351626
 23
4.151631537884071
 33
0.0
  0
SOLID
  5
20EB
330
20E5
100
AcDbEntity
  8
0
 62
     0
100
AcDbTrace
 10
8.138963202893224
 20
4.152372156093623
 30
0.0
 11
8.133771267351626
 21
4.151631537884071
 31
0.0
 12
8.132639102838806
 22
4.15188407829752
 32
0.0
 13
8.132639102838806
 23
4.15188407829752
 33
0.0
  0
SOLID
  5
20EC
330
20E5
100
AcDbEntity
  8
0
 62
     0
100
AcDbTrace
 10
8.138963202893224
 20
4.152372156093623
 30
0.0
 11
8.132639102838806
 21
4.15188407829752
 31
0.0
 12
8.131704767921211
 22
4.152372156093618
 32
0.0
 13
8.131704767921211
 23
4.152372156093618
 33
0.0
  0
SOLID
  5
20ED
330
20E5
100
AcDbEntity
  8
0
 62
     0
100
AcDbTrace
 10
8.138963202893224
 20
4.152372156093623
 30
0.0
 11
8.131704767921211
 21
4.152372156093618
 31
0.0
 12
8.131522845929975
 22
4.152741215568822
 32
0.0
 13
8.131522845929975
 23
4.152741215568822
 33
0.0
  0
SOLID
  5
20EE
330
20E5
100
AcDbEntity
  8
0
 62
     0
100
AcDbTrace
 10
8.138963202893224
 20
4.152372156093623
 30
0.0
 11
8.131522845929975
 21
4.152741215568822
 31
0.0
 12
8.13170476792121
 22
4.153110275044022
 32
0.0
 13
8.13170476792121
 23
4.153110275044022
 33
0.0
  0
SOLID
  5
20EF
330
20E5
100
AcDbEntity
  8
0
 62
     0
100
AcDbTrace
 10
8.138963202893224
 20
4.152372156093623
 30
0.0
 11
8.13170476792121
 21
4.153110275044022
 31
0.0
 12
8.132639102838815
 22
4.153598352840128
 32
0.0
 13
8.132639102838815
 23
4.153598352840128
 33
0.0
  0
SOLID
  5
20F0
330
20E5
100
AcDbEntity
  8
0
 62
     0
100
AcDbTrace
 10
8.138963202893224
 20
4.152372156093623
 30
0.0
 11
8.132639102838815
 21
4.153598352840128
 31
0.0
 12
8.133771267351617
 22
4.153850893253571
 32
0.0
 13
8.133771267351617
 23
4.153850893253571
 33
0.0
  0
SOLID
  5
20F1
330
20E5
100
AcDbEntity
  8
0
 62
     0
100
AcDbTrace
 10
8.138963202893224
 20
4.152372156093623
 30
0.0
 11
8.133771267351617
 21
4.153850893253571
 31
0.0
 12
8.135333985407216
 22
4.153953390722717
 32
0.0
 13
8.135333985407216
 23
4.153953390722717
 33
0.0
  0
SOLID
  5
20F2
330
20E5
100
AcDbEntity
  8
0
 62
     0
100
AcDbTrace
 10
8.138963202893224
 20
4.152372156093623
 30
0.0
 11
8.135333985407216
 21
4.153953390722717
 31
0.0
 12
8.136896703462786
 22
4.153850893253575
 32
0.0
 13
8.136896703462786
 23
4.153850893253575
 33
0.0
  0
SOLID
  5
20F3
330
20E5
100
AcDbEntity
  8
0
 62
     0
100
AcDbTrace
 10
8.138963202893224
 20
4.152372156093623
 30
0.0
 11
8.136896703462786
 21
4.153850893253575
 31
0.0
 12
8.138028867975622
 22
4.153598352840125
 32
0.0
 13
8.138028867975622
 23
4.153598352840125
 33
0.0
  0
SOLID
  5
20F4
330
20E5
100
AcDbEntity
  8
0
 62
     0
100
AcDbTrace
 10
8.138963202893224
 20
4.152372156093623
 30
0.0
 11
8.138028867975622
 21
4.153598352840125
 31
0.0
 12
8.138963202829472
 22
4.153110275044026
 32
0.0
 13
8.138963202829472
 23
4.153110275044026
 33
0.0
  0
ENDBLK
  5
20F5
330
20E5
100
AcDbEntity
  8
0
100
AcDbBlockEnd
  0
BLOCK
  5
2110
330
210F
100
AcDbEntity
  8
0
100
AcDbBlockBegin
  2
*U6
 70
     1
 10
0.0
 20
0.0
 30
0.0
  3
*U6
  1
*ANON
  0
SOLID
  5
2111
330
210F
100
AcDbEntity
  8
0
 62
     0
100
AcDbTrace
 10
10.74374552241409
 20
2.948978086593869
 30
0.0
 11
10.79790404618198
 21
2.948978086593869
 31
0.0
 12
10.79790404618198
 22
2.93897808659387
 32
0.0
 13
10.79790404618198
 23
2.93897808659387
 33
0.0
  0
SOLID
  5
2112
330
210F
100
AcDbEntity
  8
0
 62
     0
100
AcDbTrace
 10
10.74374552234076
 20
2.948978086593869
 30
0.0
 11
10.79790404618198
 21
2.93897808659387
 31
0.0
 12
10.74374552241409
 22
2.93897808659387
 32
0.0
 13
10.74374552241409
 23
2.93897808659387
 33
0.0
  0
ENDBLK
  5
2113
330
210F
100
AcDbEntity
  8
0
100
AcDbBlockEnd
  0
BLOCK
  5
2115
330
2114
100
AcDbEntity
  8
0
100
AcDbBlockBegin
  2
*U7
 70
     1
 10
0.0
 20
0.0
 30
0.0
  3
*U7
  1
*ANON
  0
ARC
  5
2116
330
2114
100
AcDbEntity
  8
0
  6
ByBlock
 62
     0
100
AcDbCircle
 10
11.08086649531184
 20
1.522311419927204
 30
0.0
 40
0.0273333333333335
100
AcDbArc
 50
209.1964044096785
 51
270.0
  0
ARC
  5
2117
330
2114
100
AcDbEntity
  8
0
  6
ByBlock
 62
     0
100
AcDbCircle
 10
11.08086649531184
 20
1.522311419927204
 30
0.0
 40
0.0553333333333335
100
AcDbArc
 50
193.9434348608377
 51
254.5483065693508
  0
ARC
  5
2118
330
2114
100
AcDbEntity
  8
0
  6
ByBlock
 62
     0
100
AcDbCircle
 10
11.08086649531184
 20
1.522311419927204
 30
0.0
 40
0.0833333333333335
100
AcDbArc
 50
189.2068962213478
 51
219.7918194995779
  0
ARC
  5
2119
330
2114
100
AcDbEntity
  8
0
  6
ByBlock
 62
     0
100
AcDbCircle
 10
11.08086649531184
 20
1.522311419927204
 30
0.0
 40
0.1113333333333335
100
AcDbArc
 50
186.8782793511645
 51
208.6228467300182
  0
ARC
  5
211A
330
2114
100
AcDbEntity
  8
0
  6
ByBlock
 62
     0
100
AcDbCircle
 10
11.08086649531184
 20
1.522311419927204
 30
0.0
 40
0.1393333333333335
100
AcDbArc
 50
185.4912524022715
 51
202.5056862398086
  0
ARC
  5
211B
330
2114
100
AcDbEntity
  8
0
  6
ByBlock
 62
     0
100
AcDbCircle
 10
11.08086649531184
 20
1.522311419927204
 30
0.0
 40
0.1673333333333335
100
AcDbArc
 50
184.5702456483737
 51
198.5858418267901
  0
ARC
  5
211C
330
2114
100
AcDbEntity
  8
0
  6
ByBlock
 62
     0
100
AcDbCircle
 10
11.08086649531184
 20
1.522311419927204
 30
0.0
 40
0.1953333333333335
100
AcDbArc
 50
183.9140181923181
 51
195.8450985955663
  0
ARC
  5
211D
330
2114
100
AcDbEntity
  8
0
  6
ByBlock
 62
     0
100
AcDbCircle
 10
11.08086649531184
 20
1.522311419927204
 30
0.0
 40
0.2233333333333335
100
AcDbArc
 50
183.4226788343221
 51
193.8160784752645
  0
ARC
  5
211E
330
2114
100
AcDbEntity
  8
0
  6
ByBlock
 62
     0
100
AcDbCircle
 10
11.08086649531184
 20
1.522311419927204
 30
0.0
 40
0.2513333333333335
100
AcDbArc
 50
183.0409914386517
 51
192.2514024131566
  0
ENDBLK
  5
211F
330
2114
100
AcDbEntity
  8
0
100
AcDbBlockEnd
  0
BLOCK
  5
2121
330
2120
100
AcDbEntity
  8
0
100
AcDbBlockBegin
  2
*U8
 70
     1
 10
0.0
 20
0.0
 30
0.0
  3
*U8
  1
*ANON
  0
SOLID
  5
2122
330
2120
100
AcDbEntity
  8
0
 62
     0
100
AcDbTrace
 10
10.74374552241409
 20
1.468978086593871
 30
0.0
 11
10.79790404618198
 21
1.468978086593871
 31
0.0
 12
10.79790404618198
 22
1.47897808659387
 32
0.0
 13
10.79790404618198
 23
1.47897808659387
 33
0.0
  0
SOLID
  5
2123
330
2120
100
AcDbEntity
  8
0
 62
     0
100
AcDbTrace
 10
10.74374552241409
 20
1.468978086593871
 30
0.0
 11
10.79790404618198
 21
1.47897808659387
 31
0.0
 12
10.74374552241409
 22
1.47897808659387
 32
0.0
 13
10.74374552241409
 23
1.47897808659387
 33
0.0
  0
ENDBLK
  5
2124
330
2120
100
AcDbEntity
  8
0
100
AcDbBlockEnd
  0
BLOCK
  5
2126
330
2125
100
AcDbEntity
  8
0
100
AcDbBlockBegin
  2
*U9
 70
     1
 10
0.0
 20
0.0
 30
0.0
  3
*U9
  1
*ANON
  0
SOLID
  5
2127
330
2125
100
AcDbEntity
  8
0
 62
     0
100
AcDbTrace
 10
11.42238494071866
 20
0.6709033483772622
 30
0.0
 11
11.42238494071866
 21
0.6167448246093752
 31
0.0
 12
11.43238494071866
 22
0.616744824609377
 32
0.0
 13
11.43238494071866
 23
0.616744824609377
 33
0.0
  0
SOLID
  5
2128
330
2125
100
AcDbEntity
  8
0
 62
     0
100
AcDbTrace
 10
11.42238494071866
 20
0.6709033483772622
 30
0.0
 11
11.43238494071866
 21
0.616744824609377
 31
0.0
 12
11.43238494071866
 22
0.6709033483772622
 32
0.0
 13
11.43238494071866
 23
0.6709033483772622
 33
0.0
  0
ENDBLK
  5
2129
330
2125
100
AcDbEntity
  8
0
100
AcDbBlockEnd
  0
BLOCK
  5
2413
330
2405
100
AcDbEntity
  8
0
100
AcDbBlockBegin
  2
SOLBET_Bloczek_OPTIMAL_240x240x590_P+W_PRA
 70
     2
 10
0.0
 20
0.0
 30
0.0
  3
SOLBET_Bloczek_OPTIMAL_240x240x590_P+W_PRA
  1

  0
ATTDEF
  5
2406
330
2405
100
AcDbEntity
  8
SOLBET_Wymiary_Opisy
100
AcDbText
 10
-0.0000000878742412
 20
6.303237404038322
 30
0.0
 40
0.9913121336814832
  1
240x240x590
  7
Solbet_1
100
AcDbAttributeDefinition
  3

  2
WYMIARY
 70
     3
1001
AcDbAttr
1070
     0
1070
     1
  0
ATTDEF
  5
2407
330
2405
100
AcDbEntity
  8
SOLBET_Wymiary_Opisy
100
AcDbText
 10
-0.0000000878742412
 20
4.790717996322224
 30
0.0
 40
0.9913121336814832
  1
400, 500, 600, 700
  7
Solbet_1
100
AcDbAttributeDefinition
  3

  2
KLASA_GĘSTOŚCI
 70
     9
1001
AcDbAttr
1070
     0
1070
     1
  0
ATTDEF
  5
2408
330
2405
100
AcDbEntity
  8
SOLBET_Wymiary_Opisy
100
AcDbText
 10
-0.0000000878742412
 20
3.269569161109998
 30
0.0
 40
0.9913121336814832
  1
pióra+wpusty
  7
Solbet_1
100
AcDbAttributeDefinition
  3

  2
PROFILOWANIE
 70
    11
1001
AcDbAttr
1070
     0
1070
     1
  0
ATTDEF
  5
2409
330
2405
100
AcDbEntity
  8
SOLBET_Wymiary_Opisy
100
AcDbText
 10
-0.0000000878742412
 20
0.2448647517692188
 30
0.0
 40
0.9913121336814832
  1
SOLBET
  7
Solbet_1
100
AcDbAttributeDefinition
  3

  2
FIRMA
 70
     3
1001
AcDbAttr
1070
     0
1070
     1
  0
ATTDEF
  5
240A
330
2405
100
AcDbEntity
  8
SOLBET_Wymiary_Opisy
100
AcDbText
 10
-0.0000000878742412
 20
9.333547402386153
 30
0.0
 40
0.9913121336814832
  1
Bloczek
  7
Solbet_1
100
AcDbAttributeDefinition
  3
Nazwa
  2
NAZWA
 70
     3
1001
AcDbAttr
1070
     0
1070
     1
  0
ATTDEF
  5
240B
330
2405
100
AcDbEntity
  8
SOLBET_Wymiary_Opisy
100
AcDbText
 10
-0.0000000878742412
 20
7.794499222151949
 30
0.0
 40
0.9913121336814832
  1
SOLBET OPTIMAL
  7
Solbet_1
100
AcDbAttributeDefinition
  3

  2
SYSTEM
 70
     3
1001
AcDbAttr
1070
     0
1070
     1
  0
ATTDEF
  5
240C
330
2405
100
AcDbEntity
  8
SOLBET_Wymiary_Opisy
100
AcDbText
 10
-0.0000000878742412
 20
1.744181511296331
 30
0.0
 40
0.9913121336814832
  1
Prawo
  7
Solbet_1
100
AcDbAttributeDefinition
  3

  2
WIDOK
 70
    11
1001
AcDbAttr
1070
     0
1070
     1
  0
LINE
  5
240D
330
2405
100
AcDbEntity
  8
SOLBET_Bloczki
100
AcDbLine
 10
12.00000017574848
 20
11.99999995881262
 30
0.0
 11
12.00000017574848
 21
-0.0000000411874908
 31
0.0
  0
LINE
  5
240E
330
2405
100
AcDbEntity
  8
SOLBET_Bloczki
100
AcDbLine
 10
12.00000017574848
 20
11.99999995881262
 30
0.0
 11
0.0000001757484824
 21
11.99999995881262
 31
0.0
  0
LINE
  5
240F
330
2405
100
AcDbEntity
  8
SOLBET_Bloczki
100
AcDbLine
 10
0.0000001757484824
 20
11.99999995881262
 30
0.0
 11
0.0000001757484824
 21
-0.0000000411873771
 31
0.0
  0
LINE
  5
2410
330
2405
100
AcDbEntity
  8
SOLBET_Bloczki
100
AcDbLine
 10
0.0000001757484824
 20
-0.0000000411873771
 30
0.0
 11
12.00000017574848
 21
-0.0000000411874908
 31
0.0
  0
ENDBLK
  5
2414
330
2405
100
AcDbEntity
  8
0
100
AcDbBlockEnd
  0
BLOCK
  5
248C
330
2480
100
AcDbEntity
  8
0
100
AcDbBlockBegin
  2
SOLBET_Nadproze_140_12_1400x240x120_PRA
 70
     2
 10
0.0
 20
0.0
 30
0.0
  3
SOLBET_Nadproze_140_12_1400x240x120_PRA
  1

  0
ATTDEF
  5
2481
330
2480
100
AcDbEntity
  8
SOLBET_Wymiary_Opisy
100
AcDbText
 10
-0.0000002754209163
 20
4.914367003308234
 30
0.0
 40
0.9913121336814832
  1
1400x240x120
  7
Solbet_1
100
AcDbAttributeDefinition
  3

  2
WYMIARY
 70
     3
1001
AcDbAttr
1070
     0
1070
     1
  0
ATTDEF
  5
2482
330
2480
100
AcDbEntity
  8
SOLBET_Wymiary_Opisy
100
AcDbText
 10
0.0000001377104581
 20
3.269569171638422
 30
0.0
 40
0.9913121336814832
  1
20
  7
Solbet_1
100
AcDbAttributeDefinition
  3

  2
DŁUGOŚĆ_PODPARCIA_1
 70
    11
1001
AcDbAttr
1070
     0
1070
     1
  0
ATTDEF
  5
2483
330
2480
100
AcDbEntity
  8
SOLBET_Wymiary_Opisy
100
AcDbText
 10
0.0000001377104581
 20
0.2448647622976432
 30
0.0
 40
0.9913121336814832
  1
SOLBET
  7
Solbet_1
100
AcDbAttributeDefinition
  3

  2
FIRMA
 70
     3
1001
AcDbAttr
1070
     0
1070
     1
  0
ATTDEF
  5
2484
330
2480
100
AcDbEntity
  8
SOLBET_Wymiary_Opisy
100
AcDbText
 10
-0.0000002754209163
 20
6.505718915794942
 30
0.0
 40
0.9913121336814832
  1
Nadproże 140/12
  7
Solbet_1
100
AcDbAttributeDefinition
  3
Nazwa
  2
NAZWA
 70
     3
1001
AcDbAttr
1070
     0
1070
     1
  0
ATTDEF
  5
2485
330
2480
100
AcDbEntity
  8
SOLBET_Wymiary_Opisy
100
AcDbText
 10
0.0000001377104581
 20
1.744181521824755
 30
0.0
 40
0.9913121336814832
  1
Prawo
  7
Solbet_1
100
AcDbAttributeDefinition
  3

  2
WIDOK
 70
    11
1001
AcDbAttr
1070
     0
1070
     1
  0
LINE
  5
2486
330
2480
100
AcDbEntity
  8
SOLBET_Bloczki
100
AcDbLine
 10
5.999999594097516
 20
11.99999987551155
 30
0.0
 11
5.999999594097516
 21
-0.0000001244884515
 31
0.0
  0
LINE
  5
2487
330
2480
100
AcDbEntity
  8
SOLBET_Bloczki
100
AcDbLine
 10
5.999999594097516
 20
-0.0000001244884515
 30
0.0
 11
-0.0000004059024832
 21
-0.0000001244884515
 31
0.0
  0
LINE
  5
2488
330
2480
100
AcDbEntity
  8
SOLBET_Bloczki
100
AcDbLine
 10
-0.0000004059024832
 20
-0.0000001244884515
 30
0.0
 11
-0.0000004059024832
 21
11.99999987551155
 31
0.0
  0
LINE
  5
2489
330
2480
100
AcDbEntity
  8
SOLBET_Bloczki
100
AcDbLine
 10
-0.0000004059024832
 20
11.99999987551155
 30
0.0
 11
5.999999594097516
 21
11.99999987551155
 31
0.0
  0
ENDBLK
  5
248D
330
2480
100
AcDbEntity
  8
0
100
AcDbBlockEnd
  0
BLOCK
  5
2906
330
28F3
100
AcDbEntity
  8
0
100
AcDbBlockBegin
  2
SOLBET_Nadproze_120x240x1400_zz_PRA
 70
     2
 10
0.0
 20
0.0
 30
0.0
  3
SOLBET_Nadproze_120x240x1400_zz_PRA
  1

  0
ATTDEF
  5
28F4
330
28F3
100
AcDbEntity
  8
SOLBET_Wymiary_Opisy
100
AcDbText
 10
-0.0000002754209163
 20
4.914367003308234
 30
0.0
 40
0.9913121336814832
  1
120x240x1400
  7
Solbet_1
100
AcDbAttributeDefinition
  3

  2
WYMIARY
 70
    11
1001
AcDbAttr
1070
     0
1070
     1
  0
ATTDEF
  5
28F5
330
28F3
100
AcDbEntity
  8
SOLBET_Wymiary_Opisy
100
AcDbText
 10
0.0000001377104581
 20
3.269569171638422
 30
0.0
 40
0.9913121336814832
  1
20
  7
Solbet_1
100
AcDbAttributeDefinition
  3

  2
DŁUGOŚĆ_PODPARCIA_1
 70
    11
1001
AcDbAttr
1070
     0
1070
     1
  0
ATTDEF
  5
28F6
330
28F3
100
AcDbEntity
  8
SOLBET_Wymiary_Opisy
100
AcDbText
 10
0.0000001377104581
 20
0.2448647622976432
 30
0.0
 40
0.9913121336814832
  1
SOLBET
  7
Solbet_1
100
AcDbAttributeDefinition
  3

  2
FIRMA
 70
    11
1001
AcDbAttr
1070
     0
1070
     1
  0
ATTDEF
  5
28F7
330
28F3
100
AcDbEntity
  8
SOLBET_Wymiary_Opisy
100
AcDbText
 10
-0.0000002754209163
 20
6.505718915794942
 30
0.0
 40
0.9913121336814832
  1
Nadproże 140/12
  7
Solbet_1
100
AcDbAttributeDefinition
  3
Nazwa
  2
NAZWA
 70
    11
1001
AcDbAttr
1070
     0
1070
     1
  0
ATTDEF
  5
28F8
330
28F3
100
AcDbEntity
  8
SOLBET_Wymiary_Opisy
100
AcDbText
 10
0.0000001377104581
 20
1.744181521824755
 30
0.0
 40
0.9913121336814832
  1
Prawo
  7
Solbet_1
100
AcDbAttributeDefinition
  3

  2
WIDOK
 70
    11
1001
AcDbAttr
1070
     0
1070
     1
  0
LINE
  5
28F9
330
28F3
100
AcDbEntity
  8
SOLBET_Bloczki
100
AcDbLine
 10
5.999999594097516
 20
11.99999987551155
 30
0.0
 11
5.999999594097516
 21
-0.0000001244884515
 31
0.0
  0
LINE
  5
28FA
330
28F3
100
AcDbEntity
  8
SOLBET_Bloczki
100
AcDbLine
 10
5.999999594097516
 20
-0.0000001244884515
 30
0.0
 11
-0.0000004059024832
 21
-0.0000001244884515
 31
0.0
  0
LINE
  5
28FB
330
28F3
100
AcDbEntity
  8
SOLBET_Bloczki
100
AcDbLine
 10
-0.0000004059024832
 20
-0.0000001244884515
 30
0.0
 11
-0.0000004059024832
 21
11.99999987551155
 31
0.0
  0
LINE
  5
28FC
330
28F3
100
AcDbEntity
  8
SOLBET_Bloczki
100
AcDbLine
 10
-0.0000004059024832
 20
11.99999987551155
 30
0.0
 11
5.999999594097516
 21
11.99999987551155
 31
0.0
  0
LWPOLYLINE
  5
28FD
330
28F3
100
AcDbEntity
  8
SOLBET_Zbrojenie_Konstrukcja
  6
Continuous
100
AcDbPolyline
 90
        4
 70
     0
 43
0.0
 10
5.249998918748815
 20
10.74999987551166
 10
5.249998918748815
 20
0.7499998755115485
 10
0.7499989187488155
 20
0.7499998755115485
 10
0.7499989187488155
 20
10.74999987551166
  0
LWPOLYLINE
  5
28FE
330
28F3
100
AcDbEntity
  8
SOLBET_Zbrojenie_Konstrukcja
  6
Continuous
100
AcDbPolyline
 90
        2
 70
     1
 43
0.3
 10
5.104412450089967
 20
10.42241386794614
 42
-1.0
 10
4.804412450089785
 20
10.42241386794614
 42
-1.0
  0
LWPOLYLINE
  5
28FF
330
28F3
100
AcDbEntity
  8
SOLBET_Zbrojenie_Konstrukcja
  6
Continuous
100
AcDbPolyline
 90
        2
 70
     1
 43
0.3
 10
0.8955853874078911
 20
10.42241386794614
 42
1.0
 10
1.195585387407845
 20
10.42241386794614
 42
1.0
  0
LWPOLYLINE
  5
2900
330
28F3
100
AcDbEntity
  8
SOLBET_Zbrojenie_Konstrukcja
  6
Continuous
100
AcDbPolyline
 90
        2
 70
     1
 43
0.3
 10
5.104412450089967
 20
2.418619077883477
 42
-1.0
 10
4.804412450089785
 20
2.418619077883477
 42
-1.0
  0
LWPOLYLINE
  5
2901
330
28F3
100
AcDbEntity
  8
SOLBET_Zbrojenie_Konstrukcja
  6
Continuous
100
AcDbPolyline
 90
        2
 70
     1
 43
0.3
 10
0.8955853874078911
 20
2.418619077883477
 42
1.0
 10
1.195585387407845
 20
2.418619077883477
 42
1.0
  0
LWPOLYLINE
  5
2902
330
28F3
100
AcDbEntity
  8
SOLBET_Zbrojenie_Konstrukcja
  6
Continuous
100
AcDbPolyline
 90
        2
 70
     1
 43
0.3
 10
4.185083775025077
 20
1.061575122894964
 42
-1.0
 10
3.885083775025123
 20
1.061575122894964
 42
-1.0
  0
LWPOLYLINE
  5
2903
330
28F3
100
AcDbEntity
  8
SOLBET_Zbrojenie_Konstrukcja
  6
Continuous
100
AcDbPolyline
 90
        2
 70
     1
 43
0.3
 10
1.814914062472325
 20
1.061575122894964
 42
1.0
 10
2.114914062472507
 20
1.061575122894964
 42
1.0
  0
ENDBLK
  5
2907
330
28F3
100
AcDbEntity
  8
0
100
AcDbBlockEnd
  0
BLOCK
  5
2917
330
290A
100
AcDbEntity
  8
0
100
AcDbBlockBegin
  2
SOLBET_Bloczek_Optimal_240x240x590_G_KG500_PRA
 70
     2
 10
0.0
 20
0.0
 30
0.0
  3
SOLBET_Bloczek_Optimal_240x240x590_G_KG500_PRA
  1

  0
ATTDEF
  5
290B
330
290A
100
AcDbEntity
  8
SOLBET_Wymiary_Opisy
100
AcDbText
 10
0.0000001757484824
 20
4.927022981232882
 30
0.0
 40
0.9913121336814832
  1
240x240x590
  7
Solbet_1
100
AcDbAttributeDefinition
  3

  2
WYMIARY
 70
    11
1001
AcDbAttr
1070
     0
1070
     1
  0
ATTDEF
  5
290C
330
290A
100
AcDbEntity
  8
SOLBET_Wymiary_Opisy
100
AcDbText
 10
0.0000001757484824
 20
3.414503573516785
 30
0.0
 40
0.9913121336814832
  1
500
  7
Solbet_1
100
AcDbAttributeDefinition
  3

  2
KLASA_GĘSTOŚCI
 70
    11
1001
AcDbAttr
1070
     0
1070
     1
  0
ATTDEF
  5
290D
330
290A
100
AcDbEntity
  8
SOLBET_Wymiary_Opisy
100
AcDbText
 10
-0.0000000878742412
 20
0.2448647517692188
 30
0.0
 40
0.9913121336814832
  1
SOLBET
  7
Solbet_1
100
AcDbAttributeDefinition
  3

  2
FIRMA
 70
    11
1001
AcDbAttr
1070
     0
1070
     1
  0
ATTDEF
  5
290E
330
290A
100
AcDbEntity
  8
SOLBET_Wymiary_Opisy
100
AcDbText
 10
0.0000001757484824
 20
7.957332979580714
 30
0.0
 40
0.9913121336814832
  1
Bloczek
  7
Solbet_1
100
AcDbAttributeDefinition
  3
Nazwa
  2
NAZWA
 70
    11
1001
AcDbAttr
1070
     0
1070
     1
  0
ATTDEF
  5
290F
330
290A
100
AcDbEntity
  8
SOLBET_Wymiary_Opisy
100
AcDbText
 10
0.0000001757484824
 20
6.418284799346509
 30
0.0
 40
0.9913121336814832
  1
SOLBET Optimal
  7
Solbet_1
100
AcDbAttributeDefinition
  3

  2
SYSTEM
 70
    11
1001
AcDbAttr
1070
     0
1070
     1
  0
ATTDEF
  5
2910
330
290A
100
AcDbEntity
  8
SOLBET_Wymiary_Opisy
100
AcDbText
 10
-0.0000000878742412
 20
1.744181511296331
 30
0.0
 40
0.9913121336814832
  1
Prawo
  7
Solbet_1
100
AcDbAttributeDefinition
  3

  2
WIDOK
 70
    11
1001
AcDbAttr
1070
     0
1070
     1
  0
LINE
  5
2911
330
290A
100
AcDbEntity
  8
SOLBET_Bloczki
100
AcDbLine
 10
12.00000017574848
 20
11.99999995881262
 30
0.0
 11
12.00000017574848
 21
-0.0000000411874908
 31
0.0
  0
LINE
  5
2912
330
290A
100
AcDbEntity
  8
SOLBET_Bloczki
100
AcDbLine
 10
12.00000017574848
 20
11.99999995881262
 30
0.0
 11
0.0000001757484824
 21
11.99999995881262
 31
0.0
  0
LINE
  5
2913
330
290A
100
AcDbEntity
  8
SOLBET_Bloczki
100
AcDbLine
 10
0.0000001757484824
 20
11.99999995881262
 30
0.0
 11
0.0000001757484824
 21
-0.0000000411873771
 31
0.0
  0
LINE
  5
2914
330
290A
100
AcDbEntity
  8
SOLBET_Bloczki
100
AcDbLine
 10
0.0000001757484824
 20
-0.0000000411873771
 30
0.0
 11
12.00000017574848
 21
-0.0000000411874908
 31
0.0
  0
ENDBLK
  5
2918
330
290A
100
AcDbEntity
  8
0
100
AcDbBlockEnd
  0
ENDSEC
  0
SECTION
  2
ENTITIES
  0
LWPOLYLINE
  5
1DBF
330
1F
100
AcDbEntity
  8
SOLBET_Ramka_05
100
AcDbPolyline
 90
        4
 70
     1
 43
0.0
 10
0.0796627706477011
 20
0.0177462323606506
 10
334.4314368627376
 20
0.0177462323606506
 10
334.4314368627376
 20
297.0177462323606
 10
0.0796627706477011
 20
297.0177462323606
  0
LINE
  5
22DC
330
1F
100
AcDbEntity
  8
SOLBET_Wymiary_Opisy
 62
     1
100
AcDbLine
 10
50.58809961562406
 20
153.5487539151697
 30
0.0
 11
137.9875195022371
 21
153.5487539151697
 31
0.0
  0
INSERT
  5
22E3
330
1F
100
AcDbEntity
  8
SOLBET_Zbrojenie_Konstrukcja
100
AcDbBlockReference
  2
*U5
 10
-331.8527502800696
 20
-106.7190439239499
 30
0.0
 41
50.0
 42
50.0
 43
50.0
1001
ASO_SCHRAFF
1005
0
1070
     0
1005
0
  0
INSERT
  5
22E6
330
1F
100
AcDbEntity
  8
SOLBET_Zbrojenie_Konstrukcja
100
AcDbBlockReference
  2
*U5
 10
475.2586345943207
 20
-106.7190439239499
 30
0.0
 41
-50.0
 42
50.0
 43
50.0
1001
ASO_SCHRAFF
1005
0
1070
     0
1005
0
  0
LINE
  5
22E9
330
1F
100
AcDbEntity
  8
SOLBET_Wymiary_Opisy
 62
     1
100
AcDbLine
 10
137.9875195022371
 20
247.6025086948748
 30
0.0
 11
137.9875195022371
 21
69.13066214519523
 31
0.0
  0
LWPOLYLINE
  5
22EA
330
1F
100
AcDbEntity
  8
SOLBET_Zbrojenie_Konstrukcja
  6
Continuous
100
AcDbPolyline
 90
        2
 70
     1
 43
0.3
 10
66.5289982795241
 20
216.811610044654
 42
1.0
 10
66.82899827952383
 20
216.811610044654
 42
1.0
  0
LWPOLYLINE
  5
22EB
330
1F
100
AcDbEntity
  8
SOLBET_Zbrojenie_Konstrukcja
  6
Continuous
100
AcDbPolyline
 90
        2
 70
     1
 43
0.3
 10
71.92364224273956
 20
216.7899903695727
 42
1.0
 10
72.22364224273974
 20
216.7899903695727
 42
1.0
  0
LWPOLYLINE
  5
22EC
330
1F
100
AcDbEntity
  8
SOLBET_Zbrojenie_Konstrukcja
  6
Continuous
100
AcDbPolyline
 90
        2
 70
     1
 43
0.3
 10
71.92364224273956
 20
206.9530784945119
 42
1.0
 10
72.22364224273974
 20
206.9530784945119
 42
1.0
  0
LWPOLYLINE
  5
22ED
330
1F
100
AcDbEntity
  8
SOLBET_Zbrojenie_Konstrukcja
  6
Continuous
100
AcDbPolyline
 90
        2
 70
     1
 43
0.3
 10
66.5289982795241
 20
206.9530784945119
 42
1.0
 10
66.82899827952383
 20
206.9530784945119
 42
1.0
  0
LINE
  5
22EE
330
1F
100
AcDbEntity
  8
SOLBET_Zbrojenie_Konstrukcja
  6
Continuous
100
AcDbLine
 10
68.97391835078519
 20
215.7226435318188
 30
0.0
 11
67.55970478841232
 21
217.1368570941918
 31
0.0
  0
LINE
  5
22EF
330
1F
100
AcDbEntity
  8
SOLBET_Zbrojenie_Konstrukcja
  6
Continuous
100
AcDbLine
 10
67.77391835078493
 20
214.522643531819
 30
0.0
 11
66.3597047884125
 21
215.936857094192
 31
0.0
  0
LWPOLYLINE
  5
22F0
330
1F
100
AcDbEntity
  8
SOLBET_Zbrojenie_Konstrukcja
  6
Continuous
100
AcDbPolyline
 90
        5
 70
     0
 43
0.0
 10
72.36533608251988
 20
206.6368570941918
 10
72.36533608251988
 20
217.1368570941918
 10
66.3597047884125
 20
217.1368570941918
 10
66.3597047884125
 20
206.6368570941918
 10
72.36533608251988
 20
206.6368570941918
  0
LINE
  5
22F2
330
1F
100
AcDbEntity
  8
SOLBET_Wymiary_Opisy
 62
     1
100
AcDbLine
 10
49.49627459138787
 20
247.6025086948748
 30
0.0
 11
137.9875195022371
 21
247.6025086948748
 31
0.0
  0
LWPOLYLINE
  5
22F5
330
1F
100
AcDbEntity
  8
SOLBET_Stolarka_Okna
100
AcDbPolyline
 90
        4
 70
     1
 43
0.0
 10
68.56952855277246
 20
116.4106730328472
 10
69.93133429246268
 20
116.061624657015
 10
69.93133429245677
 20
115.209268868414
 10
68.56952855277246
 20
115.209268868414
  0
LWPOLYLINE
  5
22F6
330
1F
100
AcDbEntity
  8
SOLBET_Stolarka_Okna
100
AcDbPolyline
 90
       15
 70
     1
 43
0.0
 10
65.4885980263341
 20
108.3868570941916
 10
68.98859802632864
 20
108.3868570941916
 10
68.98859802632864
 20
111.5131777918815
 10
67.90446969531945
 20
111.5131777918815
 10
67.90446969531945
 20
112.3852452128006
 10
66.83074830084729
 20
112.3852452128006
 10
66.83074830084729
 20
113.3361235098488
 10
66.48508037658643
 20
113.3361235098488
 10
65.4885980263341
 20
113.1174893645519
 10
65.4885980263341
 20
111.5469270466875
 10
65.02544140725399
 20
111.284861879402
 10
65.02544140725399
 20
109.8791657419834
 10
65.2858224728077
 20
109.8791657419834
 10
65.2858224728077
 20
110.3997328712086
 10
65.4885980263341
 20
110.3997328712086
  0
LINE
  5
22F7
330
1F
100
AcDbEntity
  8
SOLBET_Wymiary_Opisy
 62
     1
100
AcDbLine
 10
50.58809961562406
 20
151.1068783006041
 30
0.0
 11
137.9875195022371
 21
151.1068783006041
 31
0.0
  0
LINE
  5
22F8
330
1F
100
AcDbEntity
  8
SOLBET_Stolarka_Okna
100
AcDbLine
 10
65.4885980263341
 20
181.3868570941916
 30
0.0
 11
68.98859802632864
 21
181.3868570941916
 31
0.0
  0
LINE
  5
22F9
330
1F
100
AcDbEntity
  8
SOLBET_Stolarka_Okna
100
AcDbLine
 10
68.98859802632864
 20
181.3868570941916
 30
0.0
 11
68.98859802632864
 21
178.2605363965017
 31
0.0
  0
LINE
  5
22FA
330
1F
100
AcDbEntity
  8
SOLBET_Stolarka_Okna
100
AcDbLine
 10
68.98859802632864
 20
178.2605363965017
 30
0.0
 11
67.90446969531945
 21
178.2605363965017
 31
0.0
  0
LINE
  5
22FB
330
1F
100
AcDbEntity
  8
SOLBET_Stolarka_Okna
100
AcDbLine
 10
67.90446969531945
 20
178.2605363965017
 30
0.0
 11
67.90446969531945
 21
177.3884689755828
 31
0.0
  0
LINE
  5
22FC
330
1F
100
AcDbEntity
  8
SOLBET_Stolarka_Okna
100
AcDbLine
 10
67.90446969531945
 20
177.3884689755828
 30
0.0
 11
66.83074830084729
 21
177.3884689755828
 31
0.0
  0
LINE
  5
22FD
330
1F
100
AcDbEntity
  8
SOLBET_Stolarka_Okna
100
AcDbLine
 10
66.83074830084729
 20
177.3884689755828
 30
0.0
 11
66.83074830084729
 21
176.4375906785347
 31
0.0
  0
LINE
  5
22FE
330
1F
100
AcDbEntity
  8
SOLBET_Stolarka_Okna
100
AcDbLine
 10
66.83074830084729
 20
176.4375906785347
 30
0.0
 11
66.48508037658643
 21
176.4375906785347
 31
0.0
  0
LINE
  5
22FF
330
1F
100
AcDbEntity
  8
SOLBET_Stolarka_Okna
100
AcDbLine
 10
66.48508037658643
 20
176.4375906785347
 30
0.0
 11
65.4885980263341
 21
176.6562248238316
 31
0.0
  0
LINE
  5
2300
330
1F
100
AcDbEntity
  8
SOLBET_Stolarka_Okna
100
AcDbLine
 10
65.4885980263341
 20
176.6562248238316
 30
0.0
 11
65.4885980263341
 21
181.3868570941916
 31
0.0
  0
LWPOLYLINE
  5
2301
330
1F
100
AcDbEntity
  8
SOLBET_Stolarka_Okna
100
AcDbPolyline
 90
       15
 70
     1
 43
0.0
 10
66.83074830084729
 20
114.1520428725679
 10
66.83074830084729
 20
113.4473013197371
 10
65.4885980263341
 20
113.4473013197371
 10
65.4885980263341
 20
116.2510733539214
 10
66.74888577522256
 20
116.6881517212986
 10
66.74888577522256
 20
115.1173370489251
 10
68.39127435711475
 20
115.1173370489251
 10
69.93133429246268
 20
115.1173370489251
 10
69.93133429246268
 20
111.22072801829
 10
69.23654355783288
 20
111.22072801829
 10
69.23654355783288
 20
113.4473013197373
 10
68.07174870844369
 20
113.4473013197373
 10
68.07174870844369
 20
112.7119201435303
 10
67.21347964389019
 20
112.7119201435303
 10
67.21347964389019
 20
114.1520428725679
  0
LWPOLYLINE
  5
2302
330
1F
100
AcDbEntity
  8
SOLBET_Stolarka_Okna
100
AcDbPolyline
 90
        4
 70
     1
 43
0.0
 10
68.56952855277246
 20
173.3630411555364
 10
69.93133429246268
 20
173.7120895313684
 10
69.93133429245677
 20
174.5644453199694
 10
68.56952855277246
 20
174.5644453199692
  0
LWPOLYLINE
  5
2303
330
1F
100
AcDbEntity
  8
SOLBET_Stolarka_Okna
100
AcDbPolyline
 90
       15
 70
     1
 43
0.0
 10
66.83074830084729
 20
175.6216713158153
 10
66.83074830084729
 20
176.3264128686461
 10
65.4885980263341
 20
176.3264128686461
 10
65.4885980263341
 20
173.522640834462
 10
66.74888577522256
 20
173.0855624670847
 10
66.74888577522256
 20
174.6563771394581
 10
68.39127435711475
 20
174.6563771394581
 10
69.93133429246268
 20
174.6563771394581
 10
69.93133429246268
 20
178.5529861700933
 10
69.23654355783288
 20
178.5529861700933
 10
69.23654355783288
 20
176.3264128686461
 10
68.07174870844369
 20
176.3264128686461
 10
68.07174870844369
 20
177.0617940448533
 10
67.21347964389019
 20
177.0617940448533
 10
67.21347964389019
 20
175.6216713158153
  0
LINE
  5
2304
330
1F
100
AcDbEntity
  8
SOLBET_Izolacja
100
AcDbLine
 10
68.63254938144132
 20
108.3868570941916
 30
0.0
 11
68.63254938144132
 21
107.8868570941918
 31
0.0
  0
LINE
  5
2308
330
1F
100
AcDbEntity
  8
SOLBET_Stolarka_Okna
100
AcDbLine
 10
65.38458270612068
 20
107.9751041155212
 30
0.0
 11
58.0492681195135
 21
107.9751041155212
 31
0.0
  0
LINE
  5
2309
330
1F
100
AcDbEntity
  8
SOLBET_Stolarka_Okna
100
AcDbLine
 10
54.89808285577942
 20
107.9751041155212
 30
0.0
 11
54.89808285577942
 21
108.2689288257136
 31
0.0
  0
LINE
  5
230A
330
1F
100
AcDbEntity
  8
SOLBET_Stolarka_Okna
100
AcDbLine
 10
65.34471763187207
 20
110.303411901593
 30
0.0
 11
65.34471763187207
 21
109.5625531463206
 31
0.0
  0
LINE
  5
230B
330
1F
100
AcDbEntity
  8
SOLBET_Stolarka_Okna
100
AcDbLine
 10
65.34471763187207
 20
109.5625531463206
 30
0.0
 11
51.76676546141312
 21
107.8811725363722
 31
0.0
  0
LINE
  5
230C
330
1F
100
AcDbEntity
  8
SOLBET_Stolarka_Okna
100
AcDbLine
 10
50.9398071109074
 20
106.8962580286398
 30
0.0
 11
50.9398071109074
 21
106.3238397656548
 31
0.0
  0
LINE
  5
230D
330
1F
100
AcDbEntity
  8
SOLBET_Stolarka_Okna
100
AcDbLine
 10
50.9398071109074
 20
106.3238397656548
 30
0.0
 11
51.2468889977597
 21
106.3238397656548
 31
0.0
  0
ARC
  5
230F
330
1F
100
AcDbEntity
  8
SOLBET_Stolarka_Okna
100
AcDbCircle
 10
51.93980711090148
 20
106.8962580286398
 30
0.0
 40
1.0
100
AcDbArc
 50
99.96471431078408
 51
180.0
  0
LINE
  5
2310
330
1F
100
AcDbEntity
  8
SOLBET_Stolarka_Okna
100
AcDbLine
 10
55.6517710126634
 20
108.3622592953628
 30
0.0
 11
55.6517710126634
 21
107.9751041155212
 31
0.0
  0
CIRCLE
  5
2311
330
1F
100
AcDbEntity
  8
SOLBET_Izolacja
100
AcDbCircle
 10
68.59656924807246
 20
108.1393005550658
 30
0.0
 40
0.25244346087405
  0
ARC
  5
2312
330
1F
100
AcDbEntity
  8
SOLBET_Izolacja
100
AcDbCircle
 10
69.30734319550015
 20
108.133881967527
 30
0.0
 40
0.4069335296814501
100
AcDbArc
 50
141.5623929961078
 51
217.3757720391886
  0
CIRCLE
  5
2315
330
1F
100
AcDbEntity
  8
SOLBET_Izolacja
100
AcDbCircle
 10
68.59656924807246
 20
181.6344136333176
 30
0.0
 40
0.25244346087405
  0
ARC
  5
2316
330
1F
100
AcDbEntity
  8
SOLBET_Izolacja
100
AcDbCircle
 10
69.30734319550015
 20
181.6398322208563
 30
0.0
 40
0.4069335296814501
100
AcDbArc
 50
142.6242279608113
 51
218.4376070038922
  0
LINE
  5
2317
330
1F
100
AcDbEntity
  8
SOLBET_Stolarka_Okna
100
AcDbLine
 10
66.94682406299875
 20
174.3952911902244
 30
0.0
 11
66.94682406299875
 21
153.5487539151697
 31
0.0
  0
LINE
  5
2318
330
1F
100
AcDbEntity
  8
SOLBET_Stolarka_Okna
100
AcDbLine
 10
68.40490007016228
 20
174.3952911902244
 30
0.0
 11
68.40490007016228
 21
153.5487539151697
 31
0.0
  0
LINE
  5
2319
330
1F
100
AcDbEntity
  8
SOLBET_Stolarka_Okna
100
AcDbLine
 10
66.94682406299875
 20
151.1068783006041
 30
0.0
 11
66.94682406299875
 21
115.3234382985279
 31
0.0
  0
LINE
  5
231A
330
1F
100
AcDbEntity
  8
SOLBET_Stolarka_Okna
100
AcDbLine
 10
68.40490007016228
 20
151.1068783006041
 30
0.0
 11
68.40490007016228
 21
115.3234382985279
 31
0.0
  0
LWPOLYLINE
  5
231C
330
1F
100
AcDbEntity
  8
SOLBET_Stolarka_Okna
100
AcDbPolyline
 90
        4
 70
     1
 43
0.0
 10
69.02608365286027
 20
107.8868570941918
 10
82.48859802632864
 20
107.8868570941918
 10
82.48859802632864
 20
109.8868570941916
 10
69.02608365286027
 20
109.8868570941916
1001
ASO_SCHRAFF
1005
0
1070
     1
1002
{
1070
     1
1005
0
1002
}
1002
{
1070
     2
1005
0
1002
}
1002
{
1070
     4
1000
SOFIHOLZ
1040
0.5
1040
0.0
1070
     0
1000
T__SCHR
1070
   256
1000
VONLAYER
1040
50.0
1070
     1
1002
}
  0
LINE
  5
231D
330
1F
100
AcDbEntity
  8
SOLBET_Wymiary_Opisy
 62
     1
100
AcDbLine
 10
51.0379927292281
 20
69.13066214519523
 30
0.0
 11
137.9875195022371
 21
69.13066214519523
 31
0.0
  0
LINE
  5
231E
330
1F
100
AcDbEntity
  8
SOLBET_Tynki_Posadzki
100
AcDbLine
 10
78.78666421751745
 20
223.7601639277472
 30
0.0
 11
78.78666421751745
 21
223.260163927747
 31
0.0
  0
ARC
  5
231F
330
1F
100
AcDbEntity
  8
SOLBET_Tynki_Posadzki
100
AcDbCircle
 10
77.9885980263341
 20
223.7601639277472
 30
0.0
 40
1.5000521396288
100
AcDbArc
 50
0.0
 51
90.0
  0
LINE
  5
2321
330
1F
100
AcDbEntity
  8
SOLBET_Izolacja
  6
Continuous
100
AcDbLine
 10
78.4885980263341
 20
223.260163927747
 30
0.0
 11
77.4885980263341
 21
223.260163927747
 31
0.0
  0
LINE
  5
2324
330
1F
100
AcDbEntity
  8
SOLBET_Tynki_Posadzki
100
AcDbLine
 10
78.78666421751745
 20
223.7601639277472
 30
0.0
 11
137.9875195022371
 21
223.7601639277472
 31
0.0
  0
LINE
  5
2327
330
1F
100
AcDbEntity
  8
SOLBET_Izolacja
  6
Continuous
100
AcDbLine
 10
78.4885980263341
 20
217.8868570941918
 30
0.0
 11
78.4885980263341
 21
223.260163927747
 31
0.0
  0
LINE
  5
2328
330
1F
100
AcDbEntity
  8
SOLBET_Izolacja
  6
Continuous
100
AcDbLine
 10
78.4885980263341
 20
220.386857094192
 30
0.0
 11
137.9875195022371
 21
220.3868570941918
 31
0.0
  0
LINE
  5
2329
330
1F
100
AcDbEntity
  8
SOLBET_Tynki_Posadzki
100
AcDbLine
 10
77.9885980263341
 20
223.260163927747
 30
0.0
 11
77.9885980263341
 21
247.6025086948748
 31
0.0
  0
LINE
  5
232B
330
1F
100
AcDbEntity
  8
SOLBET_Emulsje_Folie
100
AcDbLine
 10
78.60341407599548
 20
223.510163927747
 30
0.0
 11
78.60341407599548
 21
220.832696407764
 31
0.0
  0
LINE
  5
232C
330
1F
100
AcDbEntity
  8
SOLBET_Emulsje_Folie
100
AcDbLine
 10
78.85341407599549
 20
220.582696407764
 30
0.0
 11
137.9875195022371
 21
220.582696407764
 31
0.0
  0
ARC
  5
232D
330
1F
100
AcDbEntity
  8
SOLBET_Emulsje_Folie
100
AcDbCircle
 10
78.85341407599549
 20
220.832696407764
 30
0.0
 40
0.25
100
AcDbArc
 50
180.0
 51
270.0
  0
LWPOLYLINE
  5
232E
102
{ACAD_REACTORS
330
2492
102
}
330
1F
100
AcDbEntity
  8
SOLBET_Tynki_Posadzki
100
AcDbPolyline
 90
        5
 70
     1
 43
0.0
 10
78.60341407599548
 20
220.832696407764
 42
0.0737237824442244
 10
78.61416725921367
 20
220.760163927747
 10
137.9875195022371
 20
220.760163927747
 10
137.9875195022371
 20
223.260163927747
 10
78.60341407599548
 20
223.260163927747
1001
ASO_SCHRAFF
1005
0
1070
     1
1002
{
1070
     1
1005
0
1002
}
1002
{
1070
     2
1005
0
1002
}
1002
{
1070
     4
1000
AR-CONC
1040
0.01
1040
0.0
1070
     0
1000
T__SCHR
1070
   256
1000
_bylayer
1040
50.0
1070
     1
1002
}
  0
LWPOLYLINE
  5
2331
330
1F
100
AcDbEntity
  8
SOLBET_Izolacja
100
AcDbPolyline
 90
        6
 70
     1
 43
0.0
 10
65.4885980263341
 20
217.8868571236145
 10
65.4885980263341
 20
205.8868571089034
 10
73.48859802632865
 20
205.8868571089034
 10
73.48859802632865
 20
207.8868571089034
 10
137.9875195022371
 20
207.8868571089034
 10
137.9875195143966
 20
217.8868571089031
  0
LINE
  5
2333
330
1F
100
AcDbEntity
  8
SOLBET_Tynki_Posadzki
100
AcDbLine
 10
77.9885980263341
 20
205.3868570941918
 30
0.0
 11
77.9885980263341
 21
153.5487539151697
 31
0.0
  0
LINE
  5
2334
330
1F
100
AcDbEntity
  8
SOLBET_Tynki_Posadzki
100
AcDbLine
 10
77.9885980263341
 20
205.3868570941918
 30
0.0
 11
137.9875195022371
 21
205.3868570941918
 31
0.0
  0
LINE
  5
2335
330
1F
100
AcDbEntity
  8
SOLBET_Tynki_Posadzki
100
AcDbLine
 10
77.9885980263341
 20
205.3868570941918
 30
0.0
 11
77.49059119385697
 21
205.8868570941918
 31
0.0
  0
LINE
  5
2336
330
1F
100
AcDbEntity
  8
SOLBET_Tynki_Posadzki
100
AcDbLine
 10
77.9885980263341
 20
151.1068783006041
 30
0.0
 11
77.9885980263341
 21
109.8868570941916
 31
0.0
  0
LINE
  5
2337
330
1F
100
AcDbEntity
  8
SOLBET_Tynki_Posadzki
100
AcDbLine
 10
77.9885980263341
 20
107.8868570941918
 30
0.0
 11
77.9885980263341
 21
69.13066214519523
 31
0.0
  0
INSERT
  5
2338
330
1F
100
AcDbEntity
  8
SOLBET_Izolacja
100
AcDbBlockReference
  2
*U6
 10
-471.5547267392637
 20
34.43795276449816
 30
0.0
 41
50.0
 42
50.0
 43
50.0
1001
ASO_SCHRAFF
1005
0
1070
     0
1005
0
  0
INSERT
  5
2339
330
1F
100
AcDbEntity
  8
SOLBET_Stolarka_Okna
100
AcDbBlockReference
  2
*U7
 10
-471.5547267392637
 20
34.43795276449816
 30
0.0
 41
50.0
 42
50.0
 43
50.0
1001
ASO_SCHRAFF
1005
0
1070
     0
1005
231C
  0
INSERT
  5
233A
330
1F
100
AcDbEntity
  8
SOLBET_Izolacja
100
AcDbBlockReference
  2
*U8
 10
-471.5547267392637
 20
34.43795276449816
 30
0.0
 41
50.0
 42
50.0
 43
50.0
1001
ASO_SCHRAFF
1005
0
1070
     0
1005
0
  0
LINE
  5
2341
330
1F
100
AcDbEntity
  8
SOLBET_Izolacja
100
AcDbLine
 10
65.4885980263341
 20
247.6025086948749
 30
0.0
 11
65.4885980263341
 21
178.8721926736987
 31
0.0
  0
LINE
  5
2342
330
1F
100
AcDbEntity
  8
SOLBET_Stolarka_Okna
100
AcDbLine
 10
65.4885980263341
 20
178.8721926736987
 30
0.0
 11
57.70527621979613
 21
178.8721926736987
 31
0.0
  0
LWPOLYLINE
  5
2344
330
1F
100
AcDbEntity
  8
SOLBET_Zbrojenie_Konstrukcja
100
AcDbPolyline
 90
        3
 70
     0
 43
0.05
 10
77.71018465252041
 20
183.0947802472859
 10
77.71018465252041
 20
181.5947802472859
 10
76.21018465252632
 20
181.5947802472859
  0
LINE
  5
2349
330
1F
100
AcDbEntity
  8
SOLBET_Bloczki
100
AcDbLine
 10
71.11146629842028
 20
26.10367044761614
 30
0.0
 11
99.56452029667458
 21
26.10367044761614
 31
0.0
  0
LINE
  5
234A
330
1F
100
AcDbEntity
  8
SOLBET_Wymiary_Opisy
 62
     1
100
AcDbLine
 10
71.11146629842028
 20
16.58327049567361
 30
0.0
 11
71.11146629842028
 21
54.34000495165782
 31
0.0
  0
LINE
  5
234B
330
1F
100
AcDbEntity
  8
SOLBET_Bloczki
100
AcDbLine
 10
99.56452029667458
 20
26.10367044761614
 30
0.0
 11
99.56452033457367
 21
38.10367044761608
 31
0.0
  0
LINE
  5
234C
330
1F
100
AcDbEntity
  8
SOLBET_Tynki_Posadzki
100
AcDbLine
 10
100.0645202966745
 20
25.60367044761608
 30
0.0
 11
100.0645202966745
 21
38.10367044761608
 31
0.0
  0
LINE
  5
234D
330
1F
100
AcDbEntity
  8
SOLBET_Stolarka_Okna
100
AcDbLine
 10
100.0645202966745
 20
38.10367044761597
 30
0.0
 11
100.0645202966745
 21
34.60367044761597
 31
0.0
  0
LINE
  5
234E
330
1F
100
AcDbEntity
  8
SOLBET_Stolarka_Okna
100
AcDbLine
 10
100.0645202966745
 20
34.60367044761597
 30
0.0
 11
103.190840994356
 21
34.60367044761597
 31
0.0
  0
LINE
  5
234F
330
1F
100
AcDbEntity
  8
SOLBET_Stolarka_Okna
100
AcDbLine
 10
103.190840994356
 20
34.60367044761597
 30
0.0
 11
103.190840994356
 21
35.6877987786217
 31
0.0
  0
LINE
  5
2350
330
1F
100
AcDbEntity
  8
SOLBET_Stolarka_Okna
100
AcDbLine
 10
103.190840994356
 20
35.6877987786217
 30
0.0
 11
104.0629084152799
 21
35.6877987786217
 31
0.0
  0
LINE
  5
2351
330
1F
100
AcDbEntity
  8
SOLBET_Stolarka_Okna
100
AcDbLine
 10
104.0629084152799
 20
35.6877987786217
 30
0.0
 11
104.0629084152799
 21
36.76152017309886
 31
0.0
  0
LINE
  5
2352
330
1F
100
AcDbEntity
  8
SOLBET_Stolarka_Okna
100
AcDbLine
 10
104.0629084152799
 20
36.76152017309886
 30
0.0
 11
105.0137867123287
 21
36.76152017309886
 31
0.0
  0
LINE
  5
2354
330
1F
100
AcDbEntity
  8
SOLBET_Stolarka_Okna
100
AcDbLine
 10
105.0137867123287
 20
37.10718809735709
 30
0.0
 11
104.7951525670348
 21
38.10367044761608
 31
0.0
  0
LINE
  5
2355
330
1F
100
AcDbEntity
  8
SOLBET_Stolarka_Okna
100
AcDbLine
 10
104.7951525670348
 20
38.10367044761608
 30
0.0
 11
100.0645202966745
 21
38.10367044761597
 31
0.0
  0
LWPOLYLINE
  5
2356
330
1F
100
AcDbEntity
  8
SOLBET_Stolarka_Okna
100
AcDbPolyline
 90
        4
 70
     1
 43
0.0
 10
108.0883362353245
 20
35.02273992117228
 10
107.7392878594917
 20
33.66093418148841
 10
106.8869320708957
 20
33.66093418148859
 10
106.8869320708957
 20
35.02273992117228
  0
LWPOLYLINE
  5
2357
330
1F
100
AcDbEntity
  8
SOLBET_Stolarka_Okna
100
AcDbPolyline
 90
       15
 70
     1
 43
0.0
 10
105.8297060750472
 20
36.76152017309886
 10
105.1249645222203
 20
36.76152017309909
 10
105.1249645222203
 20
38.10367044761597
 10
107.9287365563962
 20
38.10367044761597
 10
108.3658149237733
 20
36.84338269872382
 10
106.7950002513992
 20
36.84338269872382
 10
106.7950002513992
 20
35.20099411682742
 10
106.7950002513992
 20
33.66093418148841
 10
102.8983912207702
 20
33.66093418148841
 10
102.8983912207702
 20
34.35572491611373
 10
105.1249645222203
 20
34.35572491611373
 10
105.1249645222203
 20
35.52051976549905
 10
104.389583346014
 20
35.52051976549905
 10
104.389583346014
 20
36.37878883005413
 10
105.8297060750472
 20
36.37878883005413
  0
CIRCLE
  5
235B
330
1F
100
AcDbEntity
  8
SOLBET_Izolacja
100
AcDbCircle
 10
99.81696375754451
 20
34.99569922587653
 30
0.0
 40
0.25244346087405
  0
ARC
  5
235C
330
1F
100
AcDbEntity
  8
SOLBET_Izolacja
100
AcDbCircle
 10
99.81154517001028
 20
34.28492527844793
 30
0.0
 40
0.4069335296814501
100
AcDbArc
 50
51.56239299620133
 51
127.3757720389368
  0
LINE
  5
235D
330
1F
100
AcDbEntity
  8
SOLBET_Wymiary_Opisy
 62
     1
100
AcDbLine
 10
119.7944036072692
 20
16.58327049567361
 30
0.0
 11
119.7944036072692
 21
54.34000495165782
 31
0.0
  0
LINE
  5
235E
330
1F
100
AcDbEntity
  8
SOLBET_Stolarka_Okna
100
AcDbLine
 10
119.7944036072692
 20
36.64544441094421
 30
0.0
 11
107.0011015010057
 21
36.64544441094421
 31
0.0
  0
LINE
  5
235F
330
1F
100
AcDbEntity
  8
SOLBET_Stolarka_Okna
100
AcDbLine
 10
119.7944036072692
 20
35.18736840378472
 30
0.0
 11
107.0011015010057
 21
35.18736840378472
 31
0.0
  0
LWPOLYLINE
  5
2360
330
1F
100
AcDbEntity
  8
SOLBET_Zbrojenie_Konstrukcja
100
AcDbPolyline
 90
        3
 70
     0
 43
0.05
 10
99.78610692286634
 20
27.31159360071035
 10
99.78610692286634
 20
25.81159360071041
 10
98.28610692286634
 20
25.81159360071041
  0
LINE
  5
2361
330
1F
100
AcDbEntity
  8
SOLBET_Izolacja
100
AcDbLine
 10
71.11146629842028
 20
38.10367044761608
 30
0.0
 11
102.0312028508622
 21
38.10367044761608
 31
0.0
  0
INSERT
  5
2362
330
1F
100
AcDbEntity
  8
SOLBET_Izolacja
100
AcDbBlockReference
  2
*U9
 10
-471.5547267392637
 20
4.414551673640232
 30
0.0
 41
50.0
 42
50.0
 43
50.0
1001
ASO_SCHRAFF
1005
2362
1070
     0
1005
0
  0
LINE
  5
2364
330
1F
100
AcDbEntity
  8
SOLBET_Izolacja
100
AcDbLine
 10
60.48859802632865
 20
247.6025086948749
 30
0.0
 11
60.48859802632865
 21
184.0808383346534
 31
0.0
  0
LINE
  5
2365
330
1F
100
AcDbEntity
  8
SOLBET_Zaprawy
100
AcDbLine
 10
58.9885980263341
 20
247.6025086948749
 30
0.0
 11
58.9885980263341
 21
183.7923719788595
 31
0.0
  0
LINE
  5
236D
330
1F
100
AcDbEntity
  8
SOLBET_Tynki_Posadzki
100
AcDbLine
 10
52.9885980263341
 20
247.6025086948749
 30
0.0
 11
52.9885980263341
 21
178.8721926736987
 31
0.0
  0
LINE
  5
236E
330
1F
100
AcDbEntity
  8
SOLBET_Stolarka_Okna
100
AcDbLine
 10
65.4885980263341
 20
173.522640834462
 30
0.0
 11
65.4885980263341
 21
153.5487539151697
 31
0.0
  0
LINE
  5
236F
330
1F
100
AcDbEntity
  8
SOLBET_Stolarka_Okna
100
AcDbLine
 10
69.93133429246268
 20
173.7120895313684
 30
0.0
 11
69.93133429246268
 21
153.5487539151697
 31
0.0
  0
LINE
  5
2370
330
1F
100
AcDbEntity
  8
SOLBET_Stolarka_Okna
100
AcDbLine
 10
69.93133429246268
 20
151.1068783006041
 30
0.0
 11
69.93133429246268
 21
116.061624657015
 31
0.0
  0
LINE
  5
2371
330
1F
100
AcDbEntity
  8
SOLBET_Stolarka_Okna
100
AcDbLine
 10
65.4885980263341
 20
151.1068783006041
 30
0.0
 11
65.4885980263341
 21
116.2510733539214
 31
0.0
  0
LWPOLYLINE
  5
2372
330
1F
100
AcDbEntity
  8
SOLBET_Beton
100
AcDbPolyline
 90
        4
 70
     1
 43
0.0
 10
52.9885980263341
 20
186.8721926736984
 10
58.9885980263341
 20
186.8721926736984
 10
58.9885980263341
 20
190.1221926736985
 10
52.9885980263341
 20
190.1221926736985
  0
LWPOLYLINE
  5
2373
330
1F
100
AcDbEntity
  8
SOLBET_Beton
100
AcDbPolyline
 90
        4
 70
     1
 43
0.0
 10
52.9885980263341
 20
190.8721926736984
 10
58.9885980263341
 20
190.8721926736984
 10
58.9885980263341
 20
194.1221926736987
 10
52.9885980263341
 20
194.1221926736987
  0
LWPOLYLINE
  5
2374
330
1F
100
AcDbEntity
  8
SOLBET_Beton
100
AcDbPolyline
 90
        4
 70
     1
 43
0.0
 10
52.9885980263341
 20
194.8721926736986
 10
58.9885980263341
 20
194.8721926736986
 10
58.9885980263341
 20
198.1221926736984
 10
52.9885980263341
 20
198.1221926736984
  0
LWPOLYLINE
  5
2375
330
1F
100
AcDbEntity
  8
SOLBET_Beton
100
AcDbPolyline
 90
        4
 70
     1
 43
0.0
 10
52.9885980263341
 20
198.8721926736984
 10
58.9885980263341
 20
198.8721926736984
 10
58.9885980263341
 20
202.1221926736985
 10
52.9885980263341
 20
202.1221926736985
  0
LWPOLYLINE
  5
2376
330
1F
100
AcDbEntity
  8
SOLBET_Beton
100
AcDbPolyline
 90
        4
 70
     1
 43
0.0
 10
52.9885980263341
 20
202.8721926736984
 10
58.9885980263341
 20
202.8721926736984
 10
58.9885980263341
 20
206.1221926736985
 10
52.9885980263341
 20
206.1221926736985
  0
LWPOLYLINE
  5
2377
330
1F
100
AcDbEntity
  8
SOLBET_Beton
100
AcDbPolyline
 90
        4
 70
     1
 43
0.0
 10
52.9885980263341
 20
206.8721926736984
 10
58.9885980263341
 20
206.8721926736984
 10
58.9885980263341
 20
210.1221926736987
 10
52.9885980263341
 20
210.1221926736987
  0
LWPOLYLINE
  5
2378
330
1F
100
AcDbEntity
  8
SOLBET_Beton
100
AcDbPolyline
 90
        4
 70
     1
 43
0.0
 10
52.9885980263341
 20
210.8721926736987
 10
58.9885980263341
 20
210.8721926736987
 10
58.9885980263341
 20
214.1221926736985
 10
52.9885980263341
 20
214.1221926736985
  0
LWPOLYLINE
  5
2379
330
1F
100
AcDbEntity
  8
SOLBET_Beton
100
AcDbPolyline
 90
        4
 70
     1
 43
0.0
 10
52.9885980263341
 20
214.8721926736985
 10
58.9885980263341
 20
214.8721926736985
 10
58.9885980263341
 20
218.1221926736985
 10
52.9885980263341
 20
218.1221926736985
  0
LWPOLYLINE
  5
237A
330
1F
100
AcDbEntity
  8
SOLBET_Beton
100
AcDbPolyline
 90
        4
 70
     1
 43
0.0
 10
52.9885980263341
 20
218.8721926736985
 10
58.9885980263341
 20
218.8721926736985
 10
58.9885980263341
 20
222.1221926736985
 10
52.9885980263341
 20
222.1221926736985
  0
LWPOLYLINE
  5
237B
330
1F
100
AcDbEntity
  8
SOLBET_Beton
100
AcDbPolyline
 90
        4
 70
     1
 43
0.0
 10
52.9885980263341
 20
222.8721926736985
 10
58.9885980263341
 20
222.8721926736985
 10
58.9885980263341
 20
226.1221926736987
 10
52.9885980263341
 20
226.1221926736987
  0
LWPOLYLINE
  5
237C
330
1F
100
AcDbEntity
  8
SOLBET_Beton
100
AcDbPolyline
 90
        4
 70
     1
 43
0.0
 10
52.9885980263341
 20
226.8721926736987
 10
58.9885980263341
 20
226.8721926736987
 10
58.9885980263341
 20
230.1221926736985
 10
52.9885980263341
 20
230.1221926736985
  0
LWPOLYLINE
  5
237D
330
1F
100
AcDbEntity
  8
SOLBET_Beton
100
AcDbPolyline
 90
        4
 70
     1
 43
0.0
 10
52.9885980263341
 20
230.8721926736987
 10
58.9885980263341
 20
230.8721926736987
 10
58.9885980263341
 20
234.1221926736984
 10
52.9885980263341
 20
234.1221926736984
  0
LWPOLYLINE
  5
237E
330
1F
100
AcDbEntity
  8
SOLBET_Beton
100
AcDbPolyline
 90
        4
 70
     1
 43
0.0
 10
52.9885980263341
 20
234.8721926736985
 10
58.9885980263341
 20
234.8721926736985
 10
58.9885980263341
 20
238.1221926736984
 10
52.9885980263341
 20
238.1221926736984
  0
LWPOLYLINE
  5
237F
330
1F
100
AcDbEntity
  8
SOLBET_Beton
100
AcDbPolyline
 90
        4
 70
     1
 43
0.0
 10
52.9885980263341
 20
238.8721926736987
 10
58.9885980263341
 20
238.8721926736987
 10
58.9885980263341
 20
242.1221926736987
 10
52.9885980263341
 20
242.1221926736987
  0
LWPOLYLINE
  5
2380
330
1F
100
AcDbEntity
  8
SOLBET_Beton
100
AcDbPolyline
 90
        4
 70
     1
 43
0.0
 10
52.9885980263341
 20
242.8721926736987
 10
58.9885980263341
 20
242.8721926736987
 10
58.9885980263341
 20
246.1221926736985
 10
52.9885980263341
 20
246.1221926736985
  0
LWPOLYLINE
  5
2381
330
1F
100
AcDbEntity
  8
SOLBET_Zbrojenie_Konstrukcja
100
AcDbPolyline
 90
        4
 70
     0
 43
0.0
 10
53.79302283219181
 20
242.5443618966572
 10
58.83027603182632
 20
242.5443618966572
 10
65.41265814920667
 20
241.8868570941921
 10
71.61714750573651
 20
241.8868570941921
  0
LWPOLYLINE
  5
2382
330
1F
100
AcDbEntity
  8
SOLBET_Zbrojenie_Konstrukcja
100
AcDbPolyline
 90
        4
 70
     1
 43
0.0
 10
60.18741094263873
 20
243.1061226359508
 10
60.34240084160614
 20
243.1061226359508
 10
60.34240084160614
 20
241.7117168169217
 10
60.18741094263873
 20
241.7117168169217
  0
LINE
  5
2383
330
1F
100
AcDbEntity
  8
SOLBET_Zbrojenie_Konstrukcja
100
AcDbLine
 10
60.34240084160614
 20
244.0357254364938
 30
0.0
 11
60.34240084160614
 21
240.7821140163786
 31
0.0
  0
LWPOLYLINE
  5
2384
330
1F
100
AcDbEntity
  8
SOLBET_Zbrojenie_Konstrukcja
100
AcDbPolyline
 90
        4
 70
     0
 43
0.0
 10
53.79302283219181
 20
218.5443619260797
 10
58.83027603182632
 20
218.5443619260797
 10
65.41265814920667
 20
217.8868571236145
 10
71.61714750573651
 20
217.8868571236145
  0
LINE
  5
2385
330
1F
100
AcDbEntity
  8
SOLBET_Zbrojenie_Konstrukcja
100
AcDbLine
 10
60.34240084160614
 20
220.0357254659163
 30
0.0
 11
60.34240084160614
 21
216.7821140458011
 31
0.0
  0
LWPOLYLINE
  5
2386
330
1F
100
AcDbEntity
  8
SOLBET_Zbrojenie_Konstrukcja
100
AcDbPolyline
 90
        4
 70
     1
 43
0.0
 10
60.18741094263873
 20
219.1061226653733
 10
60.34240084160614
 20
219.1061226653733
 10
60.34240084160614
 20
217.711716846344
 10
60.18741094263873
 20
217.711716846344
  0
LWPOLYLINE
  5
2388
330
1F
100
AcDbEntity
  8
SOLBET_Beton
100
AcDbPolyline
 90
        4
 70
     1
 43
0.0
 10
52.9885980263341
 20
104.7251041155212
 10
58.9885980263341
 20
104.7251041155212
 10
58.9885980263341
 20
107.9751041155212
 10
52.9885980263341
 20
107.9751041155212
  0
LWPOLYLINE
  5
2389
330
1F
100
AcDbEntity
  8
SOLBET_Beton
100
AcDbPolyline
 90
        4
 70
     1
 43
0.0
 10
52.9885980263341
 20
100.7251041155215
 10
58.9885980263341
 20
100.7251041155215
 10
58.9885980263341
 20
103.9751041155213
 10
52.9885980263341
 20
103.9751041155213
  0
LWPOLYLINE
  5
238A
330
1F
100
AcDbEntity
  8
SOLBET_Beton
100
AcDbPolyline
 90
        4
 70
     1
 43
0.0
 10
52.9885980263341
 20
96.72510411552151
 10
58.9885980263341
 20
96.72510411552151
 10
58.9885980263341
 20
99.97510411552127
 10
52.9885980263341
 20
99.97510411552127
  0
LWPOLYLINE
  5
238B
330
1F
100
AcDbEntity
  8
SOLBET_Beton
100
AcDbPolyline
 90
        4
 70
     1
 43
0.0
 10
52.9885980263341
 20
92.72510411552138
 10
58.9885980263341
 20
92.72510411552138
 10
58.9885980263341
 20
95.9751041155215
 10
52.9885980263341
 20
95.9751041155215
  0
LWPOLYLINE
  5
238C
330
1F
100
AcDbEntity
  8
SOLBET_Beton
100
AcDbPolyline
 90
        4
 70
     1
 43
0.0
 10
52.9885980263341
 20
88.72510411552127
 10
58.9885980263341
 20
88.72510411552127
 10
58.9885980263341
 20
91.97510411552139
 10
52.9885980263341
 20
91.97510411552139
  0
LWPOLYLINE
  5
238D
330
1F
100
AcDbEntity
  8
SOLBET_Beton
100
AcDbPolyline
 90
        4
 70
     1
 43
0.0
 10
52.9885980263341
 20
84.72510411552139
 10
58.9885980263341
 20
84.72510411552139
 10
58.9885980263341
 20
87.97510411552128
 10
52.9885980263341
 20
87.97510411552128
  0
LWPOLYLINE
  5
238E
330
1F
100
AcDbEntity
  8
SOLBET_Beton
100
AcDbPolyline
 90
        4
 70
     1
 43
0.0
 10
52.9885980263341
 20
80.72510411552149
 10
58.9885980263341
 20
80.72510411552149
 10
58.9885980263341
 20
83.97510411552138
 10
52.9885980263341
 20
83.97510411552138
  0
LWPOLYLINE
  5
238F
330
1F
100
AcDbEntity
  8
SOLBET_Beton
100
AcDbPolyline
 90
        4
 70
     1
 43
0.0
 10
52.9885980263341
 20
76.72510411552138
 10
58.9885980263341
 20
76.72510411552138
 10
58.9885980263341
 20
79.9751041155215
 10
52.9885980263341
 20
79.9751041155215
  0
LWPOLYLINE
  5
2390
330
1F
100
AcDbEntity
  8
SOLBET_Beton
100
AcDbPolyline
 90
        4
 70
     1
 43
0.0
 10
52.9885980263341
 20
72.72510411552139
 10
58.9885980263341
 20
72.72510411552139
 10
58.9885980263341
 20
75.97510411552139
 10
52.9885980263341
 20
75.97510411552139
  0
LINE
  5
2391
330
1F
100
AcDbEntity
  8
SOLBET_Izolacja
100
AcDbLine
 10
60.48859802632865
 20
107.9751041155212
 30
0.0
 11
60.48859802632865
 21
69.13066214519528
 31
0.0
  0
LINE
  5
2392
330
1F
100
AcDbEntity
  8
SOLBET_Zaprawy
100
AcDbLine
 10
58.9885980263341
 20
107.9751041155212
 30
0.0
 11
58.9885980263341
 21
69.13066214519523
 31
0.0
  0
LINE
  5
2393
330
1F
100
AcDbEntity
  8
SOLBET_Tynki_Posadzki
100
AcDbLine
 10
52.9885980263341
 20
151.1068783006041
 30
0.0
 11
52.9885980263341
 21
69.13066214519523
 31
0.0
  0
LWPOLYLINE
  5
2394
330
1F
100
AcDbEntity
  8
SOLBET_Beton
100
AcDbPolyline
 90
        4
 70
     1
 43
0.0
 10
52.9885980263341
 20
112.7251041155215
 10
64.9885980263341
 20
112.7251041155215
 10
64.9885980263341
 20
115.9751041155212
 10
52.9885980263341
 20
115.9751041155212
  0
LWPOLYLINE
  5
2395
330
1F
100
AcDbEntity
  8
SOLBET_Beton
100
AcDbPolyline
 90
        4
 70
     1
 43
0.0
 10
52.9885980263341
 20
116.7251041155215
 10
64.9885980263341
 20
116.7251041155215
 10
64.9885980263341
 20
119.9751041155213
 10
52.9885980263341
 20
119.9751041155213
  0
LWPOLYLINE
  5
2396
330
1F
100
AcDbEntity
  8
SOLBET_Beton
100
AcDbPolyline
 90
        4
 70
     1
 43
0.0
 10
52.9885980263341
 20
120.7251041155213
 10
64.9885980263341
 20
120.7251041155213
 10
64.9885980263341
 20
123.9751041155215
 10
52.9885980263341
 20
123.9751041155215
  0
LWPOLYLINE
  5
2397
330
1F
100
AcDbEntity
  8
SOLBET_Beton
100
AcDbPolyline
 90
        4
 70
     1
 43
0.0
 10
52.9885980263341
 20
124.7251041155215
 10
64.9885980263341
 20
124.7251041155215
 10
64.9885980263341
 20
127.9751041155215
 10
52.9885980263341
 20
127.9751041155215
  0
LWPOLYLINE
  5
2398
330
1F
100
AcDbEntity
  8
SOLBET_Beton
100
AcDbPolyline
 90
        4
 70
     1
 43
0.0
 10
52.9885980263341
 20
128.7251041155215
 10
64.9885980263341
 20
128.7251041155215
 10
64.9885980263341
 20
131.9751041155215
 10
52.9885980263341
 20
131.9751041155215
  0
LWPOLYLINE
  5
2399
330
1F
100
AcDbEntity
  8
SOLBET_Beton
100
AcDbPolyline
 90
        4
 70
     1
 43
0.0
 10
52.9885980263341
 20
132.7251041155215
 10
64.9885980263341
 20
132.7251041155215
 10
64.9885980263341
 20
135.9751041155212
 10
52.9885980263341
 20
135.9751041155212
  0
LWPOLYLINE
  5
239A
330
1F
100
AcDbEntity
  8
SOLBET_Beton
100
AcDbPolyline
 90
        4
 70
     1
 43
0.0
 10
52.9885980263341
 20
136.7251041155213
 10
64.9885980263341
 20
136.7251041155213
 10
64.9885980263341
 20
139.9751041155215
 10
52.9885980263341
 20
139.9751041155215
  0
LWPOLYLINE
  5
239B
330
1F
100
AcDbEntity
  8
SOLBET_Beton
100
AcDbPolyline
 90
        4
 70
     1
 43
0.0
 10
52.9885980263341
 20
140.7251041155215
 10
64.9885980263341
 20
140.7251041155215
 10
64.9885980263341
 20
143.9751041155215
 10
52.9885980263341
 20
143.9751041155215
  0
LWPOLYLINE
  5
239C
330
1F
100
AcDbEntity
  8
SOLBET_Beton
100
AcDbPolyline
 90
        2
 70
     0
 43
0.0
 10
52.9885980263341
 20
108.7251041155215
 10
58.58191638502081
 20
108.7251041155215
  0
LWPOLYLINE
  5
239D
330
1F
100
AcDbEntity
  8
SOLBET_Beton
100
AcDbPolyline
 90
        4
 70
     0
 43
0.0
 10
64.9885980263341
 20
109.5184542577647
 10
64.9885980263341
 20
111.9751041155215
 10
52.9885980263341
 20
111.9751041155215
 10
52.9885980263341
 20
108.7251041155215
  0
LWPOLYLINE
  5
239E
330
1F
100
AcDbEntity
  8
SOLBET_Beton
100
AcDbPolyline
 90
        4
 70
     1
 43
0.0
 10
52.9885980263341
 20
144.7251041155215
 10
64.9885980263341
 20
144.7251041155215
 10
64.9885980263341
 20
147.9751041155215
 10
52.9885980263341
 20
147.9751041155215
  0
LWPOLYLINE
  5
239F
330
1F
100
AcDbEntity
  8
SOLBET_Beton
100
AcDbPolyline
 90
        3
 70
     0
 43
0.0
 10
52.9885980263341
 20
148.7251041155215
 10
64.9885980263341
 20
148.7251041155215
 10
64.9885980263341
 20
151.1068783006041
  0
LWPOLYLINE
  5
23A0
330
1F
100
AcDbEntity
  8
SOLBET_Beton
100
AcDbPolyline
 90
        2
 70
     0
 43
0.0
 10
52.9885980263341
 20
151.1068783006041
 10
52.9885980263341
 20
148.7251041155215
  0
LWPOLYLINE
  5
23A1
330
1F
100
AcDbEntity
  8
SOLBET_Beton
100
AcDbPolyline
 90
        4
 70
     1
 43
0.0
 10
52.9885980263341
 20
174.8721926736984
 10
64.9885980263341
 20
174.8721926736984
 10
64.9885980263341
 20
178.1221926736987
 10
52.9885980263341
 20
178.1221926736987
  0
LWPOLYLINE
  5
23A2
330
1F
100
AcDbEntity
  8
SOLBET_Beton
100
AcDbPolyline
 90
        4
 70
     1
 43
0.0
 10
52.9885980263341
 20
170.8721926736984
 10
64.9885980263341
 20
170.8721926736984
 10
64.9885980263341
 20
174.1221926736984
 10
52.9885980263341
 20
174.1221926736984
  0
LWPOLYLINE
  5
23A3
330
1F
100
AcDbEntity
  8
SOLBET_Beton
100
AcDbPolyline
 90
        4
 70
     1
 43
0.0
 10
52.9885980263341
 20
166.8721926736984
 10
64.9885980263341
 20
166.8721926736984
 10
64.9885980263341
 20
170.1221926736984
 10
52.9885980263341
 20
170.1221926736984
  0
LWPOLYLINE
  5
23A4
330
1F
100
AcDbEntity
  8
SOLBET_Beton
100
AcDbPolyline
 90
        4
 70
     1
 43
0.0
 10
52.9885980263341
 20
162.8721926736987
 10
64.9885980263341
 20
162.8721926736987
 10
64.9885980263341
 20
166.1221926736985
 10
52.9885980263341
 20
166.1221926736985
  0
LWPOLYLINE
  5
23A5
330
1F
100
AcDbEntity
  8
SOLBET_Beton
100
AcDbPolyline
 90
        4
 70
     1
 43
0.0
 10
52.9885980263341
 20
158.8721926736984
 10
64.9885980263341
 20
158.8721926736984
 10
64.9885980263341
 20
162.1221926736987
 10
52.9885980263341
 20
162.1221926736987
  0
LWPOLYLINE
  5
23A6
330
1F
100
AcDbEntity
  8
SOLBET_Beton
100
AcDbPolyline
 90
        4
 70
     1
 43
0.0
 10
52.9885980263341
 20
154.8721926736984
 10
64.9885980263341
 20
154.8721926736984
 10
64.9885980263341
 20
158.1221926736984
 10
52.9885980263341
 20
158.1221926736984
  0
LWPOLYLINE
  5
23A7
330
1F
100
AcDbEntity
  8
SOLBET_Beton
100
AcDbPolyline
 90
        4
 70
     0
 43
0.0
 10
64.9885980263341
 20
153.5487539151697
 10
64.9885980263341
 20
154.1221926736984
 10
52.9885980263341
 20
154.1221926736984
 10
52.9885980263341
 20
153.5487539151697
  0
LWPOLYLINE
  5
23A8
330
1F
100
AcDbEntity
  8
SOLBET_Zbrojenie_Konstrukcja
100
AcDbPolyline
 90
        4
 70
     0
 43
0.0
 10
53.79302282732601
 20
88.37368331849722
 10
58.83027602695415
 20
88.37368331849722
 10
65.41265814433495
 20
88.88685709419162
 10
71.61714750086435
 20
88.88685709419162
  0
LWPOLYLINE
  5
23A9
330
1F
100
AcDbEntity
  8
SOLBET_Zbrojenie_Konstrukcja
100
AcDbPolyline
 90
        4
 70
     1
 43
0.0
 10
60.18741093776657
 20
89.18877406620129
 10
60.34240083673399
 20
89.18877406620129
 10
60.34240083673399
 20
87.79436824717214
 10
60.18741093776657
 20
87.79436824717214
  0
LINE
  5
23AA
330
1F
100
AcDbEntity
  8
SOLBET_Zbrojenie_Konstrukcja
100
AcDbLine
 10
60.34240083673399
 20
90.06996132167126
 30
0.0
 11
60.34240083673399
 21
86.816349901556
 31
0.0
  0
LINE
  5
23B0
330
1F
100
AcDbEntity
  8
SOLBET_Beton
100
AcDbLine
 10
53.86661894722397
 20
182.5046790038849
 30
0.0
 11
65.38914388051967
 21
182.5046790038849
 31
0.0
  0
LINE
  5
23B1
330
1F
100
AcDbEntity
  8
SOLBET_Beton
100
AcDbLine
 10
65.38914388051967
 20
182.5046790038849
 30
0.0
 11
65.38914388051967
 21
186.8811533588309
 31
0.0
  0
LINE
  5
23B2
330
1F
100
AcDbEntity
  8
SOLBET_Beton
100
AcDbLine
 10
65.38914388051967
 20
185.0232667372936
 30
0.0
 11
55.63176137581354
 21
183.1468156884801
 31
0.0
  0
LINE
  5
23B3
330
1F
100
AcDbEntity
  8
SOLBET_Beton
100
AcDbLine
 10
55.63176137581354
 20
183.1468156884801
 30
0.0
 11
55.63176137581354
 21
182.5046790038849
 31
0.0
  0
LWPOLYLINE
  5
23B5
330
1F
100
AcDbEntity
  8
SOLBET_Beton
100
AcDbPolyline
 90
        2
 70
     0
 43
0.0
 10
52.9885980263341
 20
182.8721926736984
 10
55.63176137581354
 20
182.8721926736984
  0
LWPOLYLINE
  5
23B6
330
1F
100
AcDbEntity
  8
SOLBET_Beton
100
AcDbPolyline
 90
        4
 70
     0
 43
0.0
 10
58.9885980263341
 20
183.7923719788595
 10
58.9885980263341
 20
186.1221926736984
 10
52.9885980263341
 20
186.1221926736984
 10
52.9885980263341
 20
182.8721926736984
  0
INSERT
  5
23B7
330
1F
100
AcDbEntity
  8
SOLBET_Zbrojenie_Konstrukcja
100
AcDbBlockReference
  2
*U5
 10
461.2532976721638
 20
-25.21916396779705
 30
0.0
 41
-50.0
 42
50.0
 43
50.0
1001
ASO_SCHRAFF
1005
0
1070
     0
1005
0
  0
INSERT
  5
23BC
330
1F
100
AcDbEntity
  8
SOLBET_Zbrojenie_Konstrukcja
100
AcDbBlockReference
  2
*U5
 10
463.6933193888682
 20
-25.21916396779705
 30
0.0
 41
-50.0
 42
50.0
 43
50.0
1001
ASO_SCHRAFF
1005
0
1070
     0
1005
0
  0
LINE
  5
23BD
330
1F
100
AcDbEntity
  8
SOLBET_Stolarka_Okna
100
AcDbLine
 10
107.9287365563962
 20
38.10367044761597
 30
0.0
 11
119.7944036072692
 21
38.10367044761597
 31
0.0
  0
LINE
  5
23BE
330
1F
100
AcDbEntity
  8
SOLBET_Stolarka_Okna
100
AcDbLine
 10
107.7392878594917
 20
33.66093418148841
 30
0.0
 11
119.7944036072692
 21
33.66093418148841
 31
0.0
  0
LWPOLYLINE
  5
23BF
330
1F
100
AcDbEntity
  8
SOLBET_Beton
100
AcDbPolyline
 90
        4
 70
     0
 43
0.0
 10
58.9885980263341
 20
69.13066214519512
 10
58.9885980263341
 20
71.97510411552139
 10
52.9885980263341
 20
71.97510411552139
 10
52.9885980263341
 20
69.13066214519523
  0
LINE
  5
23C0
330
1F
100
AcDbEntity
  8
SOLBET_Izolacja
100
AcDbLine
 10
71.11146629842028
 20
43.10367044761608
 30
0.0
 11
96.53120288231207
 21
43.10367044761614
 31
0.0
  0
LINE
  5
23C1
330
1F
100
AcDbEntity
  8
SOLBET_Tynki_Posadzki
100
AcDbLine
 10
71.11146629842028
 20
44.60367044761608
 30
0.0
 11
96.53120288231207
 21
44.60367044761613
 31
0.0
  0
LINE
  5
23C2
330
1F
100
AcDbEntity
  8
SOLBET_Tynki_Posadzki
100
AcDbLine
 10
71.11146629842028
 20
50.60367044761608
 30
0.0
 11
102.0312028508622
 21
50.60367044761608
 31
0.0
  0
LWPOLYLINE
  5
23C3
330
1F
100
AcDbEntity
  8
SOLBET_Beton
100
AcDbPolyline
 90
        4
 70
     1
 43
0.0
 10
78.26419036831271
 20
44.60367045014317
 10
95.76419036831271
 20
44.60367045014317
 10
95.76419036831271
 20
50.60367045014311
 10
78.26419036831271
 20
50.60367045014311
  0
LWPOLYLINE
  5
23C5
330
1F
100
AcDbEntity
  8
SOLBET_Beton
100
AcDbPolyline
 90
        4
 70
     1
 43
0.0
 10
96.53120288231207
 20
39.38157695895637
 10
102.5312028823061
 20
39.38157695895637
 10
102.5312028823061
 20
50.60367045014311
 10
96.53120288231207
 20
50.60367045014311
  0
LWPOLYLINE
  5
23C7
330
1F
100
AcDbEntity
  8
SOLBET_Beton
100
AcDbPolyline
 90
        4
 70
     0
 43
0.0
 10
71.11146629842028
 20
44.60367045014317
 10
77.49717785431335
 20
44.60367045014317
 10
77.49717785431335
 20
50.60367045014311
 10
71.11146629842028
 20
50.60367045014311
  0
LINE
  5
23C8
330
1F
100
AcDbEntity
  8
SOLBET_Tynki_Posadzki
100
AcDbLine
 10
102.5312028823061
 20
50.60367045014311
 30
0.0
 11
119.7944036072692
 21
50.60367045014311
 31
0.0
  0
LINE
  5
23CB
330
1F
100
AcDbEntity
  8
SOLBET_Zbrojenie_Konstrukcja
100
AcDbLine
 10
52.9885980263341
 20
104.7251041155212
 30
0.0
 11
58.9885980263341
 21
107.9751041155212
 31
0.0
  0
LINE
  5
23CC
330
1F
100
AcDbEntity
  8
SOLBET_Zbrojenie_Konstrukcja
100
AcDbLine
 10
58.9885980263341
 20
104.7251041155212
 30
0.0
 11
52.9885980263341
 21
107.9751041155212
 31
0.0
  0
LINE
  5
23D3
330
1F
100
AcDbEntity
  8
SOLBET_Zbrojenie_Konstrukcja
100
AcDbLine
 10
58.9885980263341
 20
186.1221926736984
 30
0.0
 11
52.9885980263341
 21
182.8721926736984
 31
0.0
  0
LINE
  5
23D4
330
1F
100
AcDbEntity
  8
SOLBET_Zbrojenie_Konstrukcja
100
AcDbLine
 10
52.9885980263341
 20
186.1221926736984
 30
0.0
 11
58.9885980263341
 21
182.8721926736984
 31
0.0
  0
LWPOLYLINE
  5
23D5
330
1F
100
AcDbEntity
  8
SOLBET_Beton
100
AcDbPolyline
 90
        4
 70
     1
 43
0.0
 10
52.9885980263341
 20
178.8721926736987
 10
64.9885980263341
 20
178.8721926736987
 10
64.9885980263341
 20
182.1221926736984
 10
52.9885980263341
 20
182.1221926736984
  0
LINE
  5
23D7
330
1F
100
AcDbEntity
  8
SOLBET_Emulsje_Folie
100
AcDbLine
 10
53.33061349794047
 20
182.5417490641404
 30
0.0
 11
65.44035938949559
 21
182.5417490641404
 31
0.0
  0
LINE
  5
23D8
330
1F
100
AcDbEntity
  8
SOLBET_Emulsje_Folie
100
AcDbLine
 10
65.44035938949559
 20
182.5417490641404
 30
0.0
 11
65.44035938949559
 21
193.8868570941916
 31
0.0
  0
LINE
  5
23D9
330
1F
100
AcDbEntity
  8
SOLBET_Emulsje_Folie
100
AcDbLine
 10
65.44035938949559
 20
193.8868570941916
 30
0.0
 11
77.72285852260461
 21
193.8868570941916
 31
0.0
  0
LINE
  5
23E0
330
1F
100
AcDbEntity
  8
SOLBET_Tynki_Posadzki
  6
VERDECKT
100
AcDbLine
 10
119.7944036072692
 20
25.60367044761608
 30
0.0
 11
100.0645202966745
 21
25.60367044761608
 31
0.0
  0
LINE
  5
23E1
330
1F
100
AcDbEntity
  8
SOLBET_Stolarka_Okna
100
AcDbLine
 10
119.7944036072692
 20
20.60367044761608
 30
0.0
 11
95.06452029666865
 21
20.60367044761608
 31
0.0
  0
LINE
  5
23E2
330
1F
100
AcDbEntity
  8
SOLBET_Stolarka_Okna
  6
VERDECKT
100
AcDbLine
 10
95.06452029666865
 20
34.59903718594399
 30
0.0
 11
95.06452029666865
 21
25.60367044761608
 31
0.0
  0
LINE
  5
23E3
330
1F
100
AcDbEntity
  8
SOLBET_Stolarka_Okna
  6
VERDECKT
100
AcDbLine
 10
95.06452029666865
 20
34.59903718594399
 30
0.0
 11
99.56452029667458
 21
34.60367044761597
 31
0.0
  0
LINE
  5
23E4
330
1F
100
AcDbEntity
  8
SOLBET_Tynki_Posadzki
100
AcDbLine
 10
100.0645202966745
 20
25.60367044761608
 30
0.0
 11
71.11146629842028
 21
25.60367044761608
 31
0.0
  0
LINE
  5
23E5
330
1F
100
AcDbEntity
  8
SOLBET_Stolarka_Okna
100
AcDbLine
 10
95.06452029666865
 20
25.60367044761608
 30
0.0
 11
95.06452029666865
 21
20.60367044761608
 31
0.0
  0
LINE
  5
23EB
330
1F
100
AcDbEntity
  8
SOLBET_Stolarka_Okna
  6
VERDECKT
100
AcDbLine
 10
97.89755355457806
 20
38.10367044761591
 30
0.0
 11
97.89755355457806
 21
50.60367045014311
 31
0.0
  0
LINE
  5
23EC
330
1F
100
AcDbEntity
  8
SOLBET_Stolarka_Okna
100
AcDbLine
 10
97.89755355457806
 20
53.46443830922135
 30
0.0
 11
119.7944036072692
 21
53.46443830922135
 31
0.0
  0
LINE
  5
23ED
330
1F
100
AcDbEntity
  8
SOLBET_Stolarka_Okna
100
AcDbLine
 10
97.89755355457806
 20
50.60367045014311
 30
0.0
 11
97.89755355457806
 21
53.46443830922135
 31
0.0
  0
MTEXT
  5
23FE
102
{ACAD_XDICTIONARY
360
23FF
102
}
330
1F
100
AcDbEntity
  8
SOLBET_Wymiary_Opisy @ 1
100
AcDbMText
 10
17.22570791886278
 20
289.9144573231385
 30
0.0
 40
5.0
 41
124.2624847080697
 71
     1
 72
     5
  1
{\LDETAL 12\P}Spos\U+00F3b zamocowania stolarki \Pw \U+015Bcianie tr\U+00F3jwarstwowej
  7
Solbet_5
 73
     1
 44
1.0
1001
AcadAnnotative
1000
AnnotativeData
1002
{
1070
     1
1070
     0
1002
}
1001
ACAD
1000
MTEXTBEGIN
1070
    73
1070
     1
1070
    44
1040
1.0
1070
    74
1070
     0
1000
MTEXTEND
  0
LWPOLYLINE
  5
244C
330
1F
100
AcDbEntity
  8
SOLBET_Bloczki
100
AcDbPolyline
 90
        5
 70
     1
 43
0.0
 10
77.4885980263341
 20
247.6025086948749
 10
65.4885980263341
 20
247.6025086948749
 10
65.48859820694883
 20
241.8868570824273
 10
77.48859820694883
 20
241.8868570824272
 10
77.48859820694883
 20
247.6025086948748
  0
LWPOLYLINE
  5
2459
330
1F
100
AcDbEntity
  8
SOLBET_Bloczki
100
AcDbPolyline
 90
        4
 70
     1
 43
0.0
 10
65.48859820694883
 20
69.13066214519523
 10
77.48859820694895
 20
69.13066214519523
 10
77.48859820694883
 20
76.8868570941915
 10
65.48859820694883
 20
76.8868570941915
  0
LINE
  5
245A
330
1F
100
AcDbEntity
  8
SOLBET_Zbrojenie_Konstrukcja
100
AcDbLine
 10
134.9885980263286
 20
214.3868570941918
 30
0.0
 11
137.9875195022339
 21
208.7638793268695
 31
0.0
  0
LINE
  5
245B
330
1F
100
AcDbEntity
  8
SOLBET_Zbrojenie_Konstrukcja
100
AcDbLine
 10
131.5219313596618
 20
207.8868570941917
 30
0.0
 11
134.9885980263286
 21
214.3868570941918
 31
0.0
  0
LINE
  5
245D
330
1F
100
AcDbEntity
  8
SOLBET_Zbrojenie_Konstrukcja
100
AcDbLine
 10
107.5219313596618
 20
207.8868570941917
 30
0.0
 11
110.9885980263286
 21
214.3868570941918
 31
0.0
  0
LINE
  5
245E
330
1F
100
AcDbEntity
  8
SOLBET_Zbrojenie_Konstrukcja
100
AcDbLine
 10
115.5219313596618
 20
207.8868570941917
 30
0.0
 11
118.9885980263284
 21
214.3868570941918
 31
0.0
  0
LINE
  5
245F
330
1F
100
AcDbEntity
  8
SOLBET_Zbrojenie_Konstrukcja
100
AcDbLine
 10
123.5219313596618
 20
207.8868570941917
 30
0.0
 11
126.9885980263285
 21
214.3868570941918
 31
0.0
  0
LINE
  5
2460
330
1F
100
AcDbEntity
  8
SOLBET_Zbrojenie_Konstrukcja
100
AcDbLine
 10
99.52193135966183
 20
207.8868570941917
 30
0.0
 11
102.9885980263286
 21
214.3868570941918
 31
0.0
  0
LINE
  5
2461
330
1F
100
AcDbEntity
  8
SOLBET_Zbrojenie_Konstrukcja
100
AcDbLine
 10
91.52193135966184
 20
207.8868570941917
 30
0.0
 11
94.98859802632864
 21
214.3868570941918
 31
0.0
  0
LINE
  5
2462
330
1F
100
AcDbEntity
  8
SOLBET_Zbrojenie_Konstrukcja
100
AcDbLine
 10
83.52193135966183
 20
207.8868570941917
 30
0.0
 11
86.98859802632865
 21
214.3868570941918
 31
0.0
  0
LINE
  5
2463
330
1F
100
AcDbEntity
  8
SOLBET_Zbrojenie_Konstrukcja
100
AcDbLine
 10
75.52193135966195
 20
207.8868570941917
 30
0.0
 11
78.98859802632864
 21
214.3868570941918
 31
0.0
  0
LINE
  5
2464
330
1F
100
AcDbEntity
  8
SOLBET_Zbrojenie_Konstrukcja
100
AcDbLine
 10
78.98859802632864
 20
214.3868570941918
 30
0.0
 11
82.45526469299523
 21
207.8868570941917
 31
0.0
  0
LINE
  5
2465
330
1F
100
AcDbEntity
  8
SOLBET_Zbrojenie_Konstrukcja
100
AcDbLine
 10
86.98859802632865
 20
214.3868570941918
 30
0.0
 11
90.45526469299522
 21
207.8868570941917
 31
0.0
  0
LINE
  5
2466
330
1F
100
AcDbEntity
  8
SOLBET_Zbrojenie_Konstrukcja
100
AcDbLine
 10
94.98859802632864
 20
214.3868570941918
 30
0.0
 11
98.45526469299546
 21
207.8868570941917
 31
0.0
  0
LINE
  5
2467
330
1F
100
AcDbEntity
  8
SOLBET_Zbrojenie_Konstrukcja
100
AcDbLine
 10
102.9885980263286
 20
214.3868570941918
 30
0.0
 11
106.4552646929954
 21
207.8868570941917
 31
0.0
  0
LINE
  5
2468
330
1F
100
AcDbEntity
  8
SOLBET_Zbrojenie_Konstrukcja
  6
Continuous
100
AcDbLine
 10
137.9875195022339
 20
214.386857094192
 30
0.0
 11
73.48859802632865
 21
214.3868570941917
 31
0.0
  0
LINE
  5
2469
330
1F
100
AcDbEntity
  8
SOLBET_Zbrojenie_Konstrukcja
100
AcDbLine
 10
126.9885980263285
 20
214.3868570941918
 30
0.0
 11
130.4552646929953
 21
207.8868570941917
 31
0.0
  0
LINE
  5
246A
330
1F
100
AcDbEntity
  8
SOLBET_Zbrojenie_Konstrukcja
100
AcDbLine
 10
118.9885980263284
 20
214.3868570941918
 30
0.0
 11
122.4552646929953
 21
207.8868570941917
 31
0.0
  0
LINE
  5
246B
330
1F
100
AcDbEntity
  8
SOLBET_Zbrojenie_Konstrukcja
100
AcDbLine
 10
110.9885980263286
 20
214.3868570941918
 30
0.0
 11
114.4552646929953
 21
207.8868570941917
 31
0.0
  0
INSERT
  5
246F
330
1F
100
AcDbEntity
  8
SOLBET_Beton
100
AcDbBlockReference
  2
*X4
 10
-496.2123178546278
 20
-250.1344839602353
 30
0.0
 41
50.0
 42
50.0
 43
50.0
1001
ASO_SCHRAFF
1005
0
1070
     0
1005
0
1001
ACAD
1000
HATCH
1002
{
1070
    16
1000
NET
1040
0.25
1040
0.7853981633974483
1002
}
  0
HATCH
  5
2492
330
1F
100
AcDbEntity
  8
SOLBET_Tynki_Posadzki
100
AcDbHatch
 10
0.0
 20
0.0
 30
0.0
210
0.0
220
0.0
230
1.0
  2
AR-CONC
 70
     0
 71
     1
 91
        1
 92
        1
 93
        5
 72
     2
 10
78.853414075998
 20
220.8326964077806
 40
0.2500000000025153
 50
180.0000000037975
 51
196.8657343099396
 73
     1
 72
     1
 10
78.61416725921367
 20
220.760163927747
 11
137.9875195022371
 21
220.760163927747
 72
     1
 10
137.9875195022371
 20
220.760163927747
 11
137.9875195022371
 21
223.260163927747
 72
     1
 10
137.9875195022371
 20
223.260163927747
 11
78.60341407599548
 21
223.260163927747
 72
     1
 10
78.60341407599548
 20
223.260163927747
 11
78.60341407599548
 21
220.832696407764
 97
        1
330
232E
 75
     0
 76
     1
 52
0.0
 41
0.05
 77
     0
 78
    13
 53
50.0
 43
832.2898764910666
 44
-16.08925525991753
 45
9.1092334498002
 46
-0.7969542769451543
 79
     2
 49
0.9525000000000002
 49
-10.4775
 53
355.0
 43
832.2898764910666
 44
-16.08925525991753
 45
-1.762141298783349
 46
9.552832144108998
 79
     2
 49
0.762
 49
-8.381999999999999
 53
100.451
 43
833.0489764910666
 44
-16.15566775991753
 45
7.347125083297962
 46
8.755834391014593
 79
     2
 49
0.8095
 49
-8.9045
 53
46.1842
 43
832.2898764910666
 44
-13.54925525991754
 45
13.5539520446065
 46
-2.102116396636357
 79
     2
 49
1.428749999999999
 49
-15.71625
 53
96.6356
 43
833.4193714910666
 44
-13.72443025991753
 45
11.87021172331186
 46
12.37127779450246
 79
     2
 49
1.21425
 49
-13.35675
 53
351.184
 43
832.2898764910666
 44
-13.54925525991754
 45
11.87023029069669
 46
12.37125589302988
 79
     2
 49
1.143
 49
-12.573
 53
21.0
 43
833.5598764910667
 44
-14.18425525991753
 45
7.580743991769164
 46
-5.113275925838125
 79
     2
 49
0.9525000000000002
 49
-10.4775
 53
326.0
 43
833.5598764910667
 44
-14.18425525991753
 45
3.090101417382353
 46
9.209398306115962
 79
     2
 49
0.762
 49
-8.381999999999999
 53
71.45140000000001
 43
834.1916014910665
 44
-14.61036025991753
 45
10.67082453850622
 46
4.096142885802872
 79
     2
 49
0.8095
 49
-8.9045
 53
37.5
 43
832.2898764910666
 44
-16.08925525991753
 45
0.1544301625295909
 46
4.227751943657655
 79
     6
 49
0.0
 49
-8.2804
 49
0.0
 49
-8.509
 49
0.0
 49
-8.41375
 53
7.499999999999999
 43
832.2898764910666
 44
-16.08925525991753
 45
3.340983125515287
 46
5.009028740905975
 79
     6
 49
0.0
 49
-4.851399999999999
 49
0.0
 49
-8.0899
 49
0.0
 49
-3.20675
 53
327.5
 43
829.4577764910666
 44
-16.08925525991753
 45
6.77952975834357
 46
-0.2864371996336729
 79
     6
 49
0.0
 49
-3.175
 49
0.0
 49
-9.906
 49
0.0
 49
-13.1445
 53
317.5
 43
828.1877764910666
 44
-16.08925525991753
 45
7.406459069300902
 46
1.27132455166665
 79
     6
 49
0.0
 49
-4.1275
 49
0.0
 49
-6.5786
 49
0.0
 49
-9.3345
 98
        1
 10
832.2898764910666
 20
-16.08925525991753
1001
ACAD
1010
0.0
1020
0.0
1030
0.0
  0
LINE
  5
2493
330
1F
100
AcDbEntity
  8
SOLBET_Izolacja
  6
BATTING
 48
0.049
100
AcDbLine
 10
77.9885980263341
 20
217.8868570941918
 30
0.0
 11
77.9885980263341
 21
223.260163927747
 31
0.0
  0
LINE
  5
2494
330
1F
100
AcDbEntity
  8
SOLBET_Izolacja
100
AcDbLine
 10
137.9875195022371
 20
220.3868570941918
 30
0.0
 11
137.9875195022371
 21
217.8868570941918
 31
0.0
  0
LINE
  5
2495
330
1F
100
AcDbEntity
  8
SOLBET_Izolacja
  6
BATTING
 48
0.12
100
AcDbLine
 10
137.9875195022371
 20
219.1368570941918
 30
0.0
 11
78.4885980263341
 21
219.1368570941918
 31
0.0
  0
LINE
  5
24B6
330
1F
100
AcDbEntity
  8
SOLBET_Beton
100
AcDbLine
 10
73.48859802632865
 20
205.8868571089034
 30
0.0
 11
73.48859802632865
 21
207.8868571089034
 31
0.0
  0
LINE
  5
24B7
330
1F
100
AcDbEntity
  8
SOLBET_Beton
100
AcDbLine
 10
73.48859802632865
 20
207.8868571089034
 30
0.0
 11
137.9875195022371
 21
207.8868571089034
 31
0.0
  0
LINE
  5
24B8
330
1F
100
AcDbEntity
  8
SOLBET_Beton
100
AcDbLine
 10
137.9875195022371
 20
207.8868571089034
 30
0.0
 11
137.9875195022339
 21
205.8868570941918
 31
0.0
  0
LINE
  5
24B9
330
1F
100
AcDbEntity
  8
SOLBET_Beton
100
AcDbLine
 10
137.9875195022339
 20
205.8868570941918
 30
0.0
 11
73.48859802632865
 21
205.8868571089034
 31
0.0
  0
LINE
  5
24BA
330
1F
100
AcDbEntity
  8
SOLBET_Beton
100
AcDbLine
 10
76.22427023959358
 20
207.8868571089034
 30
0.0
 11
76.22427023959358
 21
216.3868570941919
 31
0.0
  0
LINE
  5
24BB
330
1F
100
AcDbEntity
  8
SOLBET_Beton
100
AcDbLine
 10
76.22427023959358
 20
216.3868570941919
 30
0.0
 11
137.9875195125727
 21
216.386857019091
 31
0.0
  0
LINE
  5
24BC
330
1F
100
AcDbEntity
  8
SOLBET_Beton
100
AcDbLine
 10
137.9875195125727
 20
216.386857019091
 30
0.0
 11
137.9875195125727
 21
207.8868570941917
 31
0.0
  0
LINE
  5
24BD
330
1F
100
AcDbEntity
  8
SOLBET_Beton
100
AcDbLine
 10
76.22427023959358
 20
211.386857094192
 30
0.0
 11
137.9875195022371
 21
211.386857094192
 31
0.0
  0
LINE
  5
24BE
330
1F
100
AcDbEntity
  8
SOLBET_Beton
100
AcDbLine
 10
88.22427023959358
 20
216.3868570941919
 30
0.0
 11
88.22427023959358
 21
207.8868571089034
 31
0.0
  0
LINE
  5
24BF
330
1F
100
AcDbEntity
  8
SOLBET_Beton
100
AcDbLine
 10
100.2242702395935
 20
216.3868570650091
 30
0.0
 11
100.2242702395935
 21
207.8868570941917
 31
0.0
  0
LINE
  5
24C0
330
1F
100
AcDbEntity
  8
SOLBET_Beton
100
AcDbLine
 10
112.2242702395995
 20
216.3868570504178
 30
0.0
 11
112.2242702395995
 21
207.8868571089034
 31
0.0
  0
LINE
  5
24C1
330
1F
100
AcDbEntity
  8
SOLBET_Beton
100
AcDbLine
 10
124.2242702395995
 20
216.3868570358264
 30
0.0
 11
124.2242702395995
 21
207.8868571089034
 31
0.0
  0
LINE
  5
24C2
330
1F
100
AcDbEntity
  8
SOLBET_Beton
100
AcDbLine
 10
136.2242702395995
 20
216.386857021235
 30
0.0
 11
136.2242702395995
 21
207.8868571089034
 31
0.0
  0
LINE
  5
24D5
330
1F
100
AcDbEntity
  8
SOLBET_Izolacja
  6
BATTING
 48
0.242
100
AcDbLine
 10
62.98859802633137
 20
247.6025069085439
 30
0.0
 11
63.04169961981847
 21
184.571827609751
 31
0.0
  0
LINE
  5
24D7
330
1F
100
AcDbEntity
  8
SOLBET_Izolacja
  6
BATTING
 48
0.24
100
AcDbLine
 10
62.98859811663874
 20
69.13066214519523
 30
0.0
 11
62.98859811663874
 21
107.9751041155212
 31
0.0
  0
INSERT
  5
2547
330
1F
100
AcDbEntity
  8
SOLBET_Izolacja
  6
Continuous
100
AcDbBlockReference
  2
ASOWDBLK
 10
55.65177101266863
 20
107.9751041155214
 30
0.0
 41
0.3476004176236529
 42
0.3594642857142958
 43
0.34760041762355
  0
INSERT
  5
2548
330
1F
100
AcDbEntity
  8
SOLBET_Izolacja
  6
Continuous
100
AcDbBlockReference
  2
ASOWDBLK
 10
55.82557122148045
 20
107.9751041155214
 30
0.0
 41
0.3476004176236529
 42
0.3831250000000068
 43
0.34760041762355
  0
INSERT
  5
2549
330
1F
100
AcDbEntity
  8
SOLBET_Izolacja
  6
Continuous
100
AcDbBlockReference
  2
ASOWDBLK
 10
55.99937143029217
 20
107.9751041155214
 30
0.0
 41
0.3476004176236529
 42
0.4067857142856895
 43
0.34760041762355
  0
INSERT
  5
254A
330
1F
100
AcDbEntity
  8
SOLBET_Izolacja
  6
Continuous
100
AcDbBlockReference
  2
ASOWDBLK
 10
56.17317163910389
 20
107.9751041155214
 30
0.0
 41
0.3476004176236529
 42
0.4304464285714574
 43
0.34760041762355
  0
INSERT
  5
254B
330
1F
100
AcDbEntity
  8
SOLBET_Izolacja
  6
Continuous
100
AcDbBlockReference
  2
ASOWDBLK
 10
56.34697184791571
 20
107.9751041155214
 30
0.0
 41
0.3476004176236529
 42
0.45410714285714
 43
0.34760041762355
  0
INSERT
  5
254C
330
1F
100
AcDbEntity
  8
SOLBET_Izolacja
  6
Continuous
100
AcDbBlockReference
  2
ASOWDBLK
 10
56.52077205672753
 20
107.9751041155214
 30
0.0
 41
0.3476004176236529
 42
0.477767857142851
 43
0.34760041762355
  0
INSERT
  5
254D
330
1F
100
AcDbEntity
  8
SOLBET_Izolacja
  6
Continuous
100
AcDbBlockReference
  2
ASOWDBLK
 10
56.69457226553925
 20
107.9751041155214
 30
0.0
 41
0.3476004176236529
 42
0.501428571428562
 43
0.34760041762355
  0
INSERT
  5
254E
330
1F
100
AcDbEntity
  8
SOLBET_Izolacja
  6
Continuous
100
AcDbBlockReference
  2
ASOWDBLK
 10
56.86837247435096
 20
107.9751041155214
 30
0.0
 41
0.3476004176236529
 42
0.5250892857143015
 43
0.34760041762355
  0
INSERT
  5
254F
330
1F
100
AcDbEntity
  8
SOLBET_Izolacja
  6
Continuous
100
AcDbBlockReference
  2
ASOWDBLK
 10
57.04217268316279
 20
107.9751041155214
 30
0.0
 41
0.3476004176236529
 42
0.5487500000000125
 43
0.34760041762355
  0
INSERT
  5
2550
330
1F
100
AcDbEntity
  8
SOLBET_Izolacja
  6
Continuous
100
AcDbBlockReference
  2
ASOWDBLK
 10
57.21597289197461
 20
107.9751041155214
 30
0.0
 41
0.3476004176236529
 42
0.5724107142856952
 43
0.34760041762355
  0
INSERT
  5
2551
330
1F
100
AcDbEntity
  8
SOLBET_Izolacja
  6
Continuous
100
AcDbBlockReference
  2
ASOWDBLK
 10
57.38977310078633
 20
107.9751041155214
 30
0.0
 41
0.3476004176236529
 42
0.596071428571463
 43
0.34760041762355
  0
INSERT
  5
2552
330
1F
100
AcDbEntity
  8
SOLBET_Izolacja
  6
Continuous
100
AcDbBlockReference
  2
ASOWDBLK
 10
57.56357330959804
 20
107.9751041155214
 30
0.0
 41
0.3476004176236529
 42
0.6197321428571457
 43
0.34760041762355
  0
INSERT
  5
2553
330
1F
100
AcDbEntity
  8
SOLBET_Izolacja
  6
Continuous
100
AcDbBlockReference
  2
ASOWDBLK
 10
57.73737351840987
 20
107.9751041155214
 30
0.0
 41
0.3476004176236529
 42
0.6433928571428567
 43
0.34760041762355
  0
INSERT
  5
2554
330
1F
100
AcDbEntity
  8
SOLBET_Izolacja
  6
Continuous
100
AcDbBlockReference
  2
ASOWDBLK
 10
57.91117372722169
 20
107.9751041155214
 30
0.0
 41
0.3476004176236529
 42
0.6670535714285393
 43
0.34760041762355
  0
INSERT
  5
2555
330
1F
100
AcDbEntity
  8
SOLBET_Izolacja
  6
Continuous
100
AcDbBlockReference
  2
ASOWDBLK
 10
58.08497393603341
 20
107.9751041155214
 30
0.0
 41
0.3476004176236529
 42
0.6907142857143072
 43
0.34760041762355
  0
INSERT
  5
2556
330
1F
100
AcDbEntity
  8
SOLBET_Izolacja
  6
Continuous
100
AcDbBlockReference
  2
ASOWDBLK
 10
58.25877414484512
 20
107.9751041155214
 30
0.0
 41
0.3476004176236529
 42
0.7143749999999898
 43
0.34760041762355
  0
INSERT
  5
2557
330
1F
100
AcDbEntity
  8
SOLBET_Izolacja
  6
Continuous
100
AcDbBlockReference
  2
ASOWDBLK
 10
58.43257435365694
 20
107.9751041155214
 30
0.0
 41
0.3476004176236529
 42
0.7380357142857008
 43
0.34760041762355
  0
INSERT
  5
2558
330
1F
100
AcDbEntity
  8
SOLBET_Izolacja
  6
Continuous
100
AcDbBlockReference
  2
ASOWDBLK
 10
58.60637456246877
 20
107.9751041155214
 30
0.0
 41
0.3476004176236529
 42
0.7616964285714403
 43
0.34760041762355
  0
INSERT
  5
2559
330
1F
100
AcDbEntity
  8
SOLBET_Izolacja
  6
Continuous
100
AcDbBlockReference
  2
ASOWDBLK
 10
58.78017477128048
 20
107.9751041155214
 30
0.0
 41
0.3476004176236529
 42
0.7853571428571513
 43
0.34760041762355
  0
INSERT
  5
255A
330
1F
100
AcDbEntity
  8
SOLBET_Izolacja
  6
Continuous
100
AcDbBlockReference
  2
ASOWDBLK
 10
58.9539749800922
 20
107.9751041155214
 30
0.0
 41
0.3476004176236529
 42
0.8090178571428623
 43
0.34760041762355
  0
INSERT
  5
255B
330
1F
100
AcDbEntity
  8
SOLBET_Izolacja
  6
Continuous
100
AcDbBlockReference
  2
ASOWDBLK
 10
59.12777518890402
 20
107.9751041155214
 30
0.0
 41
0.3476004176236529
 42
0.8326785714285449
 43
0.34760041762355
  0
INSERT
  5
255C
330
1F
100
AcDbEntity
  8
SOLBET_Izolacja
  6
Continuous
100
AcDbBlockReference
  2
ASOWDBLK
 10
59.30157539771585
 20
107.9751041155214
 30
0.0
 41
0.3476004176236529
 42
0.8563392857143128
 43
0.34760041762355
  0
INSERT
  5
255D
330
1F
100
AcDbEntity
  8
SOLBET_Izolacja
  6
Continuous
100
AcDbBlockReference
  2
ASOWDBLK
 10
59.47537560652756
 20
107.9751041155214
 30
0.0
 41
0.3476004176236529
 42
0.8799999999999954
 43
0.34760041762355
  0
INSERT
  5
255E
330
1F
100
AcDbEntity
  8
SOLBET_Izolacja
  6
Continuous
100
AcDbBlockReference
  2
ASOWDBLK
 10
59.64917581533928
 20
107.9751041155214
 30
0.0
 41
0.3476004176236529
 42
0.9036607142857064
 43
0.34760041762355
  0
INSERT
  5
255F
330
1F
100
AcDbEntity
  8
SOLBET_Izolacja
  6
Continuous
100
AcDbBlockReference
  2
ASOWDBLK
 10
59.8229760241511
 20
107.9751041155214
 30
0.0
 41
0.3476004176236529
 42
0.9273214285714459
 43
0.34760041762355
  0
INSERT
  5
2560
330
1F
100
AcDbEntity
  8
SOLBET_Izolacja
  6
Continuous
100
AcDbBlockReference
  2
ASOWDBLK
 10
59.99677623296292
 20
107.9751041155214
 30
0.0
 41
0.3476004176236529
 42
0.9509821428571569
 43
0.34760041762355
  0
INSERT
  5
2561
330
1F
100
AcDbEntity
  8
SOLBET_Izolacja
  6
Continuous
100
AcDbBlockReference
  2
ASOWDBLK
 10
60.17057644177464
 20
107.9751041155214
 30
0.0
 41
0.3476004176236529
 42
0.9746428571428396
 43
0.34760041762355
  0
INSERT
  5
2562
330
1F
100
AcDbEntity
  8
SOLBET_Izolacja
  6
Continuous
100
AcDbBlockReference
  2
ASOWDBLK
 10
60.34437665058636
 20
107.9751041155214
 30
0.0
 41
0.3476004176236529
 42
0.9983035714285506
 43
0.34760041762355
  0
INSERT
  5
2563
330
1F
100
AcDbEntity
  8
SOLBET_Izolacja
  6
Continuous
100
AcDbBlockReference
  2
ASOWDBLK
 10
60.51817685939818
 20
107.9751041155214
 30
0.0
 41
0.3476004176236529
 42
1.02196428571429
 43
0.34760041762355
  0
INSERT
  5
2564
330
1F
100
AcDbEntity
  8
SOLBET_Izolacja
  6
Continuous
100
AcDbBlockReference
  2
ASOWDBLK
 10
60.69197706821
 20
107.9751041155214
 30
0.0
 41
0.3476004176236529
 42
1.045625000000001
 43
0.34760041762355
  0
INSERT
  5
2565
330
1F
100
AcDbEntity
  8
SOLBET_Izolacja
  6
Continuous
100
AcDbBlockReference
  2
ASOWDBLK
 10
60.86577727702172
 20
107.9751041155214
 30
0.0
 41
0.3476004176236529
 42
1.069285714285712
 43
0.34760041762355
  0
INSERT
  5
2566
330
1F
100
AcDbEntity
  8
SOLBET_Izolacja
  6
Continuous
100
AcDbBlockReference
  2
ASOWDBLK
 10
61.03957748583344
 20
107.9751041155214
 30
0.0
 41
0.3476004176236529
 42
1.092946428571451
 43
0.34760041762355
  0
INSERT
  5
2567
330
1F
100
AcDbEntity
  8
SOLBET_Izolacja
  6
Continuous
100
AcDbBlockReference
  2
ASOWDBLK
 10
61.21337769464526
 20
107.9751041155214
 30
0.0
 41
0.3476004176236529
 42
1.116607142857162
 43
0.34760041762355
  0
INSERT
  5
2568
330
1F
100
AcDbEntity
  8
SOLBET_Izolacja
  6
Continuous
100
AcDbBlockReference
  2
ASOWDBLK
 10
61.38717790345708
 20
107.9751041155214
 30
0.0
 41
0.3476004176236529
 42
1.140267857142845
 43
0.34760041762355
  0
INSERT
  5
2569
330
1F
100
AcDbEntity
  8
SOLBET_Izolacja
  6
Continuous
100
AcDbBlockReference
  2
ASOWDBLK
 10
61.5609781122688
 20
107.9751041155214
 30
0.0
 41
0.3476004176236529
 42
1.163928571428556
 43
0.34760041762355
  0
INSERT
  5
256A
330
1F
100
AcDbEntity
  8
SOLBET_Izolacja
  6
Continuous
100
AcDbBlockReference
  2
ASOWDBLK
 10
61.73477832108051
 20
107.9751041155214
 30
0.0
 41
0.3476004176236529
 42
1.187589285714295
 43
0.34760041762355
  0
INSERT
  5
256B
330
1F
100
AcDbEntity
  8
SOLBET_Izolacja
  6
Continuous
100
AcDbBlockReference
  2
ASOWDBLK
 10
61.90857852989234
 20
107.9751041155214
 30
0.0
 41
0.3476004176236529
 42
1.211250000000006
 43
0.34760041762355
  0
INSERT
  5
256C
330
1F
100
AcDbEntity
  8
SOLBET_Izolacja
  6
Continuous
100
AcDbBlockReference
  2
ASOWDBLK
 10
62.08237873870416
 20
107.9751041155214
 30
0.0
 41
0.3476004176236529
 42
1.234910714285689
 43
0.34760041762355
  0
INSERT
  5
256D
330
1F
100
AcDbEntity
  8
SOLBET_Izolacja
  6
Continuous
100
AcDbBlockReference
  2
ASOWDBLK
 10
62.25617894751588
 20
107.9751041155214
 30
0.0
 41
0.3476004176236529
 42
1.258571428571457
 43
0.34760041762355
  0
INSERT
  5
256E
330
1F
100
AcDbEntity
  8
SOLBET_Izolacja
  6
Continuous
100
AcDbBlockReference
  2
ASOWDBLK
 10
62.42997915632759
 20
107.9751041155214
 30
0.0
 41
0.3476004176236529
 42
1.282232142857139
 43
0.34760041762355
  0
INSERT
  5
256F
330
1F
100
AcDbEntity
  8
SOLBET_Izolacja
  6
Continuous
100
AcDbBlockReference
  2
ASOWDBLK
 10
62.60377936513942
 20
107.9751041155214
 30
0.0
 41
0.3476004176236529
 42
1.30589285714285
 43
0.34760041762355
  0
INSERT
  5
2570
330
1F
100
AcDbEntity
  8
SOLBET_Izolacja
  6
Continuous
100
AcDbBlockReference
  2
ASOWDBLK
 10
62.77757957395124
 20
107.9751041155214
 30
0.0
 41
0.3476004176236529
 42
1.329553571428562
 43
0.34760041762355
  0
INSERT
  5
2571
330
1F
100
AcDbEntity
  8
SOLBET_Izolacja
  6
Continuous
100
AcDbBlockReference
  2
ASOWDBLK
 10
62.95137978276295
 20
107.9751041155214
 30
0.0
 41
0.3476004176236529
 42
1.353214285714301
 43
0.34760041762355
  0
INSERT
  5
2572
330
1F
100
AcDbEntity
  8
SOLBET_Izolacja
  6
Continuous
100
AcDbBlockReference
  2
ASOWDBLK
 10
63.12517999157467
 20
107.9751041155214
 30
0.0
 41
0.3476004176236529
 42
1.376875000000012
 43
0.34760041762355
  0
INSERT
  5
2573
330
1F
100
AcDbEntity
  8
SOLBET_Izolacja
  6
Continuous
100
AcDbBlockReference
  2
ASOWDBLK
 10
63.29898020038649
 20
107.9751041155214
 30
0.0
 41
0.3476004176236529
 42
1.400535714285695
 43
0.34760041762355
  0
INSERT
  5
2574
330
1F
100
AcDbEntity
  8
SOLBET_Izolacja
  6
Continuous
100
AcDbBlockReference
  2
ASOWDBLK
 10
63.47278040919832
 20
107.9751041155214
 30
0.0
 41
0.3476004176236529
 42
1.424196428571463
 43
0.34760041762355
  0
INSERT
  5
2575
330
1F
100
AcDbEntity
  8
SOLBET_Izolacja
  6
Continuous
100
AcDbBlockReference
  2
ASOWDBLK
 10
63.64658061801003
 20
107.9751041155214
 30
0.0
 41
0.3476004176236529
 42
1.447857142857145
 43
0.34760041762355
  0
INSERT
  5
2576
330
1F
100
AcDbEntity
  8
SOLBET_Izolacja
  6
Continuous
100
AcDbBlockReference
  2
ASOWDBLK
 10
63.82038082682175
 20
107.9751041155214
 30
0.0
 41
0.3476004176236529
 42
1.471517857142856
 43
0.34760041762355
  0
INSERT
  5
2577
330
1F
100
AcDbEntity
  8
SOLBET_Izolacja
  6
Continuous
100
AcDbBlockReference
  2
ASOWDBLK
 10
63.99418103563357
 20
107.9751041155214
 30
0.0
 41
0.3476004176236529
 42
1.495178571428539
 43
0.34760041762355
  0
INSERT
  5
2578
330
1F
100
AcDbEntity
  8
SOLBET_Izolacja
  6
Continuous
100
AcDbBlockReference
  2
ASOWDBLK
 10
64.1679812444454
 20
107.9751041155214
 30
0.0
 41
0.3476004176236529
 42
1.518839285714307
 43
0.34760041762355
  0
INSERT
  5
2579
330
1F
100
AcDbEntity
  8
SOLBET_Izolacja
  6
Continuous
100
AcDbBlockReference
  2
ASOWDBLK
 10
64.34178145325711
 20
107.9751041155214
 30
0.0
 41
0.3476004176236529
 42
1.542499999999989
 43
0.34760041762355
  0
INSERT
  5
257A
330
1F
100
AcDbEntity
  8
SOLBET_Izolacja
  6
Continuous
100
AcDbBlockReference
  2
ASOWDBLK
 10
64.51558166206883
 20
107.9751041155214
 30
0.0
 41
0.3476004176236529
 42
1.5661607142857
 43
0.34760041762355
  0
INSERT
  5
257B
330
1F
100
AcDbEntity
  8
SOLBET_Izolacja
  6
Continuous
100
AcDbBlockReference
  2
ASOWDBLK
 10
64.68938187088065
 20
107.9751041155214
 30
0.0
 41
0.3476004176236529
 42
1.58982142857144
 43
0.34760041762355
  0
INSERT
  5
257C
330
1F
100
AcDbEntity
  8
SOLBET_Izolacja
  6
Continuous
100
AcDbBlockReference
  2
ASOWDBLK
 10
64.86318207969247
 20
107.9751041155214
 30
0.0
 41
0.3476004176236529
 42
1.613482142857151
 43
0.34760041762355
  0
INSERT
  5
257D
330
1F
100
AcDbEntity
  8
SOLBET_Izolacja
  6
Continuous
100
AcDbBlockReference
  2
ASOWDBLK
 10
65.03698228850419
 20
107.9751041155214
 30
0.0
 41
0.3476004176236529
 42
1.637142857142862
 43
0.34760041762355
  0
INSERT
  5
257E
330
1F
100
AcDbEntity
  8
SOLBET_Izolacja
  6
Continuous
100
AcDbBlockReference
  2
ASOWDBLK
 10
65.21078249731591
 20
107.9751041155214
 30
0.0
 41
0.3476004176236529
 42
1.660803571428544
 43
0.34760041762355
  0
LINE
  5
257F
330
1F
100
AcDbEntity
  8
SOLBET_Izolacja
100
AcDbLine
 10
71.11146629842028
 20
43.10367044761608
 30
0.0
 11
71.11146633633075
 21
38.10367044761608
 31
0.0
  0
LINE
  5
2580
330
1F
100
AcDbEntity
  8
SOLBET_Izolacja
  6
BATTING
 48
0.245
100
AcDbLine
 10
71.11146631737551
 20
40.60367044296606
 30
0.0
 11
96.53120288231207
 21
40.60367044761608
 31
0.0
  0
LINE
  5
2591
330
1F
100
AcDbEntity
  8
SOLBET_Izolacja
100
AcDbLine
 10
102.5312028823061
 20
39.38157695895637
 30
0.0
 11
102.5312028887731
 21
38.10367045014312
 31
0.0
  0
LINE
  5
2592
330
1F
100
AcDbEntity
  8
SOLBET_Izolacja
  6
BATTING
 48
0.06
100
AcDbLine
 10
102.5312028855396
 20
38.74262370454975
 30
0.0
 11
96.53120288231196
 21
38.74262370454975
 31
0.0
  0
LEADER
  5
2593
330
1F
100
AcDbEntity
  8
SOLBET_Wymiary_Opisy
100
AcDbLeader
  3
Solbet$7
 73
     0
 74
     0
 75
     1
 40
3.25
 41
27.75
 76
     3
 10
70.49813693244619
 20
211.0329380047383
 30
0.0
 10
85.31060892005985
 20
238.7872394156634
 30
0.0
 10
87.81060892005985
 20
238.7872394156634
 30
0.0
340
2594
213
1.177601578005123
223
-0.1753245211093599
233
0.0
1001
ACAD
1000
DSTYLE
1002
{
1070
   147
1040
0.625
1070
    77
1070
     1
1002
}
  0
MTEXT
  5
2594
102
{ACAD_XDICTIONARY
360
29A2
102
}
102
{ACAD_REACTORS
330
2593
102
}
330
1F
100
AcDbEntity
  8
SOLBET_Wymiary_Opisy
100
AcDbMText
 10
87.25800734205472
 20
242.8375639367728
 30
0.0
 40
2.5
 41
0.0
 71
     1
 72
     1
  1
Wieniec \U+017Celbetowy
  7
Solbet_2_5
 73
     1
 44
1.0
1001
ACAD
1000
MTEXTBEGIN
1070
    73
1070
     1
1070
    44
1040
1.0
1070
    74
1070
     0
1000
MTEXTEND
  0
LEADER
  5
2595
330
1F
100
AcDbEntity
  8
SOLBET_Wymiary_Opisy
100
AcDbLeader
  3
Solbet$7
 73
     0
 74
     0
 40
3.25
 41
23.0
 76
     2
 10
76.80216475724023
 20
193.9232557463711
 30
0.0
 10
82.31411658327465
 20
195.3171248706235
 30
0.0
340
2596
213
1.177601578005123
223
-0.1753245211093599
233
0.0
1001
ACAD
1000
DSTYLE
1002
{
1070
   147
1040
0.625
1070
    77
1070
     1
1002
}
  0
MTEXT
  5
2596
102
{ACAD_REACTORS
330
2595
102
}
330
1F
100
AcDbEntity
  8
SOLBET_Wymiary_Opisy
100
AcDbMText
 10
81.76151500526954
 20
199.3674493917328
 30
0.0
 40
2.5
 41
0.0
 71
     1
 72
     1
  1
Folia izolacyjna
  7
Solbet_2_5
 73
     1
 44
1.0
1001
ACAD
1000
MTEXTBEGIN
1070
    73
1070
     1
1070
    44
1040
1.0
1070
    74
1070
     0
1000
MTEXTEND
  0
LEADER
  5
2597
330
1F
100
AcDbEntity
  8
SOLBET_Wymiary_Opisy
100
AcDbLeader
  3
Solbet$7
 73
     0
 75
     1
 40
2.751893939393939
 41
22.0
 76
     3
 10
61.73293650793562
 20
183.2640529441698
 30
0.0
 10
48.95932598940181
 20
170.9884381635202
 30
0.0
 10
46.4593259894018
 20
170.9884381635202
 30
0.0
340
2598
213
1.177601578005123
223
-0.1753245211093599
233
0.0
1001
ACAD
1000
DSTYLE
1002
{
1070
   147
1040
0.625
1070
    77
1070
     1
1002
}
  0
MTEXT
  5
2598
102
{ACAD_XDICTIONARY
360
29A4
102
}
102
{ACAD_REACTORS
330
2597
102
}
330
1F
100
AcDbEntity
  8
SOLBET_Wymiary_Opisy
100
AcDbMText
 10
22.65672441139668
 20
174.5406566240235
 30
0.0
 40
2.5
 41
0.0
 71
     1
 72
     1
  1
Konsola no\U+015Bna
  7
Solbet_2_5
 73
     1
 44
1.0
1001
ACAD
1000
MTEXTBEGIN
1070
    73
1070
     1
1070
    44
1040
1.0
1070
    74
1070
     0
1000
MTEXTEND
  0
MTEXT
  5
259A
330
1F
100
AcDbEntity
  8
SOLBET_Wymiary_Opisy
100
AcDbMText
 10
18.87085718966591
 20
183.5277215835185
 30
0.0
 40
2.5
 41
0.0
 71
     1
 72
     1
  1
Zbrojenie MURFOR
  7
Solbet_2_5
 73
     1
 44
1.0
1001
ACAD
1000
MTEXTBEGIN
1070
    73
1070
     1
1070
    44
1040
1.0
1070
    74
1070
     0
1000
MTEXTEND
  0
LEADER
  5
259B
330
1F
100
AcDbEntity
  8
SOLBET_Wymiary_Opisy
100
AcDbLeader
  3
Solbet$7
 73
     0
 75
     1
 40
3.25
 41
31.5
 76
     3
 10
54.27852903279313
 20
184.8619197598632
 30
0.0
 10
48.78402610869966
 20
196.9896139859406
 30
0.0
 10
46.28402610869966
 20
196.9896139859406
 30
0.0
340
259C
213
1.177601578005123
223
-0.1753245211093599
233
0.0
1001
ACAD
1000
DSTYLE
1002
{
1070
   147
1040
0.625
1070
    77
1070
     1
1002
}
  0
MTEXT
  5
259C
102
{ACAD_REACTORS
330
259B
102
}
330
1F
100
AcDbEntity
  8
SOLBET_Wymiary_Opisy
100
AcDbMText
 10
12.98142453069454
 20
201.03993850705
 30
0.0
 40
2.5
 41
0.0
 71
     1
 72
     1
  1
Puszka wentylacyjna
  7
Solbet_2_5
 73
     1
 44
1.0
1001
ACAD
1000
MTEXTBEGIN
1070
    73
1070
     1
1070
    44
1040
1.0
1070
    74
1070
     0
1000
MTEXTEND
  0
LEADER
  5
25DD
330
1F
100
AcDbEntity
  8
SOLBET_Wymiary_Opisy
100
AcDbLeader
  3
Solbet$7
 73
     0
 74
     0
 75
     1
 40
3.5
 41
37.25
 76
     3
 10
263.4418457321194
 20
222.1370065742606
 30
0.0
 10
288.1434293522612
 20
231.2566112949351
 30
0.0
 10
290.6434293522611
 20
231.2566112949351
 30
0.0
213
1.177601578005123
223
-0.1753245211093599
233
0.0
1001
ACAD
1000
DSTYLE
1002
{
1070
   147
1040
0.625
1070
    77
1070
     1
1002
}
  0
MTEXT
  5
25DE
102
{ACAD_XDICTIONARY
360
29A6
102
}
102
{ACAD_REACTORS
330
25DD
102
}
330
1F
100
AcDbEntity
  8
SOLBET_Wymiary_Opisy
100
AcDbMText
 10
290.090827774256
 20
235.5569358160444
 30
0.0
 40
2.5
 41
0.0
 71
     1
 72
     1
  1
Warstwa wyko\U+0144czeniowa
  7
Solbet_2_5
 73
     1
 44
1.0
1001
ACAD
1000
MTEXTBEGIN
1070
    73
1070
     1
1070
    44
1040
1.0
1070
    74
1070
     0
1000
MTEXTEND
  0
LEADER
  5
25DF
330
1F
100
AcDbEntity
  8
SOLBET_Wymiary_Opisy
100
AcDbLeader
  3
Solbet$7
 73
     0
 74
     0
 75
     1
 40
3.25
 41
32.5
 76
     3
 10
264.0001142412266
 20
214.3708877578417
 30
0.0
 10
288.0332426689303
 20
225.0154047643444
 30
0.0
 10
290.5332426689304
 20
225.0154047643444
 30
0.0
213
0.0
223
-0.2322806831707567
233
0.0
1001
ACAD
1000
DSTYLE
1002
{
1070
   147
1040
0.625
1070
    77
1070
     1
1002
}
  0
MTEXT
  5
25E0
102
{ACAD_REACTORS
330
25DF
102
}
330
1F
100
AcDbEntity
  8
SOLBET_Wymiary_Opisy
100
AcDbMText
 10
290.090827774256
 20
229.1226854475151
 30
0.0
 40
2.5
 41
0.0
 71
     1
 72
     1
  1
Wylewka jastrychowa
  7
Solbet_2_5
 73
     1
 44
1.0
1001
ACAD
1000
MTEXTBEGIN
1070
    73
1070
     1
1070
    44
1040
1.0
1070
    74
1070
     0
1000
MTEXTEND
  0
LEADER
  5
25E1
330
1F
100
AcDbEntity
  8
SOLBET_Wymiary_Opisy
100
AcDbLeader
  3
Solbet$7
 73
     0
 74
     0
 75
     1
 40
3.25
 41
19.75
 76
     3
 10
266.0386630749258
 20
207.4772280581519
 30
0.0
 10
287.6407021378541
 20
218.7802476855666
 30
0.0
 10
290.1407021378541
 20
218.7802476855666
 30
0.0
213
0.0
223
-0.2322806831707567
233
0.0
1001
ACAD
1000
DSTYLE
1002
{
1070
   147
1040
0.625
1070
    77
1070
     1
1002
}
  0
MTEXT
  5
25E2
102
{ACAD_REACTORS
330
25E1
102
}
330
1F
100
AcDbEntity
  8
SOLBET_Wymiary_Opisy
100
AcDbMText
 10
290.090827774256
 20
222.8875283687373
 30
0.0
 40
2.5
 41
0.0
 71
     1
 72
     1
  1
Hydroizolacja
  7
Solbet_2_5
 73
     1
 44
1.0
1001
ACAD
1000
MTEXTBEGIN
1070
    73
1070
     1
1070
    44
1040
1.0
1070
    74
1070
     0
1000
MTEXTEND
  0
LEADER
  5
25E3
330
1F
100
AcDbEntity
  8
SOLBET_Wymiary_Opisy
100
AcDbLeader
  3
Solbet$7
 73
     0
 74
     0
 75
     1
 40
3.25
 41
36.5
 76
     3
 10
270.5241340398343
 20
196.7005096965909
 30
0.0
 10
288.0660176052426
 20
208.8463256593318
 30
0.0
 10
290.5660176052427
 20
208.8463256593318
 30
0.0
213
0.0
223
-0.2322806831707567
233
0.0
1001
ACAD
1000
DSTYLE
1002
{
1070
   147
1040
0.625
1070
    77
1070
     1
1002
}
  0
MTEXT
  5
25E4
102
{ACAD_XDICTIONARY
360
29A8
102
}
102
{ACAD_REACTORS
330
25E3
102
}
330
1F
100
AcDbEntity
  8
SOLBET_Wymiary_Opisy
100
AcDbMText
 10
290.090827774256
 20
213.1655852498004
 30
0.0
 40
2.5
 41
0.0
 71
     1
 72
     1
  1
P\U+0142yty izolacyjne twarde
  7
Solbet_2_5
 73
     1
 44
1.0
1001
ACAD
1000
MTEXTBEGIN
1070
    73
1070
     1
1070
    44
1040
1.0
1070
    74
1070
     0
1000
MTEXTEND
  0
LINE
  5
25E5
330
1F
100
AcDbEntity
  8
SOLBET_Wymiary_Opisy
100
AcDbLine
 10
276.0604043781345
 20
223.3645656580674
 30
0.0
 11
276.0604043781345
 21
168.4001139513085
 31
0.0
  0
LINE
  5
25E6
330
1F
100
AcDbEntity
  8
SOLBET_Izolacja
100
AcDbLine
 10
232.1740584385284
 20
193.9980314902914
 30
0.0
 11
276.0604043781345
 21
193.9980314902914
 31
0.0
  0
LINE
  5
25E7
330
1F
100
AcDbEntity
  8
SOLBET_Izolacja
100
AcDbLine
 10
232.1740584385284
 20
206.4980314902913
 30
0.0
 11
276.0604043781345
 21
206.4980314902914
 31
0.0
  0
LINE
  5
25E8
330
1F
100
AcDbEntity
  8
SOLBET_Tynki_Posadzki
100
AcDbLine
 10
240.7892513005795
 20
223.3645656580674
 30
0.0
 11
276.0604043781345
 21
223.3645656580674
 31
0.0
  0
LINE
  5
25E9
330
1F
100
AcDbEntity
  8
SOLBET_Emulsje_Folie
100
AcDbLine
 10
232.3743199345695
 20
207.4772280581519
 30
0.0
 11
276.0604043781345
 21
207.4772280581519
 31
0.0
  0
HATCH
  5
25EA
330
1F
100
AcDbEntity
  8
SOLBET_Tynki_Posadzki
100
AcDbHatch
 10
0.0
 20
0.0
 30
0.0
210
0.0
220
0.0
230
1.0
  2
AR-CONC
 70
     0
 71
     0
 91
        1
 92
        5
 93
        4
 72
     2
 10
265.2280601944863
 20
200.2480314902915
 40
33.63970172404727
 50
142.2031821742316
 51
166.0379938227853
 73
     1
 72
     1
 10
232.5822119870009
 20
208.3645656580684
 11
276.0604043781342
 21
208.3645656580684
 72
     1
 10
276.0604043781345
 20
208.3645656580684
 11
276.0604043781351
 21
220.8645656580673
 72
     1
 10
276.060404378135
 20
220.8645656580673
 11
238.6463361911077
 21
220.8645656580673
 97
        0
 75
     0
 76
     1
 52
0.0
 41
0.03
 77
     0
 78
    13
 53
50.0
 43
902.1562553148902
 44
123.1160127115538
 45
5.46554006988012
 46
-0.4781725661670926
 79
     2
 49
0.5715
 49
-6.2865
 53
355.0
 43
902.1562553148902
 44
123.1160127115538
 45
-1.057284779270009
 46
5.731699286465398
 79
     2
 49
0.4572
 49
-5.029199999999999
 53
100.451
 43
902.61171531489
 44
123.0761652115538
 45
4.408275049978777
 46
5.253500634608755
 79
     2
 49
0.4857000000000001
 49
-5.342699999999999
 53
46.1842
 43
902.1562553148902
 44
124.6400127115538
 45
8.132371226763897
 46
-1.261269837981814
 79
     2
 49
0.8572499999999999
 49
-9.429749999999998
 53
96.6356
 43
902.8339523148899
 44
124.5349077115538
 45
7.122127033987114
 46
7.422766676701476
 79
     2
 49
0.7285500000000001
 49
-8.014049999999999
 53
351.184
 43
902.1562553148902
 44
124.6400127115538
 45
7.122138174418017
 46
7.422753535817929
 79
     2
 49
0.6858
 49
-7.5438
 53
21.0
 43
902.9182553148901
 44
124.2590127115538
 45
4.548446395061498
 46
-3.067965555502874
 79
     2
 49
0.5715
 49
-6.2865
 53
326.0
 43
902.9182553148901
 44
124.2590127115538
 45
1.854060850429411
 46
5.525638983669577
 79
     2
 49
0.4572
 49
-5.029199999999999
 53
71.45140000000001
 43
903.29729031489
 44
124.0033497115538
 45
6.402494723103733
 46
2.457685731481723
 79
     2
 49
0.4857000000000001
 49
-5.342699999999999
 53
37.5
 43
902.1562553148902
 44
123.1160127115538
 45
0.0926580975177545
 46
2.536651166194593
 79
     6
 49
0.0
 49
-4.968239999999999
 49
0.0
 49
-5.1054
 49
0.0
 49
-5.04825
 53
7.499999999999999
 43
902.1562553148902
 44
123.1160127115538
 45
2.004589875309172
 46
3.005417244543585
 79
     6
 49
0.0
 49
-2.910839999999999
 49
0.0
 49
-4.853939999999999
 49
0.0
 49
-1.92405
 53
327.5
 43
900.45699531489
 44
123.1160127115538
 45
4.067717855006141
 46
-0.1718623197802037
 79
     6
 49
0.0
 49
-1.905
 49
0.0
 49
-5.943599999999999
 49
0.0
 49
-7.886699999999999
 53
317.5
 43
899.6949953148901
 44
123.1160127115538
 45
4.443875441580541
 46
0.7627947309999904
 79
     6
 49
0.0
 49
-2.476499999999999
 49
0.0
 49
-3.947159999999999
 49
0.0
 49
-5.600699999999999
 47
0.0387476598051738
 98
        1
 10
255.5308487386783
 20
214.4621039556822
1001
ACAD
1010
0.0
1020
0.0
1030
0.0
  0
LWPOLYLINE
  5
25EB
330
1F
100
AcDbEntity
  8
SOLBET_Tynki_Posadzki
100
AcDbPolyline
 90
        4
 70
     0
 43
0.0
 10
232.5822119870009
 20
208.3645656580684
 10
276.0604043781345
 20
208.3645656580684
 10
276.060404378135
 20
220.8645656580674
 10
238.6463361911083
 20
220.8645656580674
1001
ASO_SCHRAFF
1005
0
1070
     1
1002
{
1070
     1
1005
0
1002
}
1002
{
1070
     2
1005
0
1002
}
1002
{
1070
     4
1000
AR-CONC
1040
0.01
1040
0.0
1070
     0
1000
T__SCHR
1070
   256
1000
_bylayer
1040
50.0
1070
     1
1002
}
  0
LWPOLYLINE
  5
25EC
330
1F
100
AcDbEntity
  8
SOLBET_Beton
100
AcDbPolyline
 90
        3
 70
     0
 43
0.0
 10
232.9932867970042
 20
190.6277967688393
 10
276.0604043781345
 20
190.6277967688393
 10
276.0604043781345
 20
168.4001139513083
  0
LINE
  5
25ED
330
1F
100
AcDbEntity
  8
SOLBET_Izolacja
  6
BATTING
 48
0.6
100
AcDbLine
 10
231.5883584704393
 20
200.2480314902914
 30
0.0
 11
276.0604043781345
 21
200.2480314902914
 31
0.0
  0
ARC
  5
25EE
330
1F
100
AcDbEntity
  8
SOLBET_Wymiary_Opisy
100
AcDbCircle
 10
265.2280601944863
 20
200.2480314902914
 30
0.0
 40
33.6397017240473
100
AcDbArc
 50
136.5926968744823
 51
288.7845676764009
  0
MTEXT
  5
25EF
102
{ACAD_XDICTIONARY
360
2887
102
}
330
1F
100
AcDbEntity
  8
SOLBET_Wymiary_Opisy
100
AcDbMText
 10
241.4570588282668
 20
252.0308799881616
 30
0.0
 40
5.0
 41
30.77919768571883
 71
     1
 72
     5
  1
\pxqc;B\P(5 : 1)
  7
Solbet_5
 73
     1
 44
1.0
1001
ACAD
1000
MTEXTBEGIN
1070
    73
1070
     1
1070
    44
1040
1.0
1070
    74
1070
     0
1000
MTEXTEND
1000
ACAD_MTEXT_DEFINED_HEIGHT_BEGIN
1070
    46
1040
23.42535011036716
1000
ACAD_MTEXT_DEFINED_HEIGHT_END
  0
LINE
  5
25F0
330
1F
100
AcDbEntity
  8
SOLBET_Beton
100
AcDbLine
 10
268.8581759372255
 20
190.6277967688393
 30
0.0
 11
268.8581759372255
 21
166.8047692125592
 31
0.0
  0
LINE
  5
25F1
330
1F
100
AcDbEntity
  8
SOLBET_Zbrojenie_Konstrukcja
100
AcDbLine
 10
276.0604043781345
 20
183.2091262537173
 30
0.0
 11
236.2227979060339
 21
183.2091262537173
 31
0.0
  0
LINE
  5
25F2
330
1F
100
AcDbEntity
  8
SOLBET_Zbrojenie_Konstrukcja
100
AcDbLine
 10
262.483086665384
 20
183.2091262537173
 30
0.0
 11
271.7702611491026
 21
167.2506203986271
 31
0.0
  0
LINE
  5
25F3
330
1F
100
AcDbEntity
  8
SOLBET_Zbrojenie_Konstrukcja
100
AcDbLine
 10
262.483086665384
 20
183.2091262537173
 30
0.0
 11
254.1142680741412
 21
168.4972337556103
 31
0.0
  0
CIRCLE
  5
25F4
330
1F
100
AcDbEntity
  8
SOLBET_Wymiary_Opisy
100
AcDbCircle
 10
134.7657201360612
 20
219.3663182546394
 30
0.0
 40
6.72794034480946
  0
LEADER
  5
25F5
330
1F
100
AcDbEntity
  8
SOLBET_Wymiary_Opisy
100
AcDbLeader
  3
Solbet$7
 73
     0
 74
     0
 75
     1
 40
5.0
 41
4.0
 76
     3
 10
138.3872938061781
 20
225.0363610618173
 30
0.0
 10
141.3584440069946
 20
229.0348478008612
 30
0.0
 10
143.8584440069946
 20
229.0348478008612
 30
0.0
213
0.8103787685154202
223
-0.1753245211093599
233
0.0
1001
ACAD
1000
DSTYLE
1002
{
1070
   341
1005
1EF2
1070
   147
1040
0.625
1070
    77
1070
     1
1002
}
  0
MTEXT
  5
25F6
102
{ACAD_REACTORS
330
25F5
102
}
330
1F
100
AcDbEntity
  8
SOLBET_Wymiary_Opisy
100
AcDbMText
 10
147.6730652384792
 20
234.8351723219706
 30
0.0
 40
5.0
 41
0.0
 71
     3
 72
     1
  1
B
  7
Solbet_5
 73
     1
 44
1.0
1001
ACAD
1000
MTEXTBEGIN
1070
    73
1070
     1
1070
    44
1040
1.0
1070
    74
1070
     0
1000
MTEXTEND
  0
LEADER
  5
2601
330
1F
100
AcDbEntity
  8
SOLBET_Wymiary_Opisy
100
AcDbLeader
  3
Solbet$7
 73
     0
 74
     0
 75
     1
 40
3.25
 41
20.25
 76
     3
 10
111.8909380777866
 20
205.3003137265368
 30
0.0
 10
147.365792022339
 20
169.8466172601448
 30
0.0
 10
149.865792022339
 20
169.8466172601448
 30
0.0
340
2602
213
1.177601578005123
223
-0.1753245211093599
233
0.0
1001
ACAD
1000
DSTYLE
1002
{
1070
   147
1040
0.625
1070
    77
1070
     1
1002
}
  0
MTEXT
  5
2602
102
{ACAD_REACTORS
330
2601
102
}
330
1F
100
AcDbEntity
  8
SOLBET_Wymiary_Opisy
100
AcDbMText
 10
169.5631904443339
 20
173.8969417812542
 30
0.0
 40
2.5
 41
0.0
 71
     3
 72
     1
  1
Tynk SOLBET
  7
Solbet_2_5
 73
     1
 44
1.0
1001
ACAD
1000
MTEXTBEGIN
1070
    73
1070
     1
1070
    44
1040
1.0
1070
    74
1070
     0
1000
MTEXTEND
  0
LEADER
  5
2603
330
1F
100
AcDbEntity
  8
SOLBET_Wymiary_Opisy
100
AcDbLeader
  3
Solbet$7
 73
     0
 74
     0
 75
     1
 40
3.25
 41
19.5
 76
     3
 10
122.5651314838185
 20
214.3003137265365
 30
0.0
 10
147.3442706199621
 20
180.8841659496379
 30
0.0
 10
149.8442706199621
 20
180.8841659496379
 30
0.0
340
2604
213
1.177601578005123
223
-0.1753245211093599
233
0.0
1001
ACAD
1000
DSTYLE
1002
{
1070
   147
1040
0.625
1070
    77
1070
     1
1002
}
  0
MTEXT
  5
2604
102
{ACAD_REACTORS
330
2603
102
}
330
1F
100
AcDbEntity
  8
SOLBET_Wymiary_Opisy
100
AcDbMText
 10
168.791669041957
 20
184.9344904707472
 30
0.0
 40
2.5
 41
0.0
 71
     3
 72
     1
  1
Strop Teriva
  7
Solbet_2_5
 73
     1
 44
1.0
1001
ACAD
1000
MTEXTBEGIN
1070
    73
1070
     1
1070
    44
1040
1.0
1070
    74
1070
     0
1000
MTEXTEND
  0
CIRCLE
  5
260F
330
1F
100
AcDbEntity
  8
SOLBET_Wymiary_Opisy
100
AcDbCircle
 10
65.48859820694895
 20
90.00746942074941
 30
0.0
 40
14.92640713500566
  0
LINE
  5
2610
330
1F
100
AcDbEntity
  8
SOLBET_Wymiary_Opisy
100
AcDbLine
 10
51.90682175876123
 20
96.19883263666579
 30
0.0
 11
44.63194097024984
 21
104.638326691914
 31
0.0
1001
ACAD
1000
DSTYLE
1002
{
1070
   341
1005
0
1070
   147
1040
0.625
1070
    77
1070
     1
1002
}
  0
LINE
  5
2611
330
1F
100
AcDbEntity
  8
SOLBET_Wymiary_Opisy
100
AcDbLine
 10
37.50694097024985
 20
104.638326691914
 30
0.0
 11
44.63194097024984
 21
104.638326691914
 31
0.0
1001
ACAD
1000
DSTYLE
1002
{
1070
   341
1005
0
1070
   147
1040
0.625
1070
    77
1070
     1
1002
}
  0
MTEXT
  5
2612
330
1F
100
AcDbEntity
  8
SOLBET_Wymiary_Opisy
100
AcDbMText
 10
43.35365879262804
 20
111.0759321225142
 30
0.0
 40
5.0
 41
0.0
 71
     3
 72
     1
  1
A
  7
Solbet_5
 73
     1
 44
1.0
1001
ACAD
1000
MTEXTBEGIN
1070
    73
1070
     1
1070
    44
1040
1.0
1070
    74
1070
     0
1000
MTEXTEND
  0
LEADER
  5
2613
330
1F
100
AcDbEntity
  8
SOLBET_Wymiary_Opisy
100
AcDbLeader
  3
Solbet$7
 73
     0
 75
     1
 40
3.25
 41
31.5
 76
     3
 10
54.27852903279313
 20
106.5067545230742
 30
0.0
 10
48.78402610869966
 20
118.6344487491517
 30
0.0
 10
46.28402610869966
 20
118.6344487491517
 30
0.0
340
2614
213
1.177601578005123
223
-0.1753245211093599
233
0.0
1001
ACAD
1000
DSTYLE
1002
{
1070
   147
1040
0.625
1070
    77
1070
     1
1002
}
  0
MTEXT
  5
2614
102
{ACAD_REACTORS
330
2613
102
}
330
1F
100
AcDbEntity
  8
SOLBET_Wymiary_Opisy
100
AcDbMText
 10
12.98142453069454
 20
122.6847732702611
 30
0.0
 40
2.5
 41
0.0
 71
     1
 72
     1
  1
Puszka wentylacyjna
  7
Solbet_2_5
 73
     1
 44
1.0
1001
ACAD
1000
MTEXTBEGIN
1070
    73
1070
     1
1070
    44
1040
1.0
1070
    74
1070
     0
1000
MTEXTEND
  0
LINE
  5
2615
330
1F
100
AcDbEntity
  8
SOLBET_Tynki_Posadzki
100
AcDbLine
 10
222.3806380722747
 20
105.1181480732279
 30
0.0
 11
222.3806380722747
 21
56.17211129797086
 31
0.0
  0
INSERT
  5
2616
330
1F
100
AcDbEntity
  8
SOLBET_Zbrojenie_Konstrukcja
100
AcDbBlockReference
  2
*U5
 10
-932.1434068469368
 20
-509.5344103484984
 30
0.0
 41
150.0
 42
150.0
 43
150.0
1001
ASO_SCHRAFF
1005
0
1070
     0
1005
0
  0
INSERT
  5
2617
330
1F
100
AcDbEntity
  8
SOLBET_Zbrojenie_Konstrukcja
100
AcDbBlockReference
  2
*U5
 10
1489.190747776234
 20
-509.5344103484984
 30
0.0
 41
-150.0
 42
150.0
 43
150.0
1001
ASO_SCHRAFF
1005
0
1070
     0
1005
0
  0
LINE
  5
2618
330
1F
100
AcDbEntity
  8
SOLBET_Tynki_Posadzki
100
AcDbLine
 10
297.3806380722747
 20
105.1181497337635
 30
0.0
 11
297.3806380722756
 21
56.17210963743589
 31
0.0
  0
LWPOLYLINE
  5
261A
330
1F
100
AcDbEntity
  8
SOLBET_Beton
100
AcDbPolyline
 90
        3
 70
     0
 43
0.0
 10
228.7138385123392
 20
112.7980337699158
 10
240.3806380722747
 20
112.7980337699158
 10
240.3806380722747
 20
120.955533411035
  0
LWPOLYLINE
  5
261B
330
1F
100
AcDbEntity
  8
SOLBET_Beton
100
AcDbPolyline
 90
        5
 70
     0
 43
0.0
 10
222.3806380722747
 20
105.1181480732283
 10
222.3806380722747
 20
100.7980337699158
 10
240.3806380722747
 20
100.7980337699158
 10
240.3806380722747
 20
110.5480337699151
 10
226.5490470385014
 20
110.5480337699151
  0
LWPOLYLINE
  5
261C
330
1F
100
AcDbEntity
  8
SOLBET_Beton
100
AcDbPolyline
 90
        4
 70
     1
 43
0.0
 10
222.3806380722747
 20
88.79803376991544
 10
240.3806380722747
 20
88.79803376991544
 10
240.3806380722747
 20
98.54803376991579
 10
222.3806380722747
 20
98.54803376991579
  0
LWPOLYLINE
  5
261D
330
1F
100
AcDbEntity
  8
SOLBET_Beton
100
AcDbPolyline
 90
        4
 70
     1
 43
0.0
 10
222.3806380722747
 20
76.79803376991511
 10
240.3806380722747
 20
76.79803376991511
 10
240.3806380722747
 20
86.54803376991544
 10
222.3806380722747
 20
86.54803376991544
  0
LWPOLYLINE
  5
261E
330
1F
100
AcDbEntity
  8
SOLBET_Beton
100
AcDbPolyline
 90
        4
 70
     1
 43
0.0
 10
222.3806380722747
 20
64.79803376991545
 10
240.3806380722747
 20
64.79803376991545
 10
240.3806380722747
 20
74.5480337699151
 10
222.3806380722747
 20
74.5480337699151
  0
LWPOLYLINE
  5
261F
330
1F
100
AcDbEntity
  8
SOLBET_Beton
100
AcDbPolyline
 90
        5
 70
     0
 43
0.0
 10
224.8133045451843
 20
52.79803376991579
 10
240.3806380722747
 20
52.79803376991579
 10
240.3806380722747
 20
62.54803376991545
 10
222.3806380722747
 20
62.54803376991545
 10
222.3806380722747
 20
56.17211129797077
  0
LWPOLYLINE
  5
2620
330
1F
100
AcDbEntity
  8
SOLBET_Beton
100
AcDbPolyline
 90
        4
 70
     0
 43
0.0
 10
239.4505721255876
 20
40.79803376991544
 10
240.3806380722747
 20
40.79803376991544
 10
240.3806380722747
 20
50.54803376991579
 10
226.7242894923945
 20
50.54803376991579
  0
LINE
  5
2621
330
1F
100
AcDbEntity
  8
SOLBET_Izolacja
100
AcDbLine
 10
244.8806380722583
 20
122.8372930975853
 30
0.0
 11
244.8806380722574
 21
38.45296627361388
 31
0.0
  0
LINE
  5
2622
330
1F
100
AcDbEntity
  8
SOLBET_Zaprawy
100
AcDbLine
 10
240.3806380722738
 20
120.9555334110349
 30
0.0
 11
240.3806380722747
 21
40.3347259601639
 31
0.0
  0
LWPOLYLINE
  5
2623
330
1F
100
AcDbEntity
  8
SOLBET_Zbrojenie_Konstrukcja
100
AcDbPolyline
 90
        4
 70
     0
 43
0.0
 10
224.7939124752504
 20
75.74377137884297
 10
239.9056720741348
 20
75.74377137884297
 10
259.6528184262772
 20
77.28329270592611
 10
278.2662864958654
 20
77.28329270592611
  0
LWPOLYLINE
  5
2624
330
1F
100
AcDbEntity
  8
SOLBET_Zbrojenie_Konstrukcja
100
AcDbPolyline
 90
        4
 70
     1
 43
0.0
 10
243.9770768065721
 20
78.18904362195515
 10
244.4420465034743
 20
78.18904362195515
 10
244.4420465034743
 20
74.00582616486771
 10
243.9770768065721
 20
74.00582616486771
  0
LINE
  5
2625
330
1F
100
AcDbEntity
  8
SOLBET_Zbrojenie_Konstrukcja
100
AcDbLine
 10
244.4420465034743
 20
80.83260538836505
 30
0.0
 11
244.4420465034743
 21
71.07177112801931
 31
0.0
  0
LINE
  5
262C
330
1F
100
AcDbEntity
  8
SOLBET_Izolacja
  6
BATTING
 48
0.72
100
AcDbLine
 10
252.3806383431895
 20
36.4984574941921
 30
0.0
 11
252.3806383431895
 21
124.7918018770069
 31
0.0
  0
ARC
  5
262D
330
1F
100
AcDbEntity
  8
SOLBET_Wymiary_Opisy
100
AcDbCircle
 10
259.8806386141189
 20
80.64512968559951
 30
0.0
 40
44.77922140501698
100
AcDbArc
 50
33.12902418895926
 51
146.870978348156
  0
LINE
  5
2635
330
1F
100
AcDbEntity
  8
SOLBET_Bloczki
100
AcDbLine
 10
295.8806386141189
 20
107.275538425225
 30
0.0
 11
295.8806386141189
 21
77.28329270592578
 31
0.0
  0
LINE
  5
2636
330
1F
100
AcDbEntity
  8
SOLBET_Bloczki
100
AcDbLine
 10
290.538899887357
 20
113.2832927059261
 30
0.0
 11
259.8806386141189
 21
113.2832927059261
 31
0.0
  0
LINE
  5
2637
330
1F
100
AcDbEntity
  8
SOLBET_Bloczki
100
AcDbLine
 10
259.8806386141189
 20
113.2832927059261
 30
0.0
 11
259.8806386141189
 21
77.28329270592611
 31
0.0
  0
LINE
  5
2638
330
1F
100
AcDbEntity
  8
SOLBET_Bloczki
100
AcDbLine
 10
259.8806386141189
 20
77.28329270592611
 30
0.0
 11
295.8806386141189
 21
77.28329270592578
 31
0.0
  0
LINE
  5
2640
330
1F
100
AcDbEntity
  8
SOLBET_Bloczki
100
AcDbLine
 10
295.8806386141189
 20
77.28329270592578
 30
0.0
 11
295.8806386141189
 21
54.01472094597399
 31
0.0
  0
LINE
  5
2641
330
1F
100
AcDbEntity
  8
SOLBET_Bloczki
100
AcDbLine
 10
295.8806386141189
 20
77.28329270592578
 30
0.0
 11
259.8806386141189
 21
77.28329270592578
 31
0.0
  0
LINE
  5
2642
330
1F
100
AcDbEntity
  8
SOLBET_Bloczki
100
AcDbLine
 10
259.8806386141189
 20
77.28329270592578
 30
0.0
 11
259.8806386141189
 21
41.28329270592577
 31
0.0
  0
LINE
  5
2643
330
1F
100
AcDbEntity
  8
SOLBET_Bloczki
100
AcDbLine
 10
259.8806386141189
 20
41.28329270592577
 30
0.0
 11
281.2306844975617
 21
41.2832927059256
 31
0.0
  0
ARC
  5
2644
330
1F
100
AcDbEntity
  8
SOLBET_Wymiary_Opisy
100
AcDbCircle
 10
259.8806386141189
 20
80.64512968559951
 30
0.0
 40
44.77922140501698
100
AcDbArc
 50
213.1290216518439
 51
326.8709758110413
  0
MTEXT
  5
2658
330
1F
100
AcDbEntity
  8
SOLBET_Wymiary_Opisy
100
AcDbMText
 10
287.5711630904759
 20
126.6134543357398
 30
0.0
 40
2.5
 41
0.0
 71
     1
 72
     1
  1
Zbrojenie MURFOR
  7
Solbet_2_5
 73
     1
 44
1.0
1001
ACAD
1000
MTEXTBEGIN
1070
    73
1070
     1
1070
    44
1040
1.0
1070
    74
1070
     0
1000
MTEXTEND
  0
LEADER
  5
2659
330
1F
100
AcDbEntity
  8
SOLBET_Wymiary_Opisy
100
AcDbLeader
  3
Solbet$7
 73
     0
 40
2.501893939393939
 41
23.75
 76
     2
 10
230.4399186654612
 20
108.6564295266003
 30
0.0
 10
203.7481517684271
 20
103.3870560676792
 30
0.0
340
265A
213
1.177601578005123
223
-0.1753245211093599
233
0.0
1001
ACAD
1000
DSTYLE
1002
{
1070
   147
1040
0.625
1070
    77
1070
     1
1002
}
  0
MTEXT
  5
265A
102
{ACAD_REACTORS
330
2659
102
}
330
1F
100
AcDbEntity
  8
SOLBET_Wymiary_Opisy
100
AcDbMText
 10
178.1955501904219
 20
106.6892745281825
 30
0.0
 40
2.5
 41
0.0
 71
     1
 72
     1
  1
Warstwa licowa
  7
Solbet_2_5
 73
     1
 44
1.0
1001
ACAD
1000
MTEXTBEGIN
1070
    73
1070
     1
1070
    44
1040
1.0
1070
    74
1070
     0
1000
MTEXTEND
  0
LEADER
  5
265B
330
1F
100
AcDbEntity
  8
SOLBET_Wymiary_Opisy
100
AcDbLeader
  3
Solbet$7
 73
     0
 40
3.25
 41
28.5
 76
     2
 10
242.1423496245483
 20
101.4626539500546
 30
0.0
 10
202.5162014441889
 20
90.89991745217353
 30
0.0
340
265C
213
1.177601578005123
223
-0.1753245211093599
233
0.0
1001
ACAD
1000
DSTYLE
1002
{
1070
   147
1040
0.625
1070
    77
1070
     1
1002
}
  0
MTEXT
  5
265C
102
{ACAD_REACTORS
330
265B
102
}
330
1F
100
AcDbEntity
  8
SOLBET_Wymiary_Opisy
100
AcDbMText
 10
172.2135998661838
 20
94.95024197328289
 30
0.0
 40
2.5
 41
0.0
 71
     1
 72
     1
  1
Pustka powietrzna
  7
Solbet_2_5
 73
     1
 44
1.0
1001
ACAD
1000
MTEXTBEGIN
1070
    73
1070
     1
1070
    44
1040
1.0
1070
    74
1070
     0
1000
MTEXTEND
  0
LEADER
  5
265D
330
1F
100
AcDbEntity
  8
SOLBET_Wymiary_Opisy
100
AcDbLeader
  3
Solbet$7
 73
     0
 40
2.501893939393939
 41
25.25
 76
     2
 10
252.3806383431895
 20
88.22829362252834
 30
0.0
 10
203.5637133929463
 20
77.05745986241716
 30
0.0
340
265E
213
1.177601578005123
223
-0.1753245211093599
233
0.0
1001
ACAD
1000
DSTYLE
1002
{
1070
   147
1040
0.625
1070
    77
1070
     1
1002
}
  0
MTEXT
  5
265E
102
{ACAD_XDICTIONARY
360
29AA
102
}
102
{ACAD_REACTORS
330
265D
102
}
330
1F
100
AcDbEntity
  8
SOLBET_Wymiary_Opisy
100
AcDbMText
 10
176.5111118149411
 20
80.35967832292046
 30
0.0
 40
2.5
 41
0.0
 71
     1
 72
     1
  1
We\U+0142na mineralna
  7
Solbet_2_5
 73
     1
 44
1.0
1001
ACAD
1000
MTEXTBEGIN
1070
    73
1070
     1
1070
    44
1040
1.0
1070
    74
1070
     0
1000
MTEXTEND
  0
LEADER
  5
265F
330
1F
100
AcDbEntity
  8
SOLBET_Wymiary_Opisy
100
AcDbLeader
  3
Solbet$7
 73
     0
 75
     1
 40
3.25
 41
46.0
 76
     3
 10
269.66453039468
 20
83.18829242861694
 30
0.0
 10
203.2351386935673
 20
55.43714077640176
 30
0.0
 10
200.7351386935673
 20
55.43714077640176
 30
0.0
340
2660
213
1.177601578005123
223
-0.1753245211093599
233
0.0
1001
ACAD
1000
DSTYLE
1002
{
1070
   147
1040
0.625
1070
    77
1070
     1
1002
}
  0
MTEXT
  5
2660
102
{ACAD_REACTORS
330
265F
102
}
330
1F
100
AcDbEntity
  8
SOLBET_Wymiary_Opisy
100
AcDbMText
 10
152.9325371155621
 20
59.48746529751112
 30
0.0
 40
2.5
 41
0.0
 71
     1
 72
     1
  1
Bloczek SOLBET Optimal 24cm
  7
Solbet_2_5
 73
     1
 44
1.0
1001
ACAD
1000
MTEXTBEGIN
1070
    73
1070
     1
1070
    44
1040
1.0
1070
    74
1070
     0
1000
MTEXTEND
  0
LEADER
  5
2667
330
1F
100
AcDbEntity
  8
SOLBET_Wymiary_Opisy
100
AcDbLeader
  3
Solbet$7
 73
     0
 75
     1
 40
3.25
 41
39.75
 76
     3
 10
297.5344324592586
 20
80.54423855554386
 30
0.0
 10
203.3365194447652
 20
35.03523296974392
 30
0.0
 10
200.8365194447651
 20
35.03523296974392
 30
0.0
340
2668
213
1.177601578005123
223
-0.1753245211093599
233
0.0
1001
ACAD
1000
DSTYLE
1002
{
1070
   147
1040
0.625
1070
    77
1070
     1
1002
}
  0
MTEXT
  5
2668
102
{ACAD_XDICTIONARY
360
29AC
102
}
102
{ACAD_REACTORS
330
2667
102
}
330
1F
100
AcDbEntity
  8
SOLBET_Wymiary_Opisy
100
AcDbMText
 10
199.03391786676
 20
39.08555749085328
 30
0.0
 40
2.5
 41
0.0
 71
     3
 72
     1
  1
Tynk wewn\U+0119trzny SOLBET 
  7
Solbet_2_5
 73
     1
 44
1.0
1001
ACAD
1000
MTEXTBEGIN
1070
    73
1070
     1
1070
    44
1040
1.0
1070
    74
1070
     0
1000
MTEXTEND
  0
INSERT
  5
2669
330
1F
100
AcDbEntity
  8
SOLBET_Wymiary_Opisy
100
AcDbBlockReference
  2
_DotSmall
 10
278.0304675619175
 20
113.6677399110421
 30
0.0
 41
2.499999999999994
 42
2.5
 43
2.5
 50
236.8554021207324
1001
ACAD
1000
DSTYLE
1002
{
1070
   147
1040
0.625
1070
    77
1070
     1
1002
}
  0
LINE
  5
266B
330
1F
100
AcDbEntity
  8
SOLBET_Wymiary_Opisy
100
AcDbLine
 10
278.0168234125749
 20
113.6954193716821
 30
0.0
 11
286.9730600059075
 21
123.1683036589557
 31
0.0
1001
ACAD
1000
DSTYLE
1002
{
1070
   147
1040
0.625
1070
    77
1070
     1
1002
}
  0
LINE
  5
266C
330
1F
100
AcDbEntity
  8
SOLBET_Wymiary_Opisy
100
AcDbLine
 10
286.9730600059075
 20
123.1683036589557
 30
0.0
 11
314.8211630904759
 21
123.1683036589557
 31
0.0
1001
ACAD
1000
DSTYLE
1002
{
1070
   147
1040
0.625
1070
    77
1070
     1
1002
}
  0
MTEXT
  5
2688
102
{ACAD_XDICTIONARY
360
2889
102
}
330
1F
100
AcDbEntity
  8
SOLBET_Wymiary_Opisy
100
AcDbMText
 10
211.3188088692695
 20
147.2038272674248
 30
0.0
 40
5.0
 41
30.77919768571883
 71
     1
 72
     5
  1
\pxqc;A\P(3 : 1)
  7
Solbet_5
 73
     1
 44
1.0
1001
ACAD
1000
MTEXTBEGIN
1070
    73
1070
     1
1070
    44
1040
1.0
1070
    74
1070
     0
1000
MTEXTEND
1000
ACAD_MTEXT_DEFINED_HEIGHT_BEGIN
1070
    46
1040
23.42535011036716
1000
ACAD_MTEXT_DEFINED_HEIGHT_END
  0
LEADER
  5
2689
330
1F
100
AcDbEntity
  8
SOLBET_Wymiary_Opisy
100
AcDbLeader
  3
Solbet$7
 73
     0
 75
     1
 40
3.25
 41
37.75
 76
     3
 10
99.8429336704769
 20
25.89574729452187
 30
0.0
 10
96.02677093087891
 20
58.75877929377253
 30
0.0
 10
93.52677093087891
 20
58.75877929377253
 30
0.0
340
268A
213
1.177601578005123
223
-0.1753245211093599
233
0.0
1001
ACAD
1000
DSTYLE
1002
{
1070
   147
1040
0.625
1070
    77
1070
     1
1002
}
  0
MTEXT
  5
268A
102
{ACAD_XDICTIONARY
360
29AE
102
}
102
{ACAD_REACTORS
330
2689
102
}
330
1F
100
AcDbEntity
  8
SOLBET_Wymiary_Opisy
100
AcDbMText
 10
53.97416935287378
 20
62.80910381488189
 30
0.0
 40
2.5
 41
0.0
 71
     1
 72
     1
  1
Profil tynkarski naro\U+017Cny
  7
Solbet_2_5
 73
     1
 44
1.0
1001
ACAD
1000
MTEXTBEGIN
1070
    73
1070
     1
1070
    44
1040
1.0
1070
    74
1070
     0
1000
MTEXTEND
  0
LEADER
  5
268B
330
1F
100
AcDbEntity
  8
SOLBET_Wymiary_Opisy
100
AcDbLeader
  3
Solbet$7
 73
     0
 75
     1
 40
2.5
 41
20.0
 76
     3
 10
99.8228662565673
 20
34.49038752646544
 30
0.0
 10
82.82836333247383
 20
11.28333585139944
 30
0.0
 10
80.32836333247383
 20
11.28333585139944
 30
0.0
340
268C
213
1.177601578005123
223
-0.1753245211093599
233
0.0
1001
ACAD
1000
DSTYLE
1002
{
1070
   147
1040
0.625
1070
    77
1070
     1
1002
}
  0
MTEXT
  5
268C
102
{ACAD_REACTORS
330
268B
102
}
330
1F
100
AcDbEntity
  8
SOLBET_Wymiary_Opisy
100
AcDbMText
 10
58.5257617544687
 20
14.5836603725088
 30
0.0
 40
2.5
 41
0.0
 71
     1
 72
     1
  1
Uszczelnienie
  7
Solbet_2_5
 73
     1
 44
1.0
1001
ACAD
1000
MTEXTBEGIN
1070
    73
1070
     1
1070
    44
1040
1.0
1070
    74
1070
     0
1000
MTEXTEND
  0
INSERT
  5
26C6
330
1F
100
AcDbEntity
  8
SOLBET_Wymiary_Opisy
100
AcDbBlockReference
  2
_DotSmall
 10
54.33577236798169
 20
182.0347279552088
 30
0.0
 41
2.5
 42
2.5
 43
2.5
 50
24.30523822118838
1001
ACAD
1000
DSTYLE
1002
{
1070
   147
1040
0.625
1070
    77
1070
     1
1002
}
  0
LINE
  5
26C8
330
1F
100
AcDbEntity
  8
SOLBET_Wymiary_Opisy
100
AcDbLine
 10
54.33577236798169
 20
182.0347279552088
 30
0.0
 11
48.67329262391149
 21
179.4773970624092
 31
0.0
1001
ACAD
1000
DSTYLE
1002
{
1070
   147
1040
0.625
1070
    77
1070
     1
1002
}
  0
LINE
  5
26C9
330
1F
100
AcDbEntity
  8
SOLBET_Wymiary_Opisy
100
AcDbLine
 10
48.67329262391149
 20
179.4773970624092
 30
0.0
 11
18.29829262391149
 21
179.4773970624092
 31
0.0
1001
ACAD
1000
DSTYLE
1002
{
1070
   147
1040
0.625
1070
    77
1070
     1
1002
}
  0
INSERT
  5
26CA
330
1F
100
AcDbEntity
  8
SOLBET_Wymiary_Opisy
100
AcDbBlockReference
  2
_DotSmall
 10
56.80046874015154
 20
182.0347279552088
 30
0.0
 41
2.5
 42
2.5
 43
2.5
 50
24.30523822118838
1001
ACAD
1000
DSTYLE
1002
{
1070
   147
1040
0.625
1070
    77
1070
     1
1002
}
  0
LINE
  5
26CB
330
1F
100
AcDbEntity
  8
SOLBET_Wymiary_Opisy
100
AcDbLine
 10
56.80046874015154
 20
182.0347279552088
 30
0.0
 11
48.67329262391149
 21
179.4773970624092
 31
0.0
1001
ACAD
1000
DSTYLE
1002
{
1070
   147
1040
0.625
1070
    77
1070
     1
1002
}
  0
LINE
  5
27A2
330
1F
100
AcDbEntity
  8
SOLBET_Zbrojenie_Konstrukcja
100
AcDbLine
 10
68.68249229782197
 20
100.9180168544911
 30
0.0
 11
74.72339201642916
 21
100.9180168544911
 31
0.0
  0
LINE
  5
27AB
330
1F
100
AcDbEntity
  8
SOLBET_Zbrojenie_Konstrukcja
100
AcDbLine
 10
287.5850200425595
 20
113.3767719868248
 30
0.0
 11
268.3192594170182
 21
113.3830217566646
 31
0.0
  0
INSERT
  5
2908
330
1F
100
AcDbEntity
  8
SOLBET_Bloczki
100
AcDbBlockReference
  2
SOLBET_Nadproze_120x240x1400_zz_PRA
 10
65.48859861285132
 20
181.8868572186801
 30
0.0
  0
INSERT
  5
2909
330
1F
100
AcDbEntity
  8
SOLBET_Bloczki
100
AcDbBlockReference
  2
SOLBET_Nadproze_120x240x1400_zz_PRA
 10
71.48859861285131
 20
181.8868572186801
 30
0.0
  0
INSERT
  5
2919
330
1F
100
AcDbEntity
  8
SOLBET_Bloczki
100
AcDbBlockReference
  2
SOLBET_Bloczek_Optimal_240x240x590_G_KG500_PRA
 10
65.48859820694883
 20
193.8868570941916
 30
0.0
  0
INSERT
  5
291A
330
1F
100
AcDbEntity
  8
SOLBET_Bloczki
100
AcDbBlockReference
  2
SOLBET_Bloczek_Optimal_240x240x590_G_KG500_PRA
 10
65.48859803120035
 20
229.8868571236146
 30
0.0
  0
INSERT
  5
291B
330
1F
100
AcDbEntity
  8
SOLBET_Bloczki
100
AcDbBlockReference
  2
SOLBET_Bloczek_Optimal_240x240x590_G_KG500_PRA
 10
65.48859820694906
 20
217.8868571236145
 30
0.0
  0
INSERT
  5
291C
330
1F
100
AcDbEntity
  8
SOLBET_Bloczki
100
AcDbBlockReference
  2
SOLBET_Bloczek_Optimal_240x240x590_G_KG500_PRA
 10
65.48859820694883
 20
76.8868570941915
 30
0.0
  0
INSERT
  5
291D
330
1F
100
AcDbEntity
  8
SOLBET_Bloczki
100
AcDbBlockReference
  2
SOLBET_Bloczek_Optimal_240x240x590_G_KG500_PRA
 10
65.48859820694883
 20
88.88685705300412
 30
0.0
  0
MTEXT
  5
295E
102
{ACAD_XDICTIONARY
360
295F
102
}
330
1F
100
AcDbEntity
  8
SOLBET_Wymiary_Opisy
100
AcDbMText
 10
301.3339260962293
 20
7.290896767776189
 30
0.0
 40
5.0
 41
0.0
 71
     1
 72
     5
  1
Skala 1:20
  7
Solbet_5
 73
     1
 44
1.0
1001
ACAD
1000
MTEXTBEGIN
1070
    73
1070
     1
1070
    44
1040
1.0
1070
    74
1070
     0
1000
MTEXTEND
1000
ACAD_MTEXT_DEFINED_HEIGHT_BEGIN
1070
    46
1040
5.395147572682731
1000
ACAD_MTEXT_DEFINED_HEIGHT_END
  0
LWPOLYLINE
  5
2961
330
1F
100
AcDbEntity
  8
SOLBET_Ramka_05
100
AcDbPolyline
 90
        4
 70
     1
 43
0.0
 10
298.3152599753155
 20
9.821967431296116
 10
334.4314368627376
 20
9.821967431296116
 10
334.4314368627376
 20
0.0177462323606506
 10
298.3152599753156
 20
0.0177462323606506
  0
ENDSEC
  0
SECTION
  2
OBJECTS
  0
DICTIONARY
  5
C
330
0
100
AcDbDictionary
281
     1
  3
ACAD_COLOR
350
6B
  3
ACAD_GROUP
350
D
  3
ACAD_LAYOUT
350
1A
  3
ACAD_MATERIAL
350
6A
  3
ACAD_MLEADERSTYLE
350
12D
  3
ACAD_MLINESTYLE
350
17
  3
ACAD_PLOTSETTINGS
350
19
  3
ACAD_PLOTSTYLENAME
350
E
  3
ACAD_SCALELIST
350
10C
  3
ACAD_TABLESTYLE
350
7E
  3
ACAD_VISUALSTYLE
350
EF
  3
ACDB_RECOMPOSE_DATA
350
15D
  3
AcDbVariableDictionary
350
5E
  3
DWGPROPS
350
2994
  0
DICTIONARY
  5
443
330
8
100
AcDbDictionary
280
     1
281
     1
  0
DICTIONARY
  5
3E5
330
2
100
AcDbDictionary
280
     1
281
     1
  3
ACAD_LAYERFILTERS
360
2508
  3
ACLYDICTIONARY
360
2507
  0
DICTIONARY
  5
13C
330
10
100
AcDbDictionary
280
     1
281
     1
  3
ADSK_XREC_LAYER_RECONCILED
360
3F4
  0
DICTIONARY
  5
403
330
3DD
100
AcDbDictionary
280
     1
281
     1
  3
ADSK_XREC_LAYER_RECONCILED
360
404
  0
DICTIONARY
  5
405
330
3DF
100
AcDbDictionary
280
     1
281
     1
  3
ADSK_XREC_LAYER_RECONCILED
360
406
  0
DICTIONARY
  5
407
330
3E0
100
AcDbDictionary
280
     1
281
     1
  3
ADSK_XREC_LAYER_RECONCILED
360
408
  0
DICTIONARY
  5
409
330
3E1
100
AcDbDictionary
280
     1
281
     1
  3
ADSK_XREC_LAYER_RECONCILED
360
40A
  0
DICTIONARY
  5
40B
330
3E2
100
AcDbDictionary
280
     1
281
     1
  3
ADSK_XREC_LAYER_RECONCILED
360
40C
  0
DICTIONARY
  5
40F
330
3E4
100
AcDbDictionary
280
     1
281
     1
  3
ADSK_XREC_LAYER_RECONCILED
360
410
  0
DICTIONARY
  5
411
330
3E8
100
AcDbDictionary
280
     1
281
     1
  3
ADSK_XREC_LAYER_RECONCILED
360
412
  0
DICTIONARY
  5
2885
330
2884
100
AcDbDictionary
280
     1
281
     1
  3
ASDK_XREC_ANNO_SCALE_INFO
360
2886
  0
DICTIONARY
  5
4A3
330
1F
100
AcDbDictionary
280
     1
281
     1
  3
ACAD_SORTENTS
360
4A4
  0
DICTIONARY
  5
2411
330
2405
100
AcDbDictionary
280
     1
281
     1
  3
ACAD_SORTENTS
360
2412
  0
DICTIONARY
  5
248A
330
2480
100
AcDbDictionary
280
     1
281
     1
  3
ACAD_SORTENTS
360
248B
  0
DICTIONARY
  5
2904
330
28F3
100
AcDbDictionary
280
     1
281
     1
  3
ACAD_SORTENTS
360
2905
  0
DICTIONARY
  5
2915
330
290A
100
AcDbDictionary
280
     1
281
     1
  3
ACAD_SORTENTS
360
2916
  0
DICTIONARY
  5
23FF
330
23FE
100
AcDbDictionary
280
     1
281
     1
  3
ACAD_MTEXT_RT
360
29A1
  3
AcDbContextDataManager
360
2400
  0
DICTIONARY
  5
29A2
330
2594
100
AcDbDictionary
280
     1
281
     1
  3
ACAD_MTEXT_RT
360
29A3
  0
DICTIONARY
  5
29A4
330
2598
100
AcDbDictionary
280
     1
281
     1
  3
ACAD_MTEXT_RT
360
29A5
  0
DICTIONARY
  5
29A6
330
25DE
100
AcDbDictionary
280
     1
281
     1
  3
ACAD_MTEXT_RT
360
29A7
  0
DICTIONARY
  5
29A8
330
25E4
100
AcDbDictionary
280
     1
281
     1
  3
ACAD_MTEXT_RT
360
29A9
  0
DICTIONARY
  5
2887
330
25EF
100
AcDbDictionary
280
     1
281
     1
  3
ACAD_MTEXT_2008_RT
360
2888
  0
DICTIONARY
  5
29AA
330
265E
100
AcDbDictionary
280
     1
281
     1
  3
ACAD_MTEXT_RT
360
29AB
  0
DICTIONARY
  5
29AC
330
2668
100
AcDbDictionary
280
     1
281
     1
  3
ACAD_MTEXT_RT
360
29AD
  0
DICTIONARY
  5
2889
330
2688
100
AcDbDictionary
280
     1
281
     1
  3
ACAD_MTEXT_2008_RT
360
288A
  0
DICTIONARY
  5
29AE
330
268A
100
AcDbDictionary
280
     1
281
     1
  3
ACAD_MTEXT_RT
360
29AF
  0
DICTIONARY
  5
295F
330
295E
100
AcDbDictionary
280
     1
281
     1
  3
ACAD_MTEXT_2008_RT
360
2960
  0
DICTIONARY
  5
6B
102
{ACAD_REACTORS
330
C
102
}
330
C
100
AcDbDictionary
281
     1
  0
DICTIONARY
  5
D
102
{ACAD_REACTORS
330
C
102
}
330
C
100
AcDbDictionary
281
     1
  0
DICTIONARY
  5
1A
102
{ACAD_REACTORS
330
C
102
}
330
C
100
AcDbDictionary
281
     1
  3
Arkusz1
350
D3
  3
Arkusz2
350
D7
  3
Model
350
22
  0
DICTIONARY
  5
6A
102
{ACAD_REACTORS
330
C
102
}
330
C
100
AcDbDictionary
281
     1
  3
ByBlock
350
ED
  3
ByLayer
350
EC
  3
Global
350
EE
  0
DICTIONARY
  5
12D
102
{ACAD_REACTORS
330
C
102
}
330
C
100
AcDbDictionary
281
     1
  3
Standard
350
12E
  0
DICTIONARY
  5
17
102
{ACAD_REACTORS
330
C
102
}
330
C
100
AcDbDictionary
281
     1
  3
SOLBET_IZOLACJA
350
7E9
  3
Standard
350
18
  0
DICTIONARY
  5
19
102
{ACAD_REACTORS
330
C
102
}
330
C
100
AcDbDictionary
281
     1
  0
ACDBDICTIONARYWDFLT
  5
E
102
{ACAD_REACTORS
330
C
102
}
330
C
100
AcDbDictionary
281
     1
  3
Normal
350
F
100
AcDbDictionaryWithDefault
340
F
  0
DICTIONARY
  5
10C
102
{ACAD_REACTORS
330
C
102
}
330
C
100
AcDbDictionary
281
     1
  3
A0
350
10D
  3
A1
350
188
  3
A2
350
189
  3
A3
350
18A
  3
A4
350
18B
  3
A5
350
18C
  3
A6
350
18D
  3
A7
350
18E
  3
A8
350
18F
  3
A9
350
190
  3
B0
350
191
  3
B1
350
192
  3
B2
350
193
  3
B3
350
194
  3
B4
350
195
  3
B5
350
196
  3
B6
350
197
  3
B7
350
198
  3
B8
350
199
  3
B9
350
19A
  3
C0
350
19B
  3
C1
350
19C
  3
C2
350
19D
  3
C3
350
19E
  3
C4
350
19F
  3
C5
350
1A0
  3
C6
350
1A1
  3
C7
350
1A2
  3
C8
350
1A3
  3
C9
350
1A4
  3
D0
350
1A5
  3
D1
350
1A6
  3
D2
350
1A7
  0
DICTIONARY
  5
7E
102
{ACAD_REACTORS
330
C
102
}
330
C
100
AcDbDictionary
281
     1
  3
Standard
350
7F
  0
DICTIONARY
  5
EF
102
{ACAD_REACTORS
330
C
102
}
330
C
100
AcDbDictionary
281
     1
  3
2dWireframe
350
F5
  3
3D Hidden
350
F7
  3
3dWireframe
350
F6
  3
Basic
350
F4
  3
Brighten
350
FB
  3
ColorChange
350
FF
  3
Conceptual
350
F8
  3
Dim
350
FA
  3
Facepattern
350
FE
  3
Flat
350
F0
  3
FlatWithEdges
350
F1
  3
Gouraud
350
F2
  3
GouraudWithEdges
350
F3
  3
Linepattern
350
FD
  3
Realistic
350
F9
  3
Thicken
350
FC
  0
XRECORD
  5
15D
102
{ACAD_REACTORS
330
C
102
}
330
C
100
AcDbXrecord
280
     1
 90
        1
330
7F
330
23FE
330
25EF
330
2688
  0
DICTIONARY
  5
5E
102
{ACAD_REACTORS
330
C
102
}
330
C
100
AcDbDictionary
281
     1
  3
CAMERADISPLAY
350
2748
  3
CANNOSCALE
350
146
  3
CMLEADERSTYLE
350
145
  3
CTABLESTYLE
350
84
  3
DIMASSOC
350
5F
  3
HIDETEXT
350
63
  3
INDEXCTL
350
466
  3
LIGHTINGUNITS
350
464
  3
MSLTSCALE
350
463
  3
PSOLHEIGHT
350
2993
  3
PSOLWIDTH
350
2992
  3
SORTENTS
350
465
  0
XRECORD
  5
2994
102
{ACAD_REACTORS
330
C
102
}
330
C
100
AcDbXrecord
280
     1
  1
DWGPROPS COOKIE
  2

  3

  4

  6

  7

  8
Olus
  9

300
=
301
=
302
=
303
=
304
=
305
=
306
=
307
=
308
=
309
=
 40
0.5058143287037037
 41
2454690.075573148
 42
2454848.8624225
  1

 90
        0
  0
DICTIONARY
  5
2508
102
{ACAD_REACTORS
330
3E5
102
}
330
3E5
100
AcDbDictionary
281
     1
  0
DICTIONARY
  5
2507
102
{ACAD_REACTORS
330
3E5
102
}
330
3E5
100
AcDbDictionary
281
     1
1001
ACAD
1000
<All
  0
XRECORD
  5
3F4
102
{ACAD_REACTORS
330
13C
102
}
330
13C
100
AcDbXrecord
280
     1
290
     1
  0
XRECORD
  5
404
102
{ACAD_REACTORS
330
403
102
}
330
403
100
AcDbXrecord
280
     1
290
     1
  0
XRECORD
  5
406
102
{ACAD_REACTORS
330
405
102
}
330
405
100
AcDbXrecord
280
     1
290
     1
  0
XRECORD
  5
408
102
{ACAD_REACTORS
330
407
102
}
330
407
100
AcDbXrecord
280
     1
290
     1
  0
XRECORD
  5
40A
102
{ACAD_REACTORS
330
409
102
}
330
409
100
AcDbXrecord
280
     1
290
     1
  0
XRECORD
  5
40C
102
{ACAD_REACTORS
330
40B
102
}
330
40B
100
AcDbXrecord
280
     1
290
     1
  0
XRECORD
  5
410
102
{ACAD_REACTORS
330
40F
102
}
330
40F
100
AcDbXrecord
280
     1
290
     1
  0
XRECORD
  5
412
102
{ACAD_REACTORS
330
411
102
}
330
411
100
AcDbXrecord
280
     1
290
     1
  0
XRECORD
  5
2886
102
{ACAD_REACTORS
330
2885
102
}
330
2885
100
AcDbXrecord
280
     1
 70
     1
340
10D
340
3DF
 70
    -1
  0
SORTENTSTABLE
  5
4A4
102
{ACAD_REACTORS
330
4A3
102
}
330
4A3
100
AcDbSortentsTable
330
1F
331
2641
  5
2643
331
2602
  5
2610
331
2659
  5
2667
331
2612
  5
2616
331
261A
  5
261E
331
22EF
  5
2316
331
2460
  5
22FF
331
22F5
  5
231B
331
2334
  5
235F
331
23AA
  5
23D1
331
23E1
  5
24C1
331
2566
  5
23F7
331
2468
  5
2307
331
22FD
  5
2323
331
2373
  5
239B
331
23B2
  5
246B
331
24D7
  5
257B
331
256E
  5
2418
331
2344
  5
236F
331
237B
  5
23A3
331
2576
  5
245C
331
230D
  5
2333
331
234C
  5
2374
331
2383
  5
23AB
331
23C2
  5
2477
331
257E
  5
2464
331
2622
  5
2632
331
2669
  5
265D
331
2689
  5
26C5
331
25E3
  5
25E7
331
25EB
  5
25EF
331
26C9
  5
25DD
331
25F3
  5
2601
331
2315
  5
233B
331
2354
  5
237C
331
238B
  5
23B3
331
2547
  5
23D2
331
231D
  5
257C
331
235C
  5
2384
331
2393
  5
6FB
331
24B8
  5
256F
331
254F
  5
23DB
331
2364
  5
238C
331
239B
  5
23C2
331
2596
  5
2595
331
2557
  5
23E7
331
2459
  5
2566
331
232D
  5
2355
331
23A3
  5
23CA
331
255F
  5
23EF
331
2642
  5
2644
331
2603
  5
2611
331
265A
  5
2668
331
2613
  5
2617
331
261B
  5
261F
331
24C0
  5
2577
331
2461
  5
2300
331
22F6
  5
231C
331
2335
  5
2360
331
23E2
  5
24C2
331
2567
  5
23F8
331
2469
  5
2308
331
22FE
  5
2324
331
2374
  5
239C
331
23B3
  5
246C
331
256F
  5
241B
331
237C
  5
23A4
331
2577
  5
245D
331
234D
  5
2375
331
2384
  5
23AC
331
23C3
  5
2478
331
257F
  5
257D
331
2623
  5
2633
331
268A
  5
26C6
331
25E4
  5
25E8
331
25EC
  5
25F0
331
25F4
  5
2602
331
2316
  5
233C
331
2355
  5
237D
331
238C
  5
23B4
331
23CB
  5
247E
331
2548
  5
23D3
331
231E
  5
2343
331
235D
  5
2385
331
2394
  5
23BB
331
23D3
  5
2495
331
24B9
  5
2570
331
2550
  5
23DC
331
2365
  5
238D
331
239C
  5
23C3
331
2597
  5
2597
331
2558
  5
23E8
331
245A
  5
22F9
331
232E
  5
235A
331
23A4
  5
23CB
331
2643
  5
2658
331
2604
  5
2612
331
265B
  5
2669
331
2614
  5
2618
331
261C
  5
2620
331
22E9
  5
2310
331
24C1
  5
2578
331
2560
  5
23F0
331
2462
  5
2301
331
22F7
  5
231D
331
2336
  5
2361
331
236D
  5
2395
331
23E3
  5
24D5
331
2568
  5
23F9
331
246A
  5
2309
331
22FF
  5
2325
331
2375
  5
239D
331
23EB
  5
254D
331
2570
  5
241E
331
237D
  5
23A5
331
23BC
  5
2471
331
230F
  5
2335
331
234E
  5
2376
331
2385
  5
23AD
331
2578
  5
245E
331
25DD
  5
25E1
331
2624
  5
2634
331
266B
  5
265E
331
268B
  5
26C7
331
25E5
  5
25E9
331
262C
  5
265A
331
25ED
  5
25F1
331
25F5
  5
2603
331
2492
  5
2356
331
2317
  5
233D
331
2356
  5
237E
331
238D
  5
23B5
331
23CC
  5
248E
331
2580
  5
257E
331
2549
  5
23D5
331
231F
  5
2344
331
235E
  5
2386
331
2395
  5
23BC
331
23D4
  5
24B6
331
24BA
  5
2571
331
2551
  5
23DD
331
2327
  5
234F
331
239D
  5
23C4
331
2598
  5
2598
331
2559
  5
23E9
331
245B
  5
22FA
331
23A5
  5
23CC
331
2644
  5
265C
331
265C
  5
266A
331
2615
  5
261A
331
261D
  5
2621
331
22EA
  5
2311
331
22F0
  5
2317
331
24C2
  5
2579
331
2561
  5
23F1
331
2463
  5
2302
331
23E4
  5
24D7
331
22F8
  5
231E
331
2337
  5
2362
331
236E
  5
2396
331
2569
  5
23FA
331
246B
  5
230A
331
2300
  5
2326
331
2376
  5
239E
331
23B5
  5
246D
331
23EC
  5
254E
331
2571
  5
2421
331
2308
  5
232E
331
237E
  5
23A6
331
23BD
  5
2472
331
234F
  5
2377
331
2386
  5
23AE
331
23C5
  5
247A
331
2579
  5
245F
331
25DE
  5
25E2
331
2625
  5
2635
331
266C
  5
265F
331
268C
  5
26C8
331
25E6
  5
25EA
331
262D
  5
265B
331
25EE
  5
25F2
331
2635
  5
263E
331
25F6
  5
2604
331
2310
  5
2336
331
2493
  5
256A
331
2318
  5
233E
331
2357
  5
237F
331
238E
  5
23B6
331
254A
  5
23D6
331
235F
  5
2387
331
2396
  5
23BD
331
23D5
  5
24B7
331
2591
  5
257F
331
24BB
  5
2572
331
2552
  5
23DE
331
244C
  5
2567
331
2328
  5
2350
331
239E
  5
23C5
331
255A
  5
23EA
331
23A6
  5
23CD
331
265D
  5
266B
331
2616
  5
261B
331
22E3
  5
22F5
331
261E
  5
2622
331
22EB
  5
2312
331
2562
  5
23F2
331
2464
  5
2303
331
23E5
  5
2547
331
22F9
  5
231F
331
2338
  5
2363
331
236F
  5
2397
331
256A
  5
23FB
331
2301
  5
2327
331
2377
  5
239F
331
23B6
  5
246F
331
23ED
  5
254F
331
2572
  5
2455
331
2309
  5
232F
331
237F
  5
23A7
331
23BE
  5
2473
331
257A
  5
2460
331
25DF
  5
25E3
331
25E7
  5
25EB
331
25EF
  5
25F3
331
2636
  5
263F
331
2311
  5
2337
331
2350
  5
2378
331
2494
  5
256B
331
238F
  5
23B7
331
2319
  5
233F
331
254B
  5
23D7
331
2321
  5
2348
331
2360
  5
2388
331
2397
  5
23BE
331
2592
  5
2580
331
24BC
  5
2573
331
2553
  5
23DF
331
2329
  5
2351
331
239F
  5
23C6
331
259A
  5
25DE
331
255B
  5
23EB
331
245D
  5
22FC
331
23A7
  5
23CE
331
265E
  5
266C
331
260F
  5
2613
331
22DC
  5
22DE
331
2617
  5
261C
331
261F
  5
2623
331
22EC
  5
2313
331
22F2
  5
2591
331
2331
  5
235B
331
2563
  5
23F4
331
2465
  5
2304
331
2370
  5
2398
331
22FA
  5
2320
331
2339
  5
2364
331
256B
  5
23FC
331
2302
  5
2328
331
2341
  5
236C
331
2378
  5
23A0
331
23B7
  5
2470
331
2573
  5
2458
331
230A
  5
2330
331
2349
  5
2371
331
2380
  5
23A8
331
23BF
  5
2474
331
23FE
  5
255D
331
23C7
  5
247B
331
257B
  5
2461
331
25E0
  5
25E4
331
25E8
  5
25EC
331
1DBF
  5
1DC0
331
26C6
  5
259A
331
25F0
  5
25F4
331
2637
  5
2640
331
2312
  5
2338
331
2351
  5
2379
331
2388
  5
23B0
331
2390
  5
23B8
331
231A
  5
2340
331
2495
  5
256C
331
2593
  5
2592
331
2361
  5
2389
331
2398
  5
23BF
331
23D7
  5
24B8
331
254C
  5
23D8
331
259B
  5
25DF
331
23A0
  5
23C7
331
24BD
  5
2574
331
2554
  5
23E0
331
255C
  5
23EC
331
245E
  5
22FD
331
265F
  5
267F
331
2610
  5
2614
331
2667
  5
2688
331
2618
  5
261D
331
22ED
  5
2314
331
23A8
  5
23CF
331
2564
  5
23F5
331
2466
  5
2305
331
233A
  5
2365
331
22FB
  5
2321
331
2371
  5
2399
331
23B0
  5
2469
331
24D5
  5
257A
331
256C
  5
23FD
331
2303
  5
2329
331
2342
  5
236D
331
2379
  5
23A1
331
2574
  5
245A
331
230B
  5
2331
331
234A
  5
2372
331
2381
  5
23A9
331
23C0
  5
2475
331
257C
  5
2462
331
2620
  5
2624
331
25E1
  5
25E5
331
25E9
  5
25ED
331
2638
  5
2641
331
25F1
  5
25F5
331
2352
  5
237A
331
2389
  5
23B1
331
23C8
  5
247D
331
2391
  5
23B9
331
2594
  5
2593
331
24B6
  5
256D
331
254D
  5
23D9
331
2362
  5
238A
331
2399
  5
23C0
331
23D8
  5
24B9
331
259C
  5
25E0
331
24BE
  5
2575
331
2555
  5
23E5
331
232B
  5
2353
331
23A1
  5
23C8
331
255D
  5
23ED
331
245F
  5
22FE
331
2640
  5
2642
331
2601
  5
260F
331
2658
  5
2660
331
2660
  5
2680
331
2611
  5
2615
331
22E6
  5
22F8
331
22EE
  5
2315
331
2333
  5
235E
331
23A9
  5
23D0
331
23E0
  5
24C0
331
2565
  5
23F6
331
2467
  5
2306
331
22FC
  5
2322
331
2372
  5
239A
331
23B1
  5
246A
331
256D
  5
23FE
331
246F
  5
230E
331
2304
  5
232A
331
237A
  5
23A2
331
2575
  5
245B
331
230C
  5
2332
331
234B
  5
2373
331
2382
  5
23AA
331
23C1
  5
2476
331
257D
  5
2463
331
2621
  5
2625
331
2668
  5
2689
331
2688
  5
268C
331
25E2
  5
25E6
331
25EA
  5
25EE
331
26C8
  5
259C
331
25F2
  5
25F6
331
238A
  5
23B2
331
231C
  5
2342
331
235B
  5
2383
331
2392
  5
23BA
331
24B7
  5
256E
331
254E
  5
23DA
331
2324
  5
234C
331
239A
  5
23C1
331
23D9
  5
2596
331
2595
  5
2594
331
24BF
  5
2576
331
2556
  5
23E6
331
232C
  5
2354
331
23A2
  5
23C9
331
255E
  5
23EE
  0
SORTENTSTABLE
  5
2412
102
{ACAD_REACTORS
330
2411
102
}
330
2411
100
AcDbSortentsTable
330
2405
  0
SORTENTSTABLE
  5
248B
102
{ACAD_REACTORS
330
248A
102
}
330
248A
100
AcDbSortentsTable
330
2480
  0
SORTENTSTABLE
  5
2905
102
{ACAD_REACTORS
330
2904
102
}
330
2904
100
AcDbSortentsTable
330
28F3
  0
SORTENTSTABLE
  5
2916
102
{ACAD_REACTORS
330
2915
102
}
330
2915
100
AcDbSortentsTable
330
290A
  0
XRECORD
  5
29A1
102
{ACAD_REACTORS
330
23FF
102
}
330
23FF
100
AcDbXrecord
280
     1
 40
334359.0
  1
{\LDETAL 12\P}Sposób zamocowania stolarki \Pw ścianie trójwarstwowej
  0
DICTIONARY
  5
2400
102
{ACAD_REACTORS
330
23FF
102
}
330
23FF
100
AcDbDictionary
281
     1
  3
ACDB_ANNOTATIONSCALES
350
2401
  0
XRECORD
  5
29A3
102
{ACAD_REACTORS
330
29A2
102
}
330
29A2
100
AcDbXrecord
280
     1
 40
25446.0
  1
Wieniec żelbetowy
  0
XRECORD
  5
29A5
102
{ACAD_REACTORS
330
29A4
102
}
330
29A4
100
AcDbXrecord
280
     1
 40
15116.0
  1
Konsola nośna
  0
XRECORD
  5
29A7
102
{ACAD_REACTORS
330
29A6
102
}
330
29A6
100
AcDbXrecord
280
     1
 40
34960.0
  1
Warstwa wykończeniowa
  0
XRECORD
  5
29A9
102
{ACAD_REACTORS
330
29A8
102
}
330
29A8
100
AcDbXrecord
280
     1
 40
42625.0
  1
Płyty izolacyjne twarde
  0
XRECORD
  5
2888
102
{ACAD_REACTORS
330
2887
102
}
330
2887
100
AcDbXrecord
280
     1
 40
24757.0
  1
\pxqc;B\P(5 : 1)
  0
XRECORD
  5
29AB
102
{ACAD_REACTORS
330
29AA
102
}
330
29AA
100
AcDbXrecord
280
     1
 40
21294.0
  1
Wełna mineralna
  0
XRECORD
  5
29AD
102
{ACAD_REACTORS
330
29AC
102
}
330
29AC
100
AcDbXrecord
280
     1
 40
34286.0
  1
Tynk wewnętrzny SOLBET 
  0
XRECORD
  5
288A
102
{ACAD_REACTORS
330
2889
102
}
330
2889
100
AcDbXrecord
280
     1
 40
24645.0
  1
\pxqc;A\P(3 : 1)
  0
XRECORD
  5
29AF
102
{ACAD_REACTORS
330
29AE
102
}
330
29AE
100
AcDbXrecord
280
     1
 40
40925.0
  1
Profil tynkarski narożny
  0
XRECORD
  5
2960
102
{ACAD_REACTORS
330
295F
102
}
330
295F
100
AcDbXrecord
280
     1
 40
24748.0
  1
\pxqc;C\P(5 : 1)
  0
LAYOUT
  5
D3
102
{ACAD_XDICTIONARY
360
2998
102
}
102
{ACAD_REACTORS
330
1A
102
}
330
1A
100
AcDbPlotSettings
  1

  2
C:\Documents and Settings\basas\Application Data\Autodesk\AutoCAD 2005\R16.1\enu\plotters\Default Windows System Printer.pc3
  4

  6

 40
0.0
 41
0.0
 42
0.0
 43
0.0
 44
0.0
 45
0.0
 46
0.0
 47
0.0
 48
0.0
 49
0.0
140
0.0
141
0.0
142
1.0
143
1.0
 70
   688
 72
     0
 73
     0
 74
     5
  7

 75
    16
147
1.0
148
0.0
149
0.0
100
AcDbLayout
  1
Arkusz1
 70
     1
 71
     1
 10
0.0
 20
0.0
 11
12.0
 21
9.0
 12
0.0
 22
0.0
 32
0.0
 14
0.0
 24
0.0
 34
0.0
 15
0.0
 25
0.0
 35
0.0
146
0.0
 13
0.0
 23
0.0
 33
0.0
 16
1.0
 26
0.0
 36
0.0
 17
0.0
 27
1.0
 37
0.0
 76
     0
330
D2
  0
LAYOUT
  5
D7
102
{ACAD_XDICTIONARY
360
299A
102
}
102
{ACAD_REACTORS
330
1A
102
}
330
1A
100
AcDbPlotSettings
  1

  2
C:\Documents and Settings\basas\Application Data\Autodesk\AutoCAD 2005\R16.1\enu\plotters\Default Windows System Printer.pc3
  4

  6

 40
0.0
 41
0.0
 42
0.0
 43
0.0
 44
0.0
 45
0.0
 46
0.0
 47
0.0
 48
0.0
 49
0.0
140
0.0
141
0.0
142
1.0
143
1.0
 70
   688
 72
     0
 73
     0
 74
     5
  7

 75
    16
147
1.0
148
0.0
149
0.0
100
AcDbLayout
  1
Arkusz2
 70
     1
 71
     2
 10
0.0
 20
0.0
 11
12.0
 21
9.0
 12
0.0
 22
0.0
 32
0.0
 14
0.0
 24
0.0
 34
0.0
 15
0.0
 25
0.0
 35
0.0
146
0.0
 13
0.0
 23
0.0
 33
0.0
 16
1.0
 26
0.0
 36
0.0
 17
0.0
 27
1.0
 37
0.0
 76
     0
330
D6
  0
LAYOUT
  5
22
102
{ACAD_XDICTIONARY
360
2995
102
}
102
{ACAD_REACTORS
330
1A
102
}
330
1A
100
AcDbPlotSettings
  1

  2
none_device
  4
Letter_(8.50_x_11.00_Inches)
  6

 40
6.349999904632568
 41
6.349999904632568
 42
6.350006103515625
 43
6.350006103515625
 44
215.8999938964844
 45
279.3999938964844
 46
11.54999923706054
 47
-13.65000009536743
 48
0.0
 49
0.0
140
210.0
141
297.0
142
1.0
143
1.0
 70
 11936
 72
     1
 73
     0
 74
     4
  7

 75
     0
147
0.9999999999999998
148
0.0
149
0.0
100
AcDbLayout
  1
Model
 70
     1
 71
     0
 10
0.0
 20
0.0
 11
12.0
 21
9.0
 12
0.0
 22
0.0
 32
0.0
 14
0.0
 24
0.0
 34
0.0
 15
0.0
 25
0.0
 35
0.0
146
0.0
 13
0.0
 23
0.0
 33
0.0
 16
1.0
 26
0.0
 36
0.0
 17
0.0
 27
1.0
 37
0.0
 76
     0
330
1F
331
EA
1001
ACAD_PSEXT
1000
Brak
1000
Brak
1000
Nie można zastosować.
1000
Arkusz nie zostanie wydrukowany dopóki nie wybrano konfiguracji plotera.
1070
     0
  0
MATERIAL
  5
ED
102
{ACAD_XDICTIONARY
360
299E
102
}
102
{ACAD_REACTORS
330
6A
102
}
330
6A
100
AcDbMaterial
  1
ByBlock
 73
     2
 78
     2
172
     2
176
     2
270
     2
274
     2
  0
MATERIAL
  5
EC
102
{ACAD_XDICTIONARY
360
299C
102
}
102
{ACAD_REACTORS
330
6A
102
}
330
6A
100
AcDbMaterial
  1
ByLayer
 73
     2
 78
     2
172
     2
176
     2
270
     2
274
     2
  0
MATERIAL
  5
EE
102
{ACAD_XDICTIONARY
360
173
102
}
102
{ACAD_REACTORS
330
6A
102
}
330
6A
100
AcDbMaterial
  1
Global
 73
     2
 43
0.0007999999797903
 43
0.0
 43
0.0
 43
0.0
 43
0.0
 43
0.0007999999797903
 43
0.0
 43
0.0
 43
0.0
 43
0.0
 43
1.0
 43
0.0
 43
0.0
 43
0.0
 43
0.0
 43
1.0
 78
     2
172
     2
 49
0.0007999999797903
 49
0.0
 49
0.0
 49
0.0
 49
0.0
 49
0.0007999999797903
 49
0.0
 49
0.0
 49
0.0
 49
0.0
 49
1.0
 49
0.0
 49
0.0
 49
0.0
 49
0.0
 49
1.0
176
     2
142
0.0007999999797903
142
0.0
142
0.0
142
0.0
142
0.0
142
0.0007999999797903
142
0.0
142
0.0
142
0.0
142
0.0
142
1.0
142
0.0
142
0.0
142
0.0
142
0.0
142
1.0
270
     2
144
0.0007999999797903
144
0.0
144
0.0
144
0.0
144
0.0
144
0.0007999999797903
144
0.0
144
0.0
144
0.0
144
0.0
144
1.0
144
0.0
144
0.0
144
0.0
144
0.0
144
1.0
274
     2
1001
ACAD
1070
    -1
1070
     3
1070
     0
1000

1071
        0
1070
     0
  0
ACAD_PROXY_OBJECT
  5
12E
102
{ACAD_REACTORS
330
12D
102
}
330
12D
100
AcDbProxyObject
 90
      499
 91
      508
 95
       23
 70
     0
 93
      618
310
40901902A4063FBFFFFFE0000000000000020400000000000020404254DD185B99185C99000000000000000104090140501A0000000000000410000000000000004102576400000000000003903F
340
14
340
0
340
11
340
0
 94
        0
1001
ACAD_MLEADERVER
1070
     2
1001
ACAD
1000
AcRTDxfName
1000
MLEADERSTYLE
1000
AcRTDxfName
1000
MLEADERSTYLE
  0
MLINESTYLE
  5
7E9
102
{ACAD_REACTORS
330
17
102
}
330
17
100
AcDbMlineStyle
  2
SOLBET_IZOLACJA
 70
   272
  3

 62
   256
 51
90.0
 52
90.0
 71
     2
 49
0.008
 62
   256
  6
BYLAYER
 49
-0.008
 62
   256
  6
BYLAYER
  0
MLINESTYLE
  5
18
102
{ACAD_REACTORS
330
17
102
}
330
17
100
AcDbMlineStyle
  2
STANDARD
 70
     0
  3

 62
   256
 51
90.0
 52
90.0
 71
     2
 49
0.5
 62
   256
  6
BYLAYER
 49
-0.5
 62
   256
  6
BYLAYER
  0
ACDBPLACEHOLDER
  5
F
102
{ACAD_REACTORS
330
E
102
}
330
E
  0
ACAD_PROXY_OBJECT
  5
10D
102
{ACAD_REACTORS
330
10C
102
}
330
10C
100
AcDbProxyObject
 90
      499
 91
      507
 95
       23
 70
     0
 93
       49
310
904313A31005FF
 94
        0
1001
ACAD
1000
AcRTDxfName
1000
SCALE
1000
AcRTDxfName
1000
SCALE
  0
ACAD_PROXY_OBJECT
  5
188
102
{ACAD_REACTORS
330
10C
102
}
330
10C
100
AcDbProxyObject
 90
      499
 91
      507
 95
       23
 70
     0
 93
      113
310
904313A3200400000000000000407F
 94
        0
1001
ACAD
1000
AcRTDxfName
1000
SCALE
1000
AcRTDxfName
1000
SCALE
  0
ACAD_PROXY_OBJECT
  5
189
102
{ACAD_REACTORS
330
10C
102
}
330
10C
100
AcDbProxyObject
 90
      499
 91
      507
 95
       23
 70
     0
 93
      113
310
904313A3400400000000000010407F
 94
        0
1001
ACAD
1000
AcRTDxfName
1000
SCALE
1000
AcRTDxfName
1000
SCALE
  0
ACAD_PROXY_OBJECT
  5
18A
102
{ACAD_REACTORS
330
10C
102
}
330
10C
100
AcDbProxyObject
 90
      499
 91
      507
 95
       23
 70
     0
 93
      113
310
904313A3500400000000000014407F
 94
        0
1001
ACAD
1000
AcRTDxfName
1000
SCALE
1000
AcRTDxfName
1000
SCALE
  0
ACAD_PROXY_OBJECT
  5
18B
102
{ACAD_REACTORS
330
10C
102
}
330
10C
100
AcDbProxyObject
 90
      499
 91
      507
 95
       23
 70
     0
 93
      113
310
904313A3800400000000000020407F
 94
        0
1001
ACAD
1000
AcRTDxfName
1000
SCALE
1000
AcRTDxfName
1000
SCALE
  0
ACAD_PROXY_OBJECT
  5
18C
102
{ACAD_REACTORS
330
10C
102
}
330
10C
100
AcDbProxyObject
 90
      499
 91
      507
 95
       23
 70
     0
 93
      121
310
905313A313000400000000000024407F
 94
        0
1001
ACAD
1000
AcRTDxfName
1000
SCALE
1000
AcRTDxfName
1000
SCALE
  0
ACAD_PROXY_OBJECT
  5
18D
102
{ACAD_REACTORS
330
10C
102
}
330
10C
100
AcDbProxyObject
 90
      499
 91
      507
 95
       23
 70
     0
 93
      121
310
905313A313600400000000000030407F
 94
        0
1001
ACAD
1000
AcRTDxfName
1000
SCALE
1000
AcRTDxfName
1000
SCALE
  0
ACAD_PROXY_OBJECT
  5
18E
102
{ACAD_REACTORS
330
10C
102
}
330
10C
100
AcDbProxyObject
 90
      499
 91
      507
 95
       23
 70
     0
 93
      121
310
905313A323000400000000000034407F
 94
        0
1001
ACAD
1000
AcRTDxfName
1000
SCALE
1000
AcRTDxfName
1000
SCALE
  0
ACAD_PROXY_OBJECT
  5
18F
102
{ACAD_REACTORS
330
10C
102
}
330
10C
100
AcDbProxyObject
 90
      499
 91
      507
 95
       23
 70
     0
 93
      121
310
905313A33300040000000000003E407F
 94
        0
1001
ACAD
1000
AcRTDxfName
1000
SCALE
1000
AcRTDxfName
1000
SCALE
  0
ACAD_PROXY_OBJECT
  5
190
102
{ACAD_REACTORS
330
10C
102
}
330
10C
100
AcDbProxyObject
 90
      499
 91
      507
 95
       23
 70
     0
 93
      121
310
905313A343000400000000000044407F
 94
        0
1001
ACAD
1000
AcRTDxfName
1000
SCALE
1000
AcRTDxfName
1000
SCALE
  0
ACAD_PROXY_OBJECT
  5
191
102
{ACAD_REACTORS
330
10C
102
}
330
10C
100
AcDbProxyObject
 90
      499
 91
      507
 95
       23
 70
     0
 93
      121
310
905313A353000400000000000049407F
 94
        0
1001
ACAD
1000
AcRTDxfName
1000
SCALE
1000
AcRTDxfName
1000
SCALE
  0
ACAD_PROXY_OBJECT
  5
192
102
{ACAD_REACTORS
330
10C
102
}
330
10C
100
AcDbProxyObject
 90
      499
 91
      507
 95
       23
 70
     0
 93
      129
310
906313A31303000400000000000059407F
 94
        0
1001
ACAD
1000
AcRTDxfName
1000
SCALE
1000
AcRTDxfName
1000
SCALE
  0
ACAD_PROXY_OBJECT
  5
193
102
{ACAD_REACTORS
330
10C
102
}
330
10C
100
AcDbProxyObject
 90
      499
 91
      507
 95
       23
 70
     0
 93
      113
310
904323A3100000000000000001017F
 94
        0
1001
ACAD
1000
AcRTDxfName
1000
SCALE
1000
AcRTDxfName
1000
SCALE
  0
ACAD_PROXY_OBJECT
  5
194
102
{ACAD_REACTORS
330
10C
102
}
330
10C
100
AcDbProxyObject
 90
      499
 91
      507
 95
       23
 70
     0
 93
      113
310
904343A3100000000000000041017F
 94
        0
1001
ACAD
1000
AcRTDxfName
1000
SCALE
1000
AcRTDxfName
1000
SCALE
  0
ACAD_PROXY_OBJECT
  5
195
102
{ACAD_REACTORS
330
10C
102
}
330
10C
100
AcDbProxyObject
 90
      499
 91
      507
 95
       23
 70
     0
 93
      113
310
904383A3100000000000000081017F
 94
        0
1001
ACAD
1000
AcRTDxfName
1000
SCALE
1000
AcRTDxfName
1000
SCALE
  0
ACAD_PROXY_OBJECT
  5
196
102
{ACAD_REACTORS
330
10C
102
}
330
10C
100
AcDbProxyObject
 90
      499
 91
      507
 95
       23
 70
     0
 93
      121
310
90531303A3100000000000000091017F
 94
        0
1001
ACAD
1000
AcRTDxfName
1000
SCALE
1000
AcRTDxfName
1000
SCALE
  0
ACAD_PROXY_OBJECT
  5
197
102
{ACAD_REACTORS
330
10C
102
}
330
10C
100
AcDbProxyObject
 90
      499
 91
      507
 95
       23
 70
     0
 93
      129
310
9063130303A3100000000000000165017F
 94
        0
1001
ACAD
1000
AcRTDxfName
1000
SCALE
1000
AcRTDxfName
1000
SCALE
  0
ACAD_PROXY_OBJECT
  5
198
102
{ACAD_REACTORS
330
10C
102
}
330
10C
100
AcDbProxyObject
 90
      499
 91
      507
 95
       23
 70
     0
 93
      265
310
90F312F31323822203D2031272D302200000000000000200FC00000000000028407F
 94
        0
1001
ACAD
1000
AcRTDxfName
1000
SCALE
1000
AcRTDxfName
1000
SCALE
  0
ACAD_PROXY_OBJECT
  5
199
102
{ACAD_REACTORS
330
10C
102
}
330
10C
100
AcDbProxyObject
 90
      499
 91
      507
 95
       23
 70
     0
 93
      257
310
90E312F363422203D2031272D302200000000000000240FC00000000000028407F
 94
        0
1001
ACAD
1000
AcRTDxfName
1000
SCALE
1000
AcRTDxfName
1000
SCALE
  0
ACAD_PROXY_OBJECT
  5
19A
102
{ACAD_REACTORS
330
10C
102
}
330
10C
100
AcDbProxyObject
 90
      499
 91
      507
 95
       23
 70
     0
 93
      257
310
90E312F333222203D2031272D302200000000000000280FC00000000000028407F
 94
        0
1001
ACAD
1000
AcRTDxfName
1000
SCALE
1000
AcRTDxfName
1000
SCALE
  0
ACAD_PROXY_OBJECT
  5
19B
102
{ACAD_REACTORS
330
10C
102
}
330
10C
100
AcDbProxyObject
 90
      499
 91
      507
 95
       23
 70
     0
 93
      257
310
90E312F313622203D2031272D3022000000000000002C0FC00000000000028407F
 94
        0
1001
ACAD
1000
AcRTDxfName
1000
SCALE
1000
AcRTDxfName
1000
SCALE
  0
ACAD_PROXY_OBJECT
  5
19C
102
{ACAD_REACTORS
330
10C
102
}
330
10C
100
AcDbProxyObject
 90
      499
 91
      507
 95
       23
 70
     0
 93
      257
310
90E332F333222203D2031272D3022000000000000002E0FC00000000000028407F
 94
        0
1001
ACAD
1000
AcRTDxfName
1000
SCALE
1000
AcRTDxfName
1000
SCALE
  0
ACAD_PROXY_OBJECT
  5
19D
102
{ACAD_REACTORS
330
10C
102
}
330
10C
100
AcDbProxyObject
 90
      499
 91
      507
 95
       23
 70
     0
 93
      249
310
90D312F3822203D2031272D302200000000000000300FC00000000000028407F
 94
        0
1001
ACAD
1000
AcRTDxfName
1000
SCALE
1000
AcRTDxfName
1000
SCALE
  0
ACAD_PROXY_OBJECT
  5
19E
102
{ACAD_REACTORS
330
10C
102
}
330
10C
100
AcDbProxyObject
 90
      499
 91
      507
 95
       23
 70
     0
 93
      257
310
90E332F313622203D2031272D302200000000000000320FC00000000000028407F
 94
        0
1001
ACAD
1000
AcRTDxfName
1000
SCALE
1000
AcRTDxfName
1000
SCALE
  0
ACAD_PROXY_OBJECT
  5
19F
102
{ACAD_REACTORS
330
10C
102
}
330
10C
100
AcDbProxyObject
 90
      499
 91
      507
 95
       23
 70
     0
 93
      249
310
90D312F3422203D2031272D302200000000000000340FC00000000000028407F
 94
        0
1001
ACAD
1000
AcRTDxfName
1000
SCALE
1000
AcRTDxfName
1000
SCALE
  0
ACAD_PROXY_OBJECT
  5
1A0
102
{ACAD_REACTORS
330
10C
102
}
330
10C
100
AcDbProxyObject
 90
      499
 91
      507
 95
       23
 70
     0
 93
      249
310
90D332F3822203D2031272D302200000000000000360FC00000000000028407F
 94
        0
1001
ACAD
1000
AcRTDxfName
1000
SCALE
1000
AcRTDxfName
1000
SCALE
  0
ACAD_PROXY_OBJECT
  5
1A1
102
{ACAD_REACTORS
330
10C
102
}
330
10C
100
AcDbProxyObject
 90
      499
 91
      507
 95
       23
 70
     0
 93
      249
310
90D312F3222203D2031272D302200000000000000380FC00000000000028407F
 94
        0
1001
ACAD
1000
AcRTDxfName
1000
SCALE
1000
AcRTDxfName
1000
SCALE
  0
ACAD_PROXY_OBJECT
  5
1A2
102
{ACAD_REACTORS
330
10C
102
}
330
10C
100
AcDbProxyObject
 90
      499
 91
      507
 95
       23
 70
     0
 93
      249
310
90D332F3422203D2031272D3022000000000000003A0FC00000000000028407F
 94
        0
1001
ACAD
1000
AcRTDxfName
1000
SCALE
1000
AcRTDxfName
1000
SCALE
  0
ACAD_PROXY_OBJECT
  5
1A3
102
{ACAD_REACTORS
330
10C
102
}
330
10C
100
AcDbProxyObject
 90
      499
 91
      507
 95
       23
 70
     0
 93
      169
310
90B3122203D2031272D302200400000000000028407F
 94
        0
1001
ACAD
1000
AcRTDxfName
1000
SCALE
1000
AcRTDxfName
1000
SCALE
  0
ACAD_PROXY_OBJECT
  5
1A4
102
{ACAD_REACTORS
330
10C
102
}
330
10C
100
AcDbProxyObject
 90
      499
 91
      507
 95
       23
 70
     0
 93
      265
310
90F312D312F3222203D2031272D3022000000000000003E0FC00000000000028407F
 94
        0
1001
ACAD
1000
AcRTDxfName
1000
SCALE
1000
AcRTDxfName
1000
SCALE
  0
ACAD_PROXY_OBJECT
  5
1A5
102
{ACAD_REACTORS
330
10C
102
}
330
10C
100
AcDbProxyObject
 90
      499
 91
      507
 95
       23
 70
     0
 93
      233
310
90B3322203D2031272D3022000000000000000210000000000000028407F
 94
        0
1001
ACAD
1000
AcRTDxfName
1000
SCALE
1000
AcRTDxfName
1000
SCALE
  0
ACAD_PROXY_OBJECT
  5
1A6
102
{ACAD_REACTORS
330
10C
102
}
330
10C
100
AcDbProxyObject
 90
      499
 91
      507
 95
       23
 70
     0
 93
      233
310
90B3622203D2031272D3022000000000000000610000000000000028407F
 94
        0
1001
ACAD
1000
AcRTDxfName
1000
SCALE
1000
AcRTDxfName
1000
SCALE
  0
ACAD_PROXY_OBJECT
  5
1A7
102
{ACAD_REACTORS
330
10C
102
}
330
10C
100
AcDbProxyObject
 90
      499
 91
      507
 95
       23
 70
     0
 93
      257
310
90E31272D3022203D2031272D3022000000000000000A10000000000000028407F
 94
        0
1001
ACAD
1000
AcRTDxfName
1000
SCALE
1000
AcRTDxfName
1000
SCALE
  0
TABLESTYLE
  5
7F
102
{ACAD_XDICTIONARY
360
162
102
}
102
{ACAD_REACTORS
330
7E
102
}
330
7E
100
AcDbTableStyle
  3
Standard
 70
     0
 71
     0
 40
1.5
 41
1.5
280
     0
281
     0
  7
Standard
140
4.5
170
     2
 62
     0
 63
     7
283
     0
274
    -2
284
     1
 64
     0
275
    -2
285
     1
 65
     0
276
    -2
286
     1
 66
     0
277
    -2
287
     1
 67
     0
278
    -2
288
     1
 68
     0
279
    -2
289
     1
 69
     0
  7
Standard
140
6.0
170
     5
 62
     0
 63
     7
283
     0
274
    -2
284
     1
 64
     0
275
    -2
285
     1
 65
     0
276
    -2
286
     1
 66
     0
277
    -2
287
     1
 67
     0
278
    -2
288
     1
 68
     0
279
    -2
289
     1
 69
     0
  7
Standard
140
4.5
170
     5
 62
     0
 63
     7
283
     0
274
    -2
284
     1
 64
     0
275
    -2
285
     1
 65
     0
276
    -2
286
     1
 66
     0
277
    -2
287
     1
 67
     0
278
    -2
288
     1
 68
     0
279
    -2
289
     1
 69
     0
  0
VISUALSTYLE
  5
F5
102
{ACAD_REACTORS
330
EF
102
}
330
EF
100
AcDbVisualStyle
  2
2dWireframe
 70
     4
 71
     0
 72
     2
 73
     1
 90
        0
 40
-0.6
 41
-30.0
 62
     5
 63
     7
 74
     1
 91
        4
 64
     7
 65
   257
 75
     1
175
     1
 42
1.0
 92
        0
 66
   257
 43
1.0
 76
     1
 77
     6
 78
     2
 67
     7
 79
     5
170
     0
171
     0
290
     0
174
     0
 93
        1
 44
0.0
173
     0
291
     0
 45
0.0
1001
ACAD
1000
AcDbSavedByObjectVersion
1070
     0
  0
VISUALSTYLE
  5
F7
102
{ACAD_REACTORS
330
EF
102
}
330
EF
100
AcDbVisualStyle
  2
3D Hidden
 70
     6
 71
     1
 72
     2
 73
     2
 90
        0
 40
-0.6
 41
-30.0
 62
     5
 63
     7
 74
     2
 91
        2
 64
     7
 65
   257
 75
     2
175
     1
 42
40.0
 92
        0
 66
   257
 43
1.0
 76
     1
 77
     6
 78
     2
 67
     7
 79
     3
170
     0
171
     0
290
     0
174
     0
 93
        1
 44
0.0
173
     0
291
     0
 45
0.0
1001
ACAD
1000
AcDbSavedByObjectVersion
1070
     0
  0
VISUALSTYLE
  5
F6
102
{ACAD_REACTORS
330
EF
102
}
330
EF
100
AcDbVisualStyle
  2
3dWireframe
 70
     5
 71
     0
 72
     2
 73
     1
 90
        0
 40
-0.6
 41
-30.0
 62
     5
 63
     7
 74
     1
 91
        4
 64
     7
 65
   257
 75
     1
175
     1
 42
1.0
 92
        0
 66
   257
 43
1.0
 76
     1
 77
     6
 78
     2
 67
     7
 79
     5
170
     0
171
     0
290
     0
174
     0
 93
        1
 44
0.0
173
     0
291
     0
 45
0.0
1001
ACAD
1000
AcDbSavedByObjectVersion
1070
     0
  0
VISUALSTYLE
  5
F4
102
{ACAD_REACTORS
330
EF
102
}
330
EF
100
AcDbVisualStyle
  2
Basic
 70
     7
 71
     1
 72
     0
 73
     1
 90
        0
 40
-0.6
 41
-30.0
 62
     5
 63
     7
 74
     0
 91
        4
 64
     7
 65
   257
 75
     1
175
     1
 42
1.0
 92
        8
 66
     7
 43
1.0
 76
     1
 77
     6
 78
     2
 67
     7
 79
     5
170
     0
171
     0
290
     0
174
     0
 93
        1
 44
0.0
173
     0
291
     1
 45
0.0
1001
ACAD
1000
AcDbSavedByObjectVersion
1070
     0
  0
VISUALSTYLE
  5
FB
102
{ACAD_REACTORS
330
EF
102
}
330
EF
100
AcDbVisualStyle
  2
Brighten
 70
    12
 71
     2
 72
     2
 73
     1
 90
        0
 40
-0.6
 41
-30.0
 62
     5
 63
     7
 74
     1
 91
        4
 64
     7
 65
   257
 75
     1
175
     1
 42
1.0
 92
        8
 66
     7
 43
1.0
 76
     1
 77
     6
 78
     2
 67
     7
 79
     5
170
     0
171
     0
290
     0
174
     0
 93
        1
 44
50.0
173
     0
291
     1
 45
0.0
1001
ACAD
1000
AcDbSavedByObjectVersion
1070
     0
  0
VISUALSTYLE
  5
FF
102
{ACAD_REACTORS
330
EF
102
}
330
EF
100
AcDbVisualStyle
  2
ColorChange
 70
    16
 71
     2
 72
     2
 73
     3
 90
        0
 40
-0.6
 41
-30.0
 62
     5
 63
     8
 74
     1
 91
        4
 64
     7
 65
   257
 75
     1
175
     1
 42
1.0
 92
        8
 66
     8
 43
1.0
 76
     1
 77
     6
 78
     2
 67
     7
 79
     5
170
     0
171
     0
290
     0
174
     0
 93
        1
 44
0.0
173
     0
291
     1
 45
0.0
1001
ACAD
1000
AcDbSavedByObjectVersion
1070
     0
  0
VISUALSTYLE
  5
F8
102
{ACAD_REACTORS
330
EF
102
}
330
EF
100
AcDbVisualStyle
  2
Conceptual
 70
     9
 71
     3
 72
     2
 73
     1
 90
        0
 40
-0.6
 41
-30.0
 62
     5
 63
     7
 74
     2
 91
        2
 64
     7
 65
   257
 75
     1
175
     1
 42
40.0
 92
        8
 66
     7
 43
1.0
 76
     1
 77
     6
 78
     2
 67
     7
 79
     3
170
     0
171
     0
290
     0
174
     0
 93
        1
 44
0.0
173
     0
291
     0
 45
0.0
1001
ACAD
1000
AcDbSavedByObjectVersion
1070
     0
  0
VISUALSTYLE
  5
FA
102
{ACAD_REACTORS
330
EF
102
}
330
EF
100
AcDbVisualStyle
  2
Dim
 70
    11
 71
     2
 72
     2
 73
     1
 90
        0
 40
-0.6
 41
-30.0
 62
     5
 63
     7
 74
     1
 91
        4
 64
     7
 65
   257
 75
     1
175
     1
 42
1.0
 92
        8
 66
     7
 43
1.0
 76
     1
 77
     6
 78
     2
 67
     7
 79
     5
170
     0
171
     0
290
     0
174
     0
 93
        1
 44
-50.0
173
     0
291
     1
 45
0.0
1001
ACAD
1000
AcDbSavedByObjectVersion
1070
     0
  0
VISUALSTYLE
  5
FE
102
{ACAD_REACTORS
330
EF
102
}
330
EF
100
AcDbVisualStyle
  2
Facepattern
 70
    15
 71
     2
 72
     2
 73
     1
 90
        0
 40
-0.6
 41
-30.0
 62
     5
 63
     7
 74
     1
 91
        4
 64
     7
 65
   257
 75
     1
175
     1
 42
1.0
 92
        8
 66
     7
 43
1.0
 76
     1
 77
     6
 78
     2
 67
     7
 79
     5
170
     0
171
     0
290
     0
174
     0
 93
        1
 44
0.0
173
     0
291
     1
 45
0.0
1001
ACAD
1000
AcDbSavedByObjectVersion
1070
     0
  0
VISUALSTYLE
  5
F0
102
{ACAD_REACTORS
330
EF
102
}
330
EF
100
AcDbVisualStyle
  2
Flat
 70
     0
 71
     2
 72
     1
 73
     1
 90
        2
 40
-0.6
 41
30.0
 62
     5
 63
     7
 74
     0
 91
        4
 64
     7
 65
   257
 75
     1
175
     1
 42
1.0
 92
        8
 66
     7
 43
1.0
 76
     1
 77
     6
 78
     2
 67
     7
 79
     5
170
     0
171
     0
290
     0
174
     0
 93
        1
 44
0.0
173
     0
291
     1
 45
0.0
1001
ACAD
1000
AcDbSavedByObjectVersion
1070
     0
  0
VISUALSTYLE
  5
F1
102
{ACAD_REACTORS
330
EF
102
}
330
EF
100
AcDbVisualStyle
  2
FlatWithEdges
 70
     1
 71
     2
 72
     1
 73
     1
 90
        2
 40
-0.6
 41
30.0
 62
     5
 63
     7
 74
     1
 91
        4
 64
     7
 65
   257
 75
     1
175
     1
 42
1.0
 92
        0
 66
   257
 43
1.0
 76
     1
 77
     6
 78
     2
 67
     7
 79
     5
170
     0
171
     0
290
     0
174
     0
 93
        1
 44
0.0
173
     0
291
     1
 45
0.0
1001
ACAD
1000
AcDbSavedByObjectVersion
1070
     0
  0
VISUALSTYLE
  5
F2
102
{ACAD_REACTORS
330
EF
102
}
330
EF
100
AcDbVisualStyle
  2
Gouraud
 70
     2
 71
     2
 72
     2
 73
     1
 90
        2
 40
-0.6
 41
30.0
 62
     5
 63
     7
 74
     0
 91
        4
 64
     7
 65
   257
 75
     1
175
     1
 42
1.0
 92
        0
 66
     7
 43
1.0
 76
     1
 77
     6
 78
     2
 67
     7
 79
     5
170
     0
171
     0
290
     0
174
     0
 93
        1
 44
0.0
173
     0
291
     1
 45
0.0
1001
ACAD
1000
AcDbSavedByObjectVersion
1070
     0
  0
VISUALSTYLE
  5
F3
102
{ACAD_REACTORS
330
EF
102
}
330
EF
100
AcDbVisualStyle
  2
GouraudWithEdges
 70
     3
 71
     2
 72
     2
 73
     1
 90
        2
 40
-0.6
 41
30.0
 62
     5
 63
     7
 74
     1
 91
        4
 64
     7
 65
   257
 75
     1
175
     1
 42
1.0
 92
        0
 66
   257
 43
1.0
 76
     1
 77
     6
 78
     2
 67
     7
 79
     5
170
     0
171
     0
290
     0
174
     0
 93
        1
 44
0.0
173
     0
291
     1
 45
0.0
1001
ACAD
1000
AcDbSavedByObjectVersion
1070
     0
  0
VISUALSTYLE
  5
FD
102
{ACAD_REACTORS
330
EF
102
}
330
EF
100
AcDbVisualStyle
  2
Linepattern
 70
    14
 71
     2
 72
     2
 73
     1
 90
        0
 40
-0.6
 41
-30.0
 62
     5
 63
     7
 74
     1
 91
        4
 64
     7
 65
   257
 75
     7
175
     7
 42
1.0
 92
        8
 66
     7
 43
1.0
 76
     1
 77
     6
 78
     2
 67
     7
 79
     5
170
     0
171
     0
290
     0
174
     0
 93
        1
 44
0.0
173
     0
291
     1
 45
0.0
1001
ACAD
1000
AcDbSavedByObjectVersion
1070
     0
  0
VISUALSTYLE
  5
F9
102
{ACAD_REACTORS
330
EF
102
}
330
EF
100
AcDbVisualStyle
  2
Realistic
 70
     8
 71
     2
 72
     2
 73
     1
 90
        0
 40
-0.6
 41
-30.0
 62
     5
 63
     7
 74
     1
 91
        0
 64
     7
 65
   257
 75
     1
175
     1
 42
1.0
 92
        8
 66
     8
 43
1.0
 76
     1
 77
     6
 78
     2
 67
     7
 79
     5
170
     0
171
     0
290
     0
174
     0
 93
       13
 44
0.0
173
     0
291
     0
 45
0.0
1001
ACAD
1000
AcDbSavedByObjectVersion
1070
     0
  0
VISUALSTYLE
  5
FC
102
{ACAD_REACTORS
330
EF
102
}
330
EF
100
AcDbVisualStyle
  2
Thicken
 70
    13
 71
     2
 72
     2
 73
     1
 90
        0
 40
-0.6
 41
-30.0
 62
     5
 63
     7
 74
     1
 91
        4
 64
     7
 65
   257
 75
     1
175
     1
 42
1.0
 92
       12
 66
     7
 43
1.0
 76
     1
 77
     6
 78
     2
 67
     7
 79
     5
170
     0
171
     0
290
     0
174
     0
 93
        1
 44
0.0
173
     0
291
     1
 45
0.0
1001
ACAD
1000
AcDbSavedByObjectVersion
1070
     0
  0
DICTIONARYVAR
  5
2748
102
{ACAD_REACTORS
330
5E
102
}
330
5E
100
DictionaryVariables
280
     0
  1
1
  0
DICTIONARYVAR
  5
146
102
{ACAD_REACTORS
330
5E
102
}
330
5E
100
DictionaryVariables
280
     0
  1
1:1
  0
DICTIONARYVAR
  5
145
102
{ACAD_REACTORS
330
5E
102
}
330
5E
100
DictionaryVariables
280
     0
  1
STANDARD
  0
DICTIONARYVAR
  5
84
102
{ACAD_REACTORS
330
5E
102
}
330
5E
100
DictionaryVariables
280
     0
  1
STANDARD
  0
DICTIONARYVAR
  5
5F
102
{ACAD_REACTORS
330
5E
102
}
330
5E
100
DictionaryVariables
280
     0
  1
2
  0
DICTIONARYVAR
  5
63
102
{ACAD_REACTORS
330
5E
102
}
330
5E
100
DictionaryVariables
280
     0
  1
1
  0
DICTIONARYVAR
  5
466
102
{ACAD_REACTORS
330
5E
102
}
330
5E
100
DictionaryVariables
280
     0
  1
0
  0
DICTIONARYVAR
  5
464
102
{ACAD_REACTORS
330
5E
102
}
330
5E
100
DictionaryVariables
280
     0
  1
2
  0
DICTIONARYVAR
  5
463
102
{ACAD_REACTORS
330
5E
102
}
330
5E
100
DictionaryVariables
280
     0
  1
1
  0
DICTIONARYVAR
  5
2993
102
{ACAD_REACTORS
330
5E
102
}
330
5E
100
DictionaryVariables
280
     0
  1
80.000000
  0
DICTIONARYVAR
  5
2992
102
{ACAD_REACTORS
330
5E
102
}
330
5E
100
DictionaryVariables
280
     0
  1
5.000000
  0
DICTIONARYVAR
  5
465
102
{ACAD_REACTORS
330
5E
102
}
330
5E
100
DictionaryVariables
280
     0
  1
127
  0
DICTIONARY
  5
2401
102
{ACAD_REACTORS
330
2400
102
}
330
2400
100
AcDbDictionary
281
     1
  0
DICTIONARY
  5
2998
330
D3
100
AcDbDictionary
280
     1
281
     1
  3
ACAD_XREC_ROUNDTRIP
360
2999
  0
DICTIONARY
  5
299A
330
D7
100
AcDbDictionary
280
     1
281
     1
  3
ACAD_XREC_ROUNDTRIP
360
299B
  0
DICTIONARY
  5
2995
330
22
100
AcDbDictionary
280
     1
281
     1
  3
ACAD_XREC_ROUNDTRIP
360
2996
  0
DICTIONARY
  5
299E
330
ED
100
AcDbDictionary
280
     1
281
     1
  3
ACAD_XREC_ROUNDTRIP
360
299F
  0
DICTIONARY
  5
299C
330
EC
100
AcDbDictionary
280
     1
281
     1
  3
ACAD_XREC_ROUNDTRIP
360
299D
  0
DICTIONARY
  5
173
330
EE
100
AcDbDictionary
280
     1
281
     1
  3
ACAD_XREC_ROUNDTRIP
360
29A0
  3
BUMPTILE
360
175
  3
DIFFUSETILE
360
174
  3
OPACITYTILE
360
176
  3
REFLECTIONTILE
360
177
  0
DICTIONARY
  5
162
330
7F
100
AcDbDictionary
280
     1
281
     1
  3
ACAD_ROUNDTRIP_2008_TABLESTYLE_CELLSTYLEMAP
360
2883
  3
ACAD_XREC_ROUNDTRIP
360
2997
  0
XRECORD
  5
2999
102
{ACAD_REACTORS
330
2998
102
}
330
2998
100
AcDbXrecord
280
     1
102
SHADEPLOT
 70
     0
102
SHADEPLOTRESLEVEL
 70
     2
102
SHADEPLOTCUSTOMDPI
 70
   300
  0
XRECORD
  5
299B
102
{ACAD_REACTORS
330
299A
102
}
330
299A
100
AcDbXrecord
280
     1
102
SHADEPLOT
 70
     0
102
SHADEPLOTRESLEVEL
 70
     2
102
SHADEPLOTCUSTOMDPI
 70
   300
  0
XRECORD
  5
2996
102
{ACAD_REACTORS
330
2995
102
}
330
2995
100
AcDbXrecord
280
     1
102
SHADEPLOT
 70
     0
102
SHADEPLOTRESLEVEL
 70
     2
102
SHADEPLOTCUSTOMDPI
 70
   300
  0
XRECORD
  5
299F
102
{ACAD_REACTORS
330
299E
102
}
330
299E
100
AcDbXrecord
280
     1
102
MATERIAL
148
0.0
149
0.0
149
0.0
 93
        0
 94
       63
282
     0
 72
     1
 77
     1
171
     1
175
     1
179
     1
273
     0
  0
XRECORD
  5
299D
102
{ACAD_REACTORS
330
299C
102
}
330
299C
100
AcDbXrecord
280
     1
102
MATERIAL
148
0.0
149
0.0
149
0.0
 93
        0
 94
       63
282
     0
 72
     1
 77
     1
171
     1
175
     1
179
     1
273
     0
  0
XRECORD
  5
29A0
102
{ACAD_REACTORS
330
173
102
}
330
173
100
AcDbXrecord
280
     1
102
MATERIAL
148
0.0
149
0.0
149
0.0
 93
        0
 94
       63
282
     0
 72
     1
 77
     1
171
     1
175
     1
179
     1
273
     0
  0
XRECORD
  5
175
102
{ACAD_REACTORS
330
173
102
}
330
173
100
AcDbXrecord
280
     1
270
     1
271
     1
  0
XRECORD
  5
174
102
{ACAD_REACTORS
330
173
102
}
330
173
100
AcDbXrecord
280
     1
270
     1
271
     1
  0
XRECORD
  5
176
102
{ACAD_REACTORS
330
173
102
}
330
173
100
AcDbXrecord
280
     1
270
     1
271
     1
  0
XRECORD
  5
177
102
{ACAD_REACTORS
330
173
102
}
330
173
100
AcDbXrecord
280
     1
270
     1
271
     1
  0
ACAD_PROXY_OBJECT
  5
2883
102
{ACAD_REACTORS
330
162
102
}
330
162
100
AcDbProxyObject
 90
      499
 91
      509
 95
       23
 70
     0
 93
     5304
310
40D054060020000020000003200101A000080002A5058000000C10000000000000006101010000000000003E0FC000000000000F83F0000000000003E0FC000000000000F83F000000000000049000000000000001240419019018000000C1003FBFFFFFE0000000000003C8FD029018000000C1003FBFFFFFE00000000000
310
03C8FD049018000000C1003FBFFFFFE0000000000003C8FD089018000000C1003FBFFFFFE0000000000003C8FD109018000000C1003FBFFFFFE0000000000003C8FD209018000000C1003FBFFFFFE0000000000003C8FD01405075F5449544C450041501A8000000C800406800020000A94160000003040000000000000012
310
40404000000000000F83F0000000000003E0FC000000000000F83F0000000000003E0FC0000000000001240000000000000049010640640600000030400FEFFFFFF8000000000000F23F40A40600000030400FEFFFFFF8000000000000F23F41240600000030400FEFFFFFF8000000000000F23F42240600000030400FEFFF
310
FFF8000000000000F23F44240600000030400FEFFFFFF8000000000000F23F48240600000030400FEFFFFFF8000000000000F23F409014217D2115051115480105406A0000003200101A000080002A5028000000C10000000000000004901010000000000003E0FC000000000000F83F0000000000003E0FC000000000000F
310
83F000000000000049000000000000001240419019018000000C1003FBFFFFFE0000000000003C8FD029018000000C1003FBFFFFFE0000000000003C8FD049018000000C1003FBFFFFFE0000000000003C8FD089018000000C1003FBFFFFFE0000000000003C8FD109018000000C1003FBFFFFFE0000000000003C8FD20901
310
8000000C1003FBFFFFFE0000000000003C8FD03409065F444154410000
340
11
340
14
340
14
340
14
340
14
340
14
340
14
340
11
340
14
340
14
340
14
340
14
340
14
340
14
340
11
340
14
340
14
340
14
340
14
340
14
340
14
 94
        0
1001
ACAD
1000
AcRTDxfName
1000
CELLSTYLEMAP
1000
AcRTDxfName
1000
CELLSTYLEMAP
  0
XRECORD
  5
2997
102
{ACAD_REACTORS
330
162
102
}
330
162
100
AcDbXrecord
280
     1
102
ACAD_ROUNDTRIP_PRE2007_TABLESTYLE
 90
      512
 91
        0
  1

 92
      512
 93
        0
  2

 94
      512
 95
        0
  3

  0
ENDSEC
  0
EOF
