  0
SECTION
  2
HEADER
  9
$ACADVER
  1
AC1015
  9
$ACADMAINTVER
 70
    20
  9
$DWGCODEPAGE
  3
ANSI_1250
  9
$INSBASE
 10
0.0
 20
0.0
 30
0.0
  9
$EXTMIN
 10
-0.0066454253537813
 20
0.0
 30
0.0
  9
$EXTMAX
 10
334.3451286667362
 20
297.0
 30
0.0
  9
$LIMMIN
 10
-0.0066454253537813
 20
0.0
  9
$LIMMAX
 10
334.3451286667362
 20
297.0
  9
$ORTHOMODE
 70
     0
  9
$REGENMODE
 70
     1
  9
$FILLMODE
 70
     1
  9
$QTEXTMODE
 70
     0
  9
$MIRRTEXT
 70
     0
  9
$LTSCALE
 40
1.0
  9
$ATTMODE
 70
     2
  9
$TEXTSIZE
 40
5.0
  9
$TRACEWID
 40
1.0
  9
$TEXTSTYLE
  7
Solbet_5
  9
$CLAYER
  8
SOLBET_Bloczki
  9
$CELTYPE
  6
ByLayer
  9
$CECOLOR
 62
   256
  9
$CELTSCALE
 40
1.0
  9
$DISPSILH
 70
     0
  9
$DIMSCALE
 40
1.0
  9
$DIMASZ
 40
2.5
  9
$DIMEXO
 40
0.0
  9
$DIMDLI
 40
3.75
  9
$DIMRND
 40
0.0
  9
$DIMDLE
 40
0.0
  9
$DIMEXE
 40
1.25
  9
$DIMTP
 40
0.0
  9
$DIMTM
 40
0.0
  9
$DIMTXT
 40
2.5
  9
$DIMCEN
 40
2.5
  9
$DIMTSZ
 40
0.0
  9
$DIMTOL
 70
     0
  9
$DIMLIM
 70
     0
  9
$DIMTIH
 70
     0
  9
$DIMTOH
 70
     0
  9
$DIMSE1
 70
     0
  9
$DIMSE2
 70
     0
  9
$DIMTAD
 70
     1
  9
$DIMZIN
 70
     8
  9
$DIMBLK
  1

  9
$DIMASO
 70
     1
  9
$DIMSHO
 70
     1
  9
$DIMPOST
  1

  9
$DIMAPOST
  1

  9
$DIMALT
 70
     0
  9
$DIMALTD
 70
     3
  9
$DIMALTF
 40
0.03937007874016
  9
$DIMLFAC
 40
1.0
  9
$DIMTOFL
 70
     1
  9
$DIMTVP
 40
0.0
  9
$DIMTIX
 70
     0
  9
$DIMSOXD
 70
     0
  9
$DIMSAH
 70
     0
  9
$DIMBLK1
  1

  9
$DIMBLK2
  1

  9
$DIMSTYLE
  2
Solbet
  9
$DIMCLRD
 70
     0
  9
$DIMCLRE
 70
     0
  9
$DIMCLRT
 70
     0
  9
$DIMTFAC
 40
1.0
  9
$DIMGAP
 40
0.625
  9
$DIMJUST
 70
     0
  9
$DIMSD1
 70
     0
  9
$DIMSD2
 70
     0
  9
$DIMTOLJ
 70
     0
  9
$DIMTZIN
 70
     8
  9
$DIMALTZ
 70
     0
  9
$DIMALTTZ
 70
     0
  9
$DIMUPT
 70
     0
  9
$DIMDEC
 70
     2
  9
$DIMTDEC
 70
     2
  9
$DIMALTU
 70
     2
  9
$DIMALTTD
 70
     3
  9
$DIMTXSTY
  7
Solbet_2_5
  9
$DIMAUNIT
 70
     0
  9
$DIMADEC
 70
     0
  9
$DIMALTRND
 40
0.0
  9
$DIMAZIN
 70
     0
  9
$DIMDSEP
 70
    44
  9
$DIMATFIT
 70
     3
  9
$DIMFRAC
 70
     0
  9
$DIMLDRBLK
  1

  9
$DIMLUNIT
 70
     2
  9
$DIMLWD
 70
    -2
  9
$DIMLWE
 70
    -2
  9
$DIMTMOVE
 70
     0
  9
$LUNITS
 70
     2
  9
$LUPREC
 70
     4
  9
$SKETCHINC
 40
1.0
  9
$FILLETRAD
 40
0.0
  9
$AUNITS
 70
     0
  9
$AUPREC
 70
     0
  9
$MENU
  1
.
  9
$ELEVATION
 40
0.0
  9
$PELEVATION
 40
0.0
  9
$THICKNESS
 40
0.0
  9
$LIMCHECK
 70
     0
  9
$CHAMFERA
 40
0.0
  9
$CHAMFERB
 40
0.0
  9
$CHAMFERC
 40
0.0
  9
$CHAMFERD
 40
0.0
  9
$SKPOLY
 70
     0
  9
$TDCREATE
 40
2454690.075573148
  9
$TDUCREATE
 40
2454690.033906482
  9
$TDUPDATE
 40
2454848.865825104
  9
$TDUUPDATE
 40
2454848.824158438
  9
$TDINDWG
 40
0.4200363194
  9
$TDUSRTIMER
 40
0.4200317940
  9
$USRTIMER
 70
     1
  9
$ANGBASE
 50
0.0
  9
$ANGDIR
 70
     0
  9
$PDMODE
 70
     0
  9
$PDSIZE
 40
0.0
  9
$PLINEWID
 40
0.0
  9
$SPLFRAME
 70
     0
  9
$SPLINETYPE
 70
     6
  9
$SPLINESEGS
 70
     8
  9
$HANDSEED
  5
2507
  9
$SURFTAB1
 70
     6
  9
$SURFTAB2
 70
     6
  9
$SURFTYPE
 70
     6
  9
$SURFU
 70
     6
  9
$SURFV
 70
     6
  9
$UCSBASE
  2

  9
$UCSNAME
  2

  9
$UCSORG
 10
0.0
 20
0.0
 30
0.0
  9
$UCSXDIR
 10
1.0
 20
0.0
 30
0.0
  9
$UCSYDIR
 10
0.0
 20
1.0
 30
0.0
  9
$UCSORTHOREF
  2

  9
$UCSORTHOVIEW
 70
     0
  9
$UCSORGTOP
 10
0.0
 20
0.0
 30
0.0
  9
$UCSORGBOTTOM
 10
0.0
 20
0.0
 30
0.0
  9
$UCSORGLEFT
 10
0.0
 20
0.0
 30
0.0
  9
$UCSORGRIGHT
 10
0.0
 20
0.0
 30
0.0
  9
$UCSORGFRONT
 10
0.0
 20
0.0
 30
0.0
  9
$UCSORGBACK
 10
0.0
 20
0.0
 30
0.0
  9
$PUCSBASE
  2

  9
$PUCSNAME
  2

  9
$PUCSORG
 10
0.0
 20
0.0
 30
0.0
  9
$PUCSXDIR
 10
1.0
 20
0.0
 30
0.0
  9
$PUCSYDIR
 10
0.0
 20
1.0
 30
0.0
  9
$PUCSORTHOREF
  2

  9
$PUCSORTHOVIEW
 70
     0
  9
$PUCSORGTOP
 10
0.0
 20
0.0
 30
0.0
  9
$PUCSORGBOTTOM
 10
0.0
 20
0.0
 30
0.0
  9
$PUCSORGLEFT
 10
0.0
 20
0.0
 30
0.0
  9
$PUCSORGRIGHT
 10
0.0
 20
0.0
 30
0.0
  9
$PUCSORGFRONT
 10
0.0
 20
0.0
 30
0.0
  9
$PUCSORGBACK
 10
0.0
 20
0.0
 30
0.0
  9
$USERI1
 70
     0
  9
$USERI2
 70
     0
  9
$USERI3
 70
     0
  9
$USERI4
 70
     0
  9
$USERI5
 70
     0
  9
$USERR1
 40
0.0
  9
$USERR2
 40
0.0
  9
$USERR3
 40
0.0
  9
$USERR4
 40
0.0
  9
$USERR5
 40
0.0
  9
$WORLDVIEW
 70
     1
  9
$SHADEDGE
 70
     3
  9
$SHADEDIF
 70
    70
  9
$TILEMODE
 70
     1
  9
$MAXACTVP
 70
    64
  9
$PINSBASE
 10
0.0
 20
0.0
 30
0.0
  9
$PLIMCHECK
 70
     0
  9
$PEXTMIN
 10
0.0
 20
0.0
 30
0.0
  9
$PEXTMAX
 10
0.0
 20
0.0
 30
0.0
  9
$PLIMMIN
 10
0.0
 20
0.0
  9
$PLIMMAX
 10
12.0
 20
9.0
  9
$UNITMODE
 70
     0
  9
$VISRETAIN
 70
     1
  9
$PLINEGEN
 70
     0
  9
$PSLTSCALE
 70
     1
  9
$TREEDEPTH
 70
  3020
  9
$CMLSTYLE
  2
SOLBET_IZOLACJA
  9
$CMLJUST
 70
     0
  9
$CMLSCALE
 40
20.0
  9
$PROXYGRAPHICS
 70
     1
  9
$MEASUREMENT
 70
     1
  9
$CELWEIGHT
370
    -1
  9
$ENDCAPS
280
     0
  9
$JOINSTYLE
280
     0
  9
$LWDISPLAY
290
     1
  9
$INSUNITS
 70
     4
  9
$HYPERLINKBASE
  1

  9
$STYLESHEET
  1

  9
$XEDIT
290
     1
  9
$CEPSNTYPE
380
     0
  9
$PSTYLEMODE
290
     1
  9
$FINGERPRINTGUID
  2
{6B12AB33-8E39-428E-8E85-461C8D99A3CB}
  9
$VERSIONGUID
  2
{0929A5E2-9794-4998-9A03-45C058A3C4CC}
  9
$EXTNAMES
290
     1
  9
$PSVPSCALE
 40
0.0
  9
$OLESTARTUP
290
     0
  0
ENDSEC
  0
SECTION
  2
CLASSES
  0
CLASS
  1
ACDBDICTIONARYWDFLT
  2
AcDbDictionaryWithDefault
  3
ObjectDBX Classes
 90
        0
280
     0
281
     0
  0
CLASS
  1
ACDBPLACEHOLDER
  2
AcDbPlaceHolder
  3
ObjectDBX Classes
 90
        0
280
     0
281
     0
  0
CLASS
  1
LAYOUT
  2
AcDbLayout
  3
ObjectDBX Classes
 90
        0
280
     0
281
     0
  0
CLASS
  1
DICTIONARYVAR
  2
AcDbDictionaryVar
  3
ObjectDBX Classes
 90
        0
280
     0
281
     0
  0
CLASS
  1
TABLESTYLE
  2
AcDbTableStyle
  3
ObjectDBX Classes
 90
     4095
280
     0
281
     0
  0
CLASS
  1
MATERIAL
  2
AcDbMaterial
  3
ObjectDBX Classes
 90
     1024
280
     0
281
     0
  0
CLASS
  1
VISUALSTYLE
  2
AcDbVisualStyle
  3
ObjectDBX Classes
 90
     4095
280
     0
281
     0
  0
CLASS
  1
SCALE
  2
AcDbScale
  3
ObjectDBX Classes
 90
     1153
280
     0
281
     0
  0
CLASS
  1
MLEADERSTYLE
  2
AcDbMLeaderStyle
  3
ACDB_MLEADERSTYLE_CLASS
 90
     4095
280
     0
281
     0
  0
CLASS
  1
CELLSTYLEMAP
  2
AcDbCellStyleMap
  3
ObjectDBX Classes
 90
     1152
280
     0
281
     0
  0
CLASS
  1
DIMASSOC
  2
AcDbDimAssoc
  3
"AcDbDimAssoc|Product Desc:     AcDim ARX App For Dimension|Company:          Autodesk, Inc.|WEB Address:      www.autodesk.com"
 90
    32768
280
     0
281
     0
  0
CLASS
  1
SORTENTSTABLE
  2
AcDbSortentsTable
  3
ObjectDBX Classes
 90
        0
280
     0
281
     0
  0
CLASS
  1
MULTILEADER
  2
AcDbMLeader
  3
ACDB_MLEADER_CLASS
 90
    33793
280
     0
281
     1
  0
CLASS
  1
ACDB_MTEXTOBJECTCONTEXTDATA_CLASS
  2
AcDbMTextObjectContextData
  3
ObjectDBX Classes
 90
    33921
280
     0
281
     0
  0
ENDSEC
  0
SECTION
  2
TABLES
  0
TABLE
  2
VPORT
  5
8
102
{ACAD_XDICTIONARY
360
443
102
}
330
0
100
AcDbSymbolTable
 70
     1
  0
VPORT
  5
EA
330
8
100
AcDbSymbolTableRecord
100
AcDbViewportTableRecord
  2
*Active
 70
     0
 10
0.0
 20
0.0
 11
1.0
 21
1.0
 12
167.1692431776855
 22
148.5000013830562
 13
0.0
 23
0.0
 14
10.0
 24
10.0
 15
10.0
 25
10.0
 16
0.0
 26
0.0
 36
1.0
 17
0.0
 27
0.0
 37
0.0
 40
300.3366588335911
 41
1.74582560296846
 42
50.0
 43
0.0
 44
0.0
 50
0.0
 51
0.0
 71
     0
 72
  1000
 73
     1
 74
     3
 75
     0
 76
     0
 77
     0
 78
     0
281
     0
 65
     1
110
0.0
120
0.0
130
0.0
111
1.0
121
0.0
131
0.0
112
0.0
122
1.0
132
0.0
 79
     0
146
0.0
  0
ENDTAB
  0
TABLE
  2
LTYPE
  5
5
330
0
100
AcDbSymbolTable
 70
     2
  0
LTYPE
  5
14
330
5
100
AcDbSymbolTableRecord
100
AcDbLinetypeTableRecord
  2
ByBlock
 70
     0
  3

 72
    65
 73
     0
 40
0.0
  0
LTYPE
  5
15
330
5
100
AcDbSymbolTableRecord
100
AcDbLinetypeTableRecord
  2
ByLayer
 70
     0
  3

 72
    65
 73
     0
 40
0.0
  0
LTYPE
  5
16
330
5
100
AcDbSymbolTableRecord
100
AcDbLinetypeTableRecord
  2
Continuous
 70
     0
  3
Solid line
 72
    65
 73
     0
 40
0.0
  0
LTYPE
  5
982
330
5
100
AcDbSymbolTableRecord
100
AcDbLinetypeTableRecord
  2
BATTING
 70
     0
  3
Batting SSSSSSSSSSSSSSSSSSSSSSSSSSSSSSSSSSSSSSSSSSSSSSS
 72
    65
 73
     4
 40
10.16254
 49
0.00254
 74
     0
 49
-2.54
 74
     4
 75
   134
340
7E7
 46
2.54
 50
0.0
 44
-2.54
 45
0.0
 49
-5.08
 74
     4
 75
   134
340
7E7
 46
2.54
 50
180.0
 44
2.54
 45
0.0
 49
-2.54
 74
     0
  0
ENDTAB
  0
TABLE
  2
LAYER
  5
2
102
{ACAD_XDICTIONARY
360
3E5
102
}
330
0
100
AcDbSymbolTable
 70
    11
  0
LAYER
  5
10
102
{ACAD_XDICTIONARY
360
13C
102
}
330
2
100
AcDbSymbolTableRecord
100
AcDbLayerTableRecord
  2
0
 70
     0
 62
     7
  6
Continuous
370
    -3
390
F
  0
LAYER
  5
2BB
330
2
100
AcDbSymbolTableRecord
100
AcDbLayerTableRecord
  2
DEFPOINTS
 70
     0
 62
     7
  6
Continuous
290
     0
370
    -3
390
F
  0
LAYER
  5
3DD
102
{ACAD_XDICTIONARY
360
403
102
}
330
2
100
AcDbSymbolTableRecord
100
AcDbLayerTableRecord
  2
SOLBET_Bloczki
 70
     0
 62
   140
  6
Continuous
370
    -3
390
F
1001
AcAecLayerStandard
1000

1000

  0
LAYER
  5
3DF
102
{ACAD_XDICTIONARY
360
405
102
}
330
2
100
AcDbSymbolTableRecord
100
AcDbLayerTableRecord
  2
SOLBET_Wymiary_Opisy
 70
     0
 62
     1
  6
Continuous
370
    -3
390
F
1001
AcAecLayerStandard
1000

1000

  0
LAYER
  5
3E0
102
{ACAD_XDICTIONARY
360
407
102
}
330
2
100
AcDbSymbolTableRecord
100
AcDbLayerTableRecord
  2
SOLBET_Beton
 70
     0
 62
     9
  6
Continuous
370
    -3
390
F
1001
AcAecLayerStandard
1000

1000

  0
LAYER
  5
3E1
102
{ACAD_XDICTIONARY
360
409
102
}
330
2
100
AcDbSymbolTableRecord
100
AcDbLayerTableRecord
  2
SOLBET_Izolacja
 70
     0
 62
    40
  6
Continuous
370
    -3
390
F
1001
AcAecLayerStandard
1000

1000

  0
LAYER
  5
3E2
102
{ACAD_XDICTIONARY
360
40B
102
}
330
2
100
AcDbSymbolTableRecord
100
AcDbLayerTableRecord
  2
SOLBET_Zbrojenie_Konstrukcja
 70
     0
 62
     7
  6
Continuous
370
    -3
390
F
1001
AcAecLayerStandard
1000

1000

  0
LAYER
  5
3E4
102
{ACAD_XDICTIONARY
360
40F
102
}
330
2
100
AcDbSymbolTableRecord
100
AcDbLayerTableRecord
  2
SOLBET_Tynki_Posadzki
 70
     0
 62
     3
  6
Continuous
370
    -3
390
F
1001
AcAecLayerStandard
1000

1000

  0
LAYER
  5
3E8
102
{ACAD_XDICTIONARY
360
411
102
}
330
2
100
AcDbSymbolTableRecord
100
AcDbLayerTableRecord
  2
SOLBET_Ramka_05
 70
     0
 62
     2
  6
Continuous
370
    -3
390
F
1001
AcAecLayerStandard
1000

1000

  0
LAYER
  5
4E2
330
2
100
AcDbSymbolTableRecord
100
AcDbLayerTableRecord
  2
SOLBET_Emulsje_Folie
 70
     0
 62
     6
  6
Continuous
370
    -3
390
F
1001
AcAecLayerStandard
1000

1000

  0
LAYER
  5
2405
102
{ACAD_XDICTIONARY
360
2406
102
}
330
2
100
AcDbSymbolTableRecord
100
AcDbLayerTableRecord
  2
SOLBET_Wymiary_Opisy @ 1
 70
     0
 62
     1
  6
Continuous
370
    -3
390
F
1001
AcAecLayerStandard
1000

1000

1001
AcadAnnotativeDecomposition
1000
AnnotativeData
1002
{
1070
     1
1070
     1
1002
}
  0
ENDTAB
  0
TABLE
  2
STYLE
  5
3
330
0
100
AcDbSymbolTable
 70
     5
  0
STYLE
  5
11
330
3
100
AcDbSymbolTableRecord
100
AcDbTextStyleTableRecord
  2
Standard
 70
     0
 40
0.0
 41
1.0
 50
0.0
 71
     0
 42
2.5
  3
txt.shx
  4

  0
STYLE
  5
7D7
330
3
100
AcDbSymbolTableRecord
100
AcDbTextStyleTableRecord
  2
Solbet_5
 70
     0
 40
5.0
 41
1.0
 50
0.0
 71
     0
 42
5.0
  3
isocpeur.ttf
  4

1001
ACAD
1000
ISOCPEUR
1071
       34
  0
STYLE
  5
7D9
330
3
100
AcDbSymbolTableRecord
100
AcDbTextStyleTableRecord
  2
Solbet_2_5
 70
     0
 40
2.5
 41
1.0
 50
0.0
 71
     0
 42
2.5
  3
isocpeur.ttf
  4

1001
ACAD
1000
ISOCPEUR
1071
       34
  0
STYLE
  5
7E7
330
3
100
AcDbSymbolTableRecord
100
AcDbTextStyleTableRecord
  2

 70
     1
 40
0.0
 41
1.0
 50
0.0
 71
     0
 42
2.5
  3
ltypeshp.shx
  4

  0
STYLE
  5
21CE
330
3
100
AcDbSymbolTableRecord
100
AcDbTextStyleTableRecord
  2
Solbet_1
 70
     0
 40
1.0
 41
1.0
 50
0.0
 71
     0
 42
2.5
  3
isocpeur.ttf
  4

1001
ACAD
1000
ISOCPEUR
1071
       34
  0
ENDTAB
  0
TABLE
  2
VIEW
  5
6
330
0
100
AcDbSymbolTable
 70
     0
  0
ENDTAB
  0
TABLE
  2
UCS
  5
7
330
0
100
AcDbSymbolTable
 70
     0
  0
ENDTAB
  0
TABLE
  2
APPID
  5
9
330
0
100
AcDbSymbolTable
 70
    13
  0
APPID
  5
12
330
9
100
AcDbSymbolTableRecord
100
AcDbRegAppTableRecord
  2
ACAD
 70
     0
  0
APPID
  5
9E
330
9
100
AcDbSymbolTableRecord
100
AcDbRegAppTableRecord
  2
ACAD_PSEXT
 70
     0
  0
APPID
  5
133
330
9
100
AcDbSymbolTableRecord
100
AcDbRegAppTableRecord
  2
AcadAnnoPO
 70
     0
  0
APPID
  5
134
330
9
100
AcDbSymbolTableRecord
100
AcDbRegAppTableRecord
  2
AcadAnnotative
 70
     0
  0
APPID
  5
135
330
9
100
AcDbSymbolTableRecord
100
AcDbRegAppTableRecord
  2
ACAD_DSTYLE_DIMJAG
 70
     0
  0
APPID
  5
136
330
9
100
AcDbSymbolTableRecord
100
AcDbRegAppTableRecord
  2
ACAD_DSTYLE_DIMTALN
 70
     0
  0
APPID
  5
165
330
9
100
AcDbSymbolTableRecord
100
AcDbRegAppTableRecord
  2
ACAD_MLEADERVER
 70
     0
  0
APPID
  5
2C4
330
9
100
AcDbSymbolTableRecord
100
AcDbRegAppTableRecord
  2
ASO_SCHRAFF
 70
     0
  0
APPID
  5
3DE
330
9
100
AcDbSymbolTableRecord
100
AcDbRegAppTableRecord
  2
AcAecLayerStandard
 70
     0
  0
APPID
  5
7DE
330
9
100
AcDbSymbolTableRecord
100
AcDbRegAppTableRecord
  2
ACAD_EXEMPT_FROM_CAD_STANDARDS
 70
     0
  0
APPID
  5
948
330
9
100
AcDbSymbolTableRecord
100
AcDbRegAppTableRecord
  2
ACAD_DSTYLE_DIMBREAK
 70
     0
  0
APPID
  5
1D0A
330
9
100
AcDbSymbolTableRecord
100
AcDbRegAppTableRecord
  2
AcadAnnotativeDecomposition
 70
     0
  0
APPID
  5
21CF
330
9
100
AcDbSymbolTableRecord
100
AcDbRegAppTableRecord
  2
AcDbAttr
 70
     0
  0
ENDTAB
  0
TABLE
  2
DIMSTYLE
  5
A
330
0
100
AcDbSymbolTable
 70
     2
100
AcDbDimStyleTable
 71
     1
340
949
  0
DIMSTYLE
105
949
330
A
100
AcDbSymbolTableRecord
100
AcDbDimStyleTableRecord
  2
Solbet
 70
     0
 41
2.5
 42
0.0
 43
3.75
 44
1.25
 73
     0
 74
     0
 77
     1
 78
     8
140
2.5
141
2.5
143
0.03937007874016
147
0.625
171
     3
172
     1
271
     2
272
     2
274
     3
278
    44
283
     0
284
     8
340
7D9
1001
ACAD_DSTYLE_DIMBREAK
1070
   391
1040
3.75
1001
ACAD_DSTYLE_DIMJAG
1070
   388
1040
1.5
1001
ACAD_DSTYLE_DIMTALN
1070
   392
1070
     0
  0
DIMSTYLE
105
954
330
A
100
AcDbSymbolTableRecord
100
AcDbDimStyleTableRecord
  2
Solbet$7
 70
     0
 41
2.5
 42
0.0
 43
3.75
 44
1.25
 73
     0
 74
     0
 77
     1
 78
     8
140
2.5
141
2.5
143
0.03937007874016
147
0.625
171
     3
172
     1
271
     2
272
     2
274
     3
278
    44
283
     0
284
     8
340
7D9
341
958
1001
ACAD_DSTYLE_DIMBREAK
1070
   391
1040
3.75
1001
ACAD_DSTYLE_DIMJAG
1070
   388
1040
1.5
1001
ACAD_DSTYLE_DIMTALN
1070
   392
1070
     0
  0
ENDTAB
  0
TABLE
  2
BLOCK_RECORD
  5
1
330
0
100
AcDbSymbolTable
 70
     9
  0
BLOCK_RECORD
  5
1F
102
{ACAD_XDICTIONARY
360
4A3
102
}
330
1
100
AcDbSymbolTableRecord
100
AcDbBlockTableRecord
  2
*Model_Space
340
22
  0
BLOCK_RECORD
  5
D2
330
1
100
AcDbSymbolTableRecord
100
AcDbBlockTableRecord
  2
*Paper_Space
340
D3
  0
BLOCK_RECORD
  5
D6
330
1
100
AcDbSymbolTableRecord
100
AcDbBlockTableRecord
  2
*Paper_Space0
340
D7
  0
BLOCK_RECORD
  5
958
330
1
100
AcDbSymbolTableRecord
100
AcDbBlockTableRecord
  2
_DotSmall
340
0
  0
BLOCK_RECORD
  5
1EF2
330
1
100
AcDbSymbolTableRecord
100
AcDbBlockTableRecord
  2
_None
340
0
  0
BLOCK_RECORD
  5
2064
330
1
100
AcDbSymbolTableRecord
100
AcDbBlockTableRecord
  2
*X3
340
0
102
{BLKREFS
331
224D
331
2263
102
}
  0
BLOCK_RECORD
  5
21D0
102
{ACAD_XDICTIONARY
360
21DC
102
}
330
1
100
AcDbSymbolTableRecord
100
AcDbBlockTableRecord
  2
SOLBET_Bloczek_OPTIMAL_240x240x590_P+W_PRA
340
0
1001
ACAD
1000
DesignCenter Data
1002
{
1070
     1
1070
     4
1002
}
  0
BLOCK_RECORD
  5
21EE
102
{ACAD_XDICTIONARY
360
21F8
102
}
330
1
100
AcDbSymbolTableRecord
100
AcDbBlockTableRecord
  2
SOLBET_Nadproze_160_12_1600x240x120_PRA
340
0
1001
ACAD
1000
DesignCenter Data
1002
{
1070
     1
1070
     4
1002
}
  0
BLOCK_RECORD
  5
2439
102
{ACAD_XDICTIONARY
360
244A
102
}
330
1
100
AcDbSymbolTableRecord
100
AcDbBlockTableRecord
  2
SOLBET_Nadproze_120x240x1600_zz_PRA
340
0
102
{BLKREFS
331
244E
331
244F
102
}
1001
ACAD
1000
DesignCenter Data
1002
{
1070
     1
1070
     4
1002
}
  0
BLOCK_RECORD
  5
2478
102
{ACAD_XDICTIONARY
360
2483
102
}
330
1
100
AcDbSymbolTableRecord
100
AcDbBlockTableRecord
  2
SOLBET_Bloczek_Optimal_240x240x590_G_KG500_PRA
340
0
102
{BLKREFS
331
2487
331
2488
102
}
1001
ACAD
1000
DesignCenter Data
1002
{
1070
     1
1070
     4
1002
}
  0
ENDTAB
  0
ENDSEC
  0
SECTION
  2
BLOCKS
  0
BLOCK
  5
20
330
1F
100
AcDbEntity
  8
0
100
AcDbBlockBegin
  2
*Model_Space
 70
     0
 10
0.0
 20
0.0
 30
0.0
  3
*Model_Space
  1

  0
ENDBLK
  5
21
330
1F
100
AcDbEntity
  8
0
100
AcDbBlockEnd
  0
BLOCK
  5
D4
330
D2
100
AcDbEntity
 67
     1
  8
0
100
AcDbBlockBegin
  2
*Paper_Space
 70
     0
 10
0.0
 20
0.0
 30
0.0
  3
*Paper_Space
  1

  0
ENDBLK
  5
D5
330
D2
100
AcDbEntity
 67
     1
  8
0
100
AcDbBlockEnd
  0
BLOCK
  5
D8
330
D6
100
AcDbEntity
 67
     1
  8
0
100
AcDbBlockBegin
  2
*Paper_Space0
 70
     0
 10
0.0
 20
0.0
 30
0.0
  3
*Paper_Space0
  1

  0
ENDBLK
  5
D9
330
D6
100
AcDbEntity
 67
     1
  8
0
100
AcDbBlockEnd
  0
BLOCK
  5
95A
330
958
100
AcDbEntity
  8
0
100
AcDbBlockBegin
  2
_DotSmall
 70
     0
 10
0.0
 20
0.0
 30
0.0
  3
_DotSmall
  1

  0
LWPOLYLINE
  5
959
330
958
100
AcDbEntity
  8
0
  6
ByBlock
 62
     0
100
AcDbPolyline
 90
        2
 70
     1
 43
0.5
 10
-0.0625
 20
0.0
 42
1.0
 10
0.0625
 20
0.0
 42
1.0
  0
ENDBLK
  5
95B
330
958
100
AcDbEntity
  8
0
100
AcDbBlockEnd
  0
BLOCK
  5
1EF3
330
1EF2
100
AcDbEntity
  8
0
100
AcDbBlockBegin
  2
_None
 70
     0
 10
0.0
 20
0.0
 30
0.0
  3
_None
  1

  0
ENDBLK
  5
1EF4
330
1EF2
100
AcDbEntity
  8
0
100
AcDbBlockEnd
  0
BLOCK
  5
2065
330
2064
100
AcDbEntity
  8
0
100
AcDbBlockBegin
  2
*X3
 70
     1
 10
0.0
 20
0.0
 30
0.0
  3
*X3
  1
ASOWDBLK
  0
LINE
  5
2066
330
2064
100
AcDbEntity
  8
0
 62
     0
100
AcDbLine
 10
11.99304811965889
 20
9.120426821088543
 30
0.0
 11
12.03304811965889
 21
9.16042682108854
 31
0.0
  0
LINE
  5
2067
330
2064
100
AcDbEntity
  8
0
 62
     0
100
AcDbLine
 10
11.94885394583473
 20
9.120426821088543
 30
0.0
 11
11.98885394583473
 21
9.16042682108854
 31
0.0
  0
LINE
  5
2068
330
2064
100
AcDbEntity
  8
0
 62
     0
100
AcDbLine
 10
11.90465977201057
 20
9.120426821088543
 30
0.0
 11
11.94465977201057
 21
9.16042682108854
 31
0.0
  0
LINE
  5
2069
330
2064
100
AcDbEntity
  8
0
 62
     0
100
AcDbLine
 10
11.86046559818641
 20
9.120426821088543
 30
0.0
 11
11.90046559818641
 21
9.16042682108854
 31
0.0
  0
LINE
  5
206A
330
2064
100
AcDbEntity
  8
0
 62
     0
100
AcDbLine
 10
11.81627142436225
 20
9.120426821088543
 30
0.0
 11
11.85627142436225
 21
9.16042682108854
 31
0.0
  0
LINE
  5
206B
330
2064
100
AcDbEntity
  8
0
 62
     0
100
AcDbLine
 10
11.77207725053809
 20
9.120426821088543
 30
0.0
 11
11.81207725053809
 21
9.16042682108854
 31
0.0
  0
LINE
  5
206C
330
2064
100
AcDbEntity
  8
0
 62
     0
100
AcDbLine
 10
11.72788307671393
 20
9.120426821088543
 30
0.0
 11
11.76788307671393
 21
9.16042682108854
 31
0.0
  0
LINE
  5
206D
330
2064
100
AcDbEntity
  8
0
 62
     0
100
AcDbLine
 10
11.68368890288977
 20
9.120426821088543
 30
0.0
 11
11.72368890288977
 21
9.16042682108854
 31
0.0
  0
LINE
  5
206E
330
2064
100
AcDbEntity
  8
0
 62
     0
100
AcDbLine
 10
11.63949472906562
 20
9.120426821088543
 30
0.0
 11
11.67949472906562
 21
9.16042682108854
 31
0.0
  0
LINE
  5
206F
330
2064
100
AcDbEntity
  8
0
 62
     0
100
AcDbLine
 10
11.59530055524146
 20
9.120426821088543
 30
0.0
 11
11.63530055524145
 21
9.16042682108854
 31
0.0
  0
LINE
  5
2070
330
2064
100
AcDbEntity
  8
0
 62
     0
100
AcDbLine
 10
11.5511063814173
 20
9.120426821088543
 30
0.0
 11
11.59110638141729
 21
9.16042682108854
 31
0.0
  0
LINE
  5
2071
330
2064
100
AcDbEntity
  8
0
 62
     0
100
AcDbLine
 10
11.50691220759314
 20
9.120426821088543
 30
0.0
 11
11.54691220759314
 21
9.16042682108854
 31
0.0
  0
LINE
  5
2072
330
2064
100
AcDbEntity
  8
0
 62
     0
100
AcDbLine
 10
11.46271803376898
 20
9.120426821088543
 30
0.0
 11
11.50271803376898
 21
9.16042682108854
 31
0.0
  0
LINE
  5
2073
330
2064
100
AcDbEntity
  8
0
 62
     0
100
AcDbLine
 10
11.41852385994482
 20
9.120426821088543
 30
0.0
 11
11.45852385994482
 21
9.16042682108854
 31
0.0
  0
LINE
  5
2074
330
2064
100
AcDbEntity
  8
0
 62
     0
100
AcDbLine
 10
11.39401831761913
 20
9.140115452587011
 30
0.0
 11
11.41432968612066
 21
9.16042682108854
 31
0.0
  0
LINE
  5
2075
330
2064
100
AcDbEntity
  8
0
 62
     0
100
AcDbLine
 10
12.03724229348305
 20
9.120426821088543
 30
0.0
 11
12.07724229348305
 21
9.16042682108854
 31
0.0
  0
LINE
  5
2076
330
2064
100
AcDbEntity
  8
0
 62
     0
100
AcDbLine
 10
12.08143646730721
 20
9.120426821088543
 30
0.0
 11
12.12143646730721
 21
9.16042682108854
 31
0.0
  0
LINE
  5
2077
330
2064
100
AcDbEntity
  8
0
 62
     0
100
AcDbLine
 10
12.12563064113137
 20
9.120426821088543
 30
0.0
 11
12.16563064113137
 21
9.16042682108854
 31
0.0
  0
LINE
  5
2078
330
2064
100
AcDbEntity
  8
0
 62
     0
100
AcDbLine
 10
12.16982481495553
 20
9.120426821088543
 30
0.0
 11
12.20982481495552
 21
9.16042682108854
 31
0.0
  0
LINE
  5
2079
330
2064
100
AcDbEntity
  8
0
 62
     0
100
AcDbLine
 10
12.21401898877969
 20
9.120426821088543
 30
0.0
 11
12.25401898877968
 21
9.16042682108854
 31
0.0
  0
LINE
  5
207A
330
2064
100
AcDbEntity
  8
0
 62
     0
100
AcDbLine
 10
12.25821316260385
 20
9.120426821088543
 30
0.0
 11
12.29821316260384
 21
9.16042682108854
 31
0.0
  0
LINE
  5
207B
330
2064
100
AcDbEntity
  8
0
 62
     0
100
AcDbLine
 10
12.302407336428
 20
9.120426821088543
 30
0.0
 11
12.342407336428
 21
9.16042682108854
 31
0.0
  0
LINE
  5
207C
330
2064
100
AcDbEntity
  8
0
 62
     0
100
AcDbLine
 10
12.34660151025216
 20
9.120426821088543
 30
0.0
 11
12.38660151025216
 21
9.16042682108854
 31
0.0
  0
LINE
  5
207D
330
2064
100
AcDbEntity
  8
0
 62
     0
100
AcDbLine
 10
12.39079568407632
 20
9.120426821088543
 30
0.0
 11
12.43079568407632
 21
9.16042682108854
 31
0.0
  0
LINE
  5
207E
330
2064
100
AcDbEntity
  8
0
 62
     0
100
AcDbLine
 10
12.43498985790048
 20
9.120426821088543
 30
0.0
 11
12.47498985790048
 21
9.16042682108854
 31
0.0
  0
LINE
  5
207F
330
2064
100
AcDbEntity
  8
0
 62
     0
100
AcDbLine
 10
12.47918403172464
 20
9.120426821088543
 30
0.0
 11
12.51918403172464
 21
9.16042682108854
 31
0.0
  0
LINE
  5
2080
330
2064
100
AcDbEntity
  8
0
 62
     0
100
AcDbLine
 10
12.5233782055488
 20
9.120426821088543
 30
0.0
 11
12.5633782055488
 21
9.16042682108854
 31
0.0
  0
LINE
  5
2081
330
2064
100
AcDbEntity
  8
0
 62
     0
100
AcDbLine
 10
12.56757237937296
 20
9.120426821088543
 30
0.0
 11
12.60757237937296
 21
9.16042682108854
 31
0.0
  0
LINE
  5
2082
330
2064
100
AcDbEntity
  8
0
 62
     0
100
AcDbLine
 10
12.61176655319712
 20
9.120426821088543
 30
0.0
 11
12.65176655319712
 21
9.16042682108854
 31
0.0
  0
LINE
  5
2083
330
2064
100
AcDbEntity
  8
0
 62
     0
100
AcDbLine
 10
12.65596072702128
 20
9.120426821088543
 30
0.0
 11
12.68399674713724
 21
9.1484628412045
 31
0.0
  0
LINE
  5
2084
330
2064
100
AcDbEntity
  8
0
 62
     0
100
AcDbLine
 10
12.04858244068372
 20
9.120426821088543
 30
0.0
 11
12.00858244068372
 21
9.16042682108854
 31
0.0
  0
LINE
  5
2085
330
2064
100
AcDbEntity
  8
0
 62
     0
100
AcDbLine
 10
12.00438826685956
 20
9.120426821088543
 30
0.0
 11
11.96438826685956
 21
9.16042682108854
 31
0.0
  0
LINE
  5
2086
330
2064
100
AcDbEntity
  8
0
 62
     0
100
AcDbLine
 10
11.9601940930354
 20
9.120426821088543
 30
0.0
 11
11.9201940930354
 21
9.16042682108854
 31
0.0
  0
LINE
  5
2087
330
2064
100
AcDbEntity
  8
0
 62
     0
100
AcDbLine
 10
11.91599991921124
 20
9.120426821088543
 30
0.0
 11
11.87599991921124
 21
9.16042682108854
 31
0.0
  0
LINE
  5
2088
330
2064
100
AcDbEntity
  8
0
 62
     0
100
AcDbLine
 10
11.87180574538708
 20
9.120426821088543
 30
0.0
 11
11.83180574538708
 21
9.16042682108854
 31
0.0
  0
LINE
  5
2089
330
2064
100
AcDbEntity
  8
0
 62
     0
100
AcDbLine
 10
11.82761157156292
 20
9.120426821088543
 30
0.0
 11
11.78761157156293
 21
9.16042682108854
 31
0.0
  0
LINE
  5
208A
330
2064
100
AcDbEntity
  8
0
 62
     0
100
AcDbLine
 10
11.78341739773876
 20
9.120426821088543
 30
0.0
 11
11.74341739773877
 21
9.16042682108854
 31
0.0
  0
LINE
  5
208B
330
2064
100
AcDbEntity
  8
0
 62
     0
100
AcDbLine
 10
11.7392232239146
 20
9.120426821088543
 30
0.0
 11
11.69922322391461
 21
9.16042682108854
 31
0.0
  0
LINE
  5
208C
330
2064
100
AcDbEntity
  8
0
 62
     0
100
AcDbLine
 10
11.69502905009045
 20
9.120426821088543
 30
0.0
 11
11.65502905009045
 21
9.16042682108854
 31
0.0
  0
LINE
  5
208D
330
2064
100
AcDbEntity
  8
0
 62
     0
100
AcDbLine
 10
11.65083487626629
 20
9.120426821088543
 30
0.0
 11
11.61083487626629
 21
9.16042682108854
 31
0.0
  0
LINE
  5
208E
330
2064
100
AcDbEntity
  8
0
 62
     0
100
AcDbLine
 10
11.60664070244213
 20
9.120426821088543
 30
0.0
 11
11.56664070244213
 21
9.16042682108854
 31
0.0
  0
LINE
  5
208F
330
2064
100
AcDbEntity
  8
0
 62
     0
100
AcDbLine
 10
11.56244652861797
 20
9.120426821088543
 30
0.0
 11
11.52244652861797
 21
9.16042682108854
 31
0.0
  0
LINE
  5
2090
330
2064
100
AcDbEntity
  8
0
 62
     0
100
AcDbLine
 10
11.51825235479381
 20
9.120426821088543
 30
0.0
 11
11.47825235479381
 21
9.16042682108854
 31
0.0
  0
LINE
  5
2091
330
2064
100
AcDbEntity
  8
0
 62
     0
100
AcDbLine
 10
11.47405818096965
 20
9.120426821088543
 30
0.0
 11
11.43405818096965
 21
9.16042682108854
 31
0.0
  0
LINE
  5
2092
330
2064
100
AcDbEntity
  8
0
 62
     0
100
AcDbLine
 10
11.42986400714549
 20
9.120426821088543
 30
0.0
 11
11.39401831761913
 21
9.156272510614906
 31
0.0
  0
LINE
  5
2093
330
2064
100
AcDbEntity
  8
0
 62
     0
100
AcDbLine
 10
12.09277661450788
 20
9.120426821088543
 30
0.0
 11
12.05277661450788
 21
9.16042682108854
 31
0.0
  0
LINE
  5
2094
330
2064
100
AcDbEntity
  8
0
 62
     0
100
AcDbLine
 10
12.13697078833203
 20
9.120426821088543
 30
0.0
 11
12.09697078833204
 21
9.16042682108854
 31
0.0
  0
LINE
  5
2095
330
2064
100
AcDbEntity
  8
0
 62
     0
100
AcDbLine
 10
12.1811649621562
 20
9.120426821088543
 30
0.0
 11
12.1411649621562
 21
9.16042682108854
 31
0.0
  0
LINE
  5
2096
330
2064
100
AcDbEntity
  8
0
 62
     0
100
AcDbLine
 10
12.22535913598036
 20
9.120426821088543
 30
0.0
 11
12.18535913598036
 21
9.16042682108854
 31
0.0
  0
LINE
  5
2097
330
2064
100
AcDbEntity
  8
0
 62
     0
100
AcDbLine
 10
12.26955330980451
 20
9.120426821088543
 30
0.0
 11
12.22955330980451
 21
9.16042682108854
 31
0.0
  0
LINE
  5
2098
330
2064
100
AcDbEntity
  8
0
 62
     0
100
AcDbLine
 10
12.31374748362867
 20
9.120426821088543
 30
0.0
 11
12.27374748362868
 21
9.16042682108854
 31
0.0
  0
LINE
  5
2099
330
2064
100
AcDbEntity
  8
0
 62
     0
100
AcDbLine
 10
12.35794165745283
 20
9.120426821088543
 30
0.0
 11
12.31794165745283
 21
9.16042682108854
 31
0.0
  0
LINE
  5
209A
330
2064
100
AcDbEntity
  8
0
 62
     0
100
AcDbLine
 10
12.40213583127699
 20
9.120426821088543
 30
0.0
 11
12.36213583127699
 21
9.16042682108854
 31
0.0
  0
LINE
  5
209B
330
2064
100
AcDbEntity
  8
0
 62
     0
100
AcDbLine
 10
12.44633000510115
 20
9.120426821088543
 30
0.0
 11
12.40633000510115
 21
9.16042682108854
 31
0.0
  0
LINE
  5
209C
330
2064
100
AcDbEntity
  8
0
 62
     0
100
AcDbLine
 10
12.49052417892531
 20
9.120426821088543
 30
0.0
 11
12.45052417892531
 21
9.16042682108854
 31
0.0
  0
LINE
  5
209D
330
2064
100
AcDbEntity
  8
0
 62
     0
100
AcDbLine
 10
12.53471835274947
 20
9.120426821088543
 30
0.0
 11
12.49471835274947
 21
9.16042682108854
 31
0.0
  0
LINE
  5
209E
330
2064
100
AcDbEntity
  8
0
 62
     0
100
AcDbLine
 10
12.57891252657363
 20
9.120426821088543
 30
0.0
 11
12.53891252657363
 21
9.16042682108854
 31
0.0
  0
LINE
  5
209F
330
2064
100
AcDbEntity
  8
0
 62
     0
100
AcDbLine
 10
12.62310670039779
 20
9.120426821088543
 30
0.0
 11
12.58310670039779
 21
9.16042682108854
 31
0.0
  0
LINE
  5
20A0
330
2064
100
AcDbEntity
  8
0
 62
     0
100
AcDbLine
 10
12.66730087422195
 20
9.120426821088543
 30
0.0
 11
12.62730087422195
 21
9.16042682108854
 31
0.0
  0
LINE
  5
20A1
330
2064
100
AcDbEntity
  8
0
 62
     0
100
AcDbLine
 10
12.68399674713724
 20
9.147925121997415
 30
0.0
 11
12.67149504804611
 21
9.16042682108854
 31
0.0
  0
ENDBLK
  5
20A2
330
2064
100
AcDbEntity
  8
0
100
AcDbBlockEnd
  0
BLOCK
  5
21DE
330
21D0
100
AcDbEntity
  8
0
100
AcDbBlockBegin
  2
SOLBET_Bloczek_OPTIMAL_240x240x590_P+W_PRA
 70
     2
 10
0.0
 20
0.0
 30
0.0
  3
SOLBET_Bloczek_OPTIMAL_240x240x590_P+W_PRA
  1

  0
ATTDEF
  5
21D1
330
21D0
100
AcDbEntity
  8
SOLBET_Wymiary_Opisy
100
AcDbText
 10
-0.0000000878742412
 20
6.303237404038322
 30
0.0
 40
0.9913121336814832
  1
240x240x590
  7
Solbet_1
100
AcDbAttributeDefinition
  3

  2
WYMIARY
 70
     3
1001
AcDbAttr
1070
     0
1070
     1
  0
ATTDEF
  5
21D2
330
21D0
100
AcDbEntity
  8
SOLBET_Wymiary_Opisy
100
AcDbText
 10
-0.0000000878742412
 20
4.790717996322224
 30
0.0
 40
0.9913121336814832
  1
400, 500, 600, 700
  7
Solbet_1
100
AcDbAttributeDefinition
  3

  2
KLASA_GĘSTOŚCI
 70
     9
1001
AcDbAttr
1070
     0
1070
     1
  0
ATTDEF
  5
21D3
330
21D0
100
AcDbEntity
  8
SOLBET_Wymiary_Opisy
100
AcDbText
 10
-0.0000000878742412
 20
3.269569161109998
 30
0.0
 40
0.9913121336814832
  1
pióra+wpusty
  7
Solbet_1
100
AcDbAttributeDefinition
  3

  2
PROFILOWANIE
 70
    11
1001
AcDbAttr
1070
     0
1070
     1
  0
ATTDEF
  5
21D4
330
21D0
100
AcDbEntity
  8
SOLBET_Wymiary_Opisy
100
AcDbText
 10
-0.0000000878742412
 20
0.2448647517692188
 30
0.0
 40
0.9913121336814832
  1
SOLBET
  7
Solbet_1
100
AcDbAttributeDefinition
  3

  2
FIRMA
 70
     3
1001
AcDbAttr
1070
     0
1070
     1
  0
ATTDEF
  5
21D5
330
21D0
100
AcDbEntity
  8
SOLBET_Wymiary_Opisy
100
AcDbText
 10
-0.0000000878742412
 20
9.333547402386153
 30
0.0
 40
0.9913121336814832
  1
Bloczek
  7
Solbet_1
100
AcDbAttributeDefinition
  3
Nazwa
  2
NAZWA
 70
     3
1001
AcDbAttr
1070
     0
1070
     1
  0
ATTDEF
  5
21D6
330
21D0
100
AcDbEntity
  8
SOLBET_Wymiary_Opisy
100
AcDbText
 10
-0.0000000878742412
 20
7.794499222151949
 30
0.0
 40
0.9913121336814832
  1
SOLBET OPTIMAL
  7
Solbet_1
100
AcDbAttributeDefinition
  3

  2
SYSTEM
 70
     3
1001
AcDbAttr
1070
     0
1070
     1
  0
ATTDEF
  5
21D7
330
21D0
100
AcDbEntity
  8
SOLBET_Wymiary_Opisy
100
AcDbText
 10
-0.0000000878742412
 20
1.744181511296331
 30
0.0
 40
0.9913121336814832
  1
Prawo
  7
Solbet_1
100
AcDbAttributeDefinition
  3

  2
WIDOK
 70
    11
1001
AcDbAttr
1070
     0
1070
     1
  0
LINE
  5
21D8
330
21D0
100
AcDbEntity
  8
SOLBET_Bloczki
100
AcDbLine
 10
12.00000017574848
 20
11.99999995881262
 30
0.0
 11
12.00000017574848
 21
-0.0000000411874908
 31
0.0
  0
LINE
  5
21D9
330
21D0
100
AcDbEntity
  8
SOLBET_Bloczki
100
AcDbLine
 10
12.00000017574848
 20
11.99999995881262
 30
0.0
 11
0.0000001757484824
 21
11.99999995881262
 31
0.0
  0
LINE
  5
21DA
330
21D0
100
AcDbEntity
  8
SOLBET_Bloczki
100
AcDbLine
 10
0.0000001757484824
 20
11.99999995881262
 30
0.0
 11
0.0000001757484824
 21
-0.0000000411873771
 31
0.0
  0
LINE
  5
21DB
330
21D0
100
AcDbEntity
  8
SOLBET_Bloczki
100
AcDbLine
 10
0.0000001757484824
 20
-0.0000000411873771
 30
0.0
 11
12.00000017574848
 21
-0.0000000411874908
 31
0.0
  0
ENDBLK
  5
21DF
330
21D0
100
AcDbEntity
  8
0
100
AcDbBlockEnd
  0
BLOCK
  5
21FA
330
21EE
100
AcDbEntity
  8
0
100
AcDbBlockBegin
  2
SOLBET_Nadproze_160_12_1600x240x120_PRA
 70
     2
 10
0.0
 20
0.0
 30
0.0
  3
SOLBET_Nadproze_160_12_1600x240x120_PRA
  1

  0
ATTDEF
  5
21EF
330
21EE
100
AcDbEntity
  8
SOLBET_Wymiary_Opisy
100
AcDbText
 10
-0.0000002754209163
 20
4.914367003308234
 30
0.0
 40
0.9913121336814832
  1
1600x240x120
  7
Solbet_1
100
AcDbAttributeDefinition
  3

  2
WYMIARY
 70
     3
1001
AcDbAttr
1070
     0
1070
     1
  0
ATTDEF
  5
21F0
330
21EE
100
AcDbEntity
  8
SOLBET_Wymiary_Opisy
100
AcDbText
 10
0.0000001377104581
 20
3.269569171638422
 30
0.0
 40
0.9913121336814832
  1
20
  7
Solbet_1
100
AcDbAttributeDefinition
  3

  2
DŁUGOŚĆ_PODPARCIA_1
 70
    11
1001
AcDbAttr
1070
     0
1070
     1
  0
ATTDEF
  5
21F1
330
21EE
100
AcDbEntity
  8
SOLBET_Wymiary_Opisy
100
AcDbText
 10
0.0000001377104581
 20
0.2448647622976432
 30
0.0
 40
0.9913121336814832
  1
SOLBET
  7
Solbet_1
100
AcDbAttributeDefinition
  3

  2
FIRMA
 70
     3
1001
AcDbAttr
1070
     0
1070
     1
  0
ATTDEF
  5
21F2
330
21EE
100
AcDbEntity
  8
SOLBET_Wymiary_Opisy
100
AcDbText
 10
-0.0000002754209163
 20
6.505718915794942
 30
0.0
 40
0.9913121336814832
  1
Nadproże 160/12
  7
Solbet_1
100
AcDbAttributeDefinition
  3
Nazwa
  2
NAZWA
 70
     3
1001
AcDbAttr
1070
     0
1070
     1
  0
ATTDEF
  5
21F3
330
21EE
100
AcDbEntity
  8
SOLBET_Wymiary_Opisy
100
AcDbText
 10
0.0000001377104581
 20
1.744181521824755
 30
0.0
 40
0.9913121336814832
  1
Prawo
  7
Solbet_1
100
AcDbAttributeDefinition
  3

  2
WIDOK
 70
    11
1001
AcDbAttr
1070
     0
1070
     1
  0
LINE
  5
21F4
330
21EE
100
AcDbEntity
  8
SOLBET_Bloczki
100
AcDbLine
 10
5.999999986295506
 20
11.99999970381714
 30
0.0
 11
5.999999986295506
 21
-0.0000002961835435
 31
0.0
  0
LINE
  5
21F5
330
21EE
100
AcDbEntity
  8
SOLBET_Bloczki
100
AcDbLine
 10
5.999999986295506
 20
-0.0000002961835435
 30
0.0
 11
-0.0000000137044935
 21
-0.0000002961835435
 31
0.0
  0
LINE
  5
21F6
330
21EE
100
AcDbEntity
  8
SOLBET_Bloczki
100
AcDbLine
 10
-0.0000000137044935
 20
-0.0000002961835435
 30
0.0
 11
-0.0000000137044935
 21
11.99999970381714
 31
0.0
  0
LINE
  5
21F7
330
21EE
100
AcDbEntity
  8
SOLBET_Bloczki
100
AcDbLine
 10
-0.0000000137044935
 20
11.99999970381714
 30
0.0
 11
5.999999986295506
 21
11.99999970381714
 31
0.0
  0
ENDBLK
  5
21FB
330
21EE
100
AcDbEntity
  8
0
100
AcDbBlockEnd
  0
BLOCK
  5
244C
330
2439
100
AcDbEntity
  8
0
100
AcDbBlockBegin
  2
SOLBET_Nadproze_120x240x1600_zz_PRA
 70
     2
 10
0.0
 20
0.0
 30
0.0
  3
SOLBET_Nadproze_120x240x1600_zz_PRA
  1

  0
ATTDEF
  5
243A
330
2439
100
AcDbEntity
  8
SOLBET_Wymiary_Opisy
100
AcDbText
 10
-0.0000002754209163
 20
4.914367003308234
 30
0.0
 40
0.9913121336814832
  1
120x240x1600
  7
Solbet_1
100
AcDbAttributeDefinition
  3

  2
WYMIARY
 70
    11
1001
AcDbAttr
1070
     0
1070
     1
  0
ATTDEF
  5
243B
330
2439
100
AcDbEntity
  8
SOLBET_Wymiary_Opisy
100
AcDbText
 10
0.0000001377104581
 20
3.269569171638422
 30
0.0
 40
0.9913121336814832
  1
20
  7
Solbet_1
100
AcDbAttributeDefinition
  3

  2
DŁUGOŚĆ_PODPARCIA_1
 70
    11
1001
AcDbAttr
1070
     0
1070
     1
  0
ATTDEF
  5
243C
330
2439
100
AcDbEntity
  8
SOLBET_Wymiary_Opisy
100
AcDbText
 10
0.0000001377104581
 20
0.2448647622976432
 30
0.0
 40
0.9913121336814832
  1
SOLBET
  7
Solbet_1
100
AcDbAttributeDefinition
  3

  2
FIRMA
 70
    11
1001
AcDbAttr
1070
     0
1070
     1
  0
ATTDEF
  5
243D
330
2439
100
AcDbEntity
  8
SOLBET_Wymiary_Opisy
100
AcDbText
 10
-0.0000002754209163
 20
6.505718915794942
 30
0.0
 40
0.9913121336814832
  1
Nadproże 160/12
  7
Solbet_1
100
AcDbAttributeDefinition
  3
Nazwa
  2
NAZWA
 70
    11
1001
AcDbAttr
1070
     0
1070
     1
  0
ATTDEF
  5
243E
330
2439
100
AcDbEntity
  8
SOLBET_Wymiary_Opisy
100
AcDbText
 10
0.0000001377104581
 20
1.744181521824755
 30
0.0
 40
0.9913121336814832
  1
Prawo
  7
Solbet_1
100
AcDbAttributeDefinition
  3

  2
WIDOK
 70
    11
1001
AcDbAttr
1070
     0
1070
     1
  0
LINE
  5
243F
330
2439
100
AcDbEntity
  8
SOLBET_Bloczki
100
AcDbLine
 10
5.999999986295506
 20
11.99999970381714
 30
0.0
 11
5.999999986295506
 21
-0.0000002961835435
 31
0.0
  0
LINE
  5
2440
330
2439
100
AcDbEntity
  8
SOLBET_Bloczki
100
AcDbLine
 10
5.999999986295506
 20
-0.0000002961835435
 30
0.0
 11
-0.0000000137044935
 21
-0.0000002961835435
 31
0.0
  0
LINE
  5
2441
330
2439
100
AcDbEntity
  8
SOLBET_Bloczki
100
AcDbLine
 10
-0.0000000137044935
 20
-0.0000002961835435
 30
0.0
 11
-0.0000000137044935
 21
11.99999970381714
 31
0.0
  0
LINE
  5
2442
330
2439
100
AcDbEntity
  8
SOLBET_Bloczki
100
AcDbLine
 10
-0.0000000137044935
 20
11.99999970381714
 30
0.0
 11
5.999999986295506
 21
11.99999970381714
 31
0.0
  0
LWPOLYLINE
  5
2443
330
2439
100
AcDbEntity
  8
SOLBET_Zbrojenie_Konstrukcja
  6
Continuous
100
AcDbPolyline
 90
        4
 70
     0
 43
0.0
 10
5.249999310946805
 20
10.74999970381657
 10
5.249999310946805
 20
0.7499997038164566
 10
0.7499993109468051
 20
0.7499997038164566
 10
0.7499993109468051
 20
10.74999970381657
  0
LWPOLYLINE
  5
2444
330
2439
100
AcDbEntity
  8
SOLBET_Zbrojenie_Konstrukcja
  6
Continuous
100
AcDbPolyline
 90
        2
 70
     1
 43
0.3
 10
5.104412842287956
 20
10.42241369625105
 42
-1.0
 10
4.804412842287774
 20
10.42241369625105
 42
-1.0
  0
LWPOLYLINE
  5
2445
330
2439
100
AcDbEntity
  8
SOLBET_Zbrojenie_Konstrukcja
  6
Continuous
100
AcDbPolyline
 90
        2
 70
     1
 43
0.3
 10
0.8955857796058808
 20
10.42241369625105
 42
1.0
 10
1.195585779605835
 20
10.42241369625105
 42
1.0
  0
LWPOLYLINE
  5
2446
330
2439
100
AcDbEntity
  8
SOLBET_Zbrojenie_Konstrukcja
  6
Continuous
100
AcDbPolyline
 90
        2
 70
     1
 43
0.3
 10
5.104412842287956
 20
2.418618906188385
 42
-1.0
 10
4.804412842287774
 20
2.418618906188385
 42
-1.0
  0
LWPOLYLINE
  5
2447
330
2439
100
AcDbEntity
  8
SOLBET_Zbrojenie_Konstrukcja
  6
Continuous
100
AcDbPolyline
 90
        2
 70
     1
 43
0.3
 10
0.8955857796058808
 20
2.418618906188385
 42
1.0
 10
1.195585779605835
 20
2.418618906188385
 42
1.0
  0
LWPOLYLINE
  5
2448
330
2439
100
AcDbEntity
  8
SOLBET_Zbrojenie_Konstrukcja
  6
Continuous
100
AcDbPolyline
 90
        2
 70
     1
 43
0.3
 10
4.185084167223067
 20
1.061574951199872
 42
-1.0
 10
3.885084167223112
 20
1.061574951199872
 42
-1.0
  0
LWPOLYLINE
  5
2449
330
2439
100
AcDbEntity
  8
SOLBET_Zbrojenie_Konstrukcja
  6
Continuous
100
AcDbPolyline
 90
        2
 70
     1
 43
0.3
 10
1.814914454670315
 20
1.061574951199872
 42
1.0
 10
2.114914454670497
 20
1.061574951199872
 42
1.0
  0
ENDBLK
  5
244D
330
2439
100
AcDbEntity
  8
0
100
AcDbBlockEnd
  0
BLOCK
  5
2485
330
2478
100
AcDbEntity
  8
0
100
AcDbBlockBegin
  2
SOLBET_Bloczek_Optimal_240x240x590_G_KG500_PRA
 70
     2
 10
0.0
 20
0.0
 30
0.0
  3
SOLBET_Bloczek_Optimal_240x240x590_G_KG500_PRA
  1

  0
ATTDEF
  5
2479
330
2478
100
AcDbEntity
  8
SOLBET_Wymiary_Opisy
100
AcDbText
 10
0.0000001757484824
 20
4.927022981232882
 30
0.0
 40
0.9913121336814832
  1
240x240x590
  7
Solbet_1
100
AcDbAttributeDefinition
  3

  2
WYMIARY
 70
    11
1001
AcDbAttr
1070
     0
1070
     1
  0
ATTDEF
  5
247A
330
2478
100
AcDbEntity
  8
SOLBET_Wymiary_Opisy
100
AcDbText
 10
0.0000001757484824
 20
3.414503573516785
 30
0.0
 40
0.9913121336814832
  1
500
  7
Solbet_1
100
AcDbAttributeDefinition
  3

  2
KLASA_GĘSTOŚCI
 70
    11
1001
AcDbAttr
1070
     0
1070
     1
  0
ATTDEF
  5
247B
330
2478
100
AcDbEntity
  8
SOLBET_Wymiary_Opisy
100
AcDbText
 10
-0.0000000878742412
 20
0.2448647517692188
 30
0.0
 40
0.9913121336814832
  1
SOLBET
  7
Solbet_1
100
AcDbAttributeDefinition
  3

  2
FIRMA
 70
    11
1001
AcDbAttr
1070
     0
1070
     1
  0
ATTDEF
  5
247C
330
2478
100
AcDbEntity
  8
SOLBET_Wymiary_Opisy
100
AcDbText
 10
0.0000001757484824
 20
7.957332979580714
 30
0.0
 40
0.9913121336814832
  1
Bloczek
  7
Solbet_1
100
AcDbAttributeDefinition
  3
Nazwa
  2
NAZWA
 70
    11
1001
AcDbAttr
1070
     0
1070
     1
  0
ATTDEF
  5
247D
330
2478
100
AcDbEntity
  8
SOLBET_Wymiary_Opisy
100
AcDbText
 10
0.0000001757484824
 20
6.418284799346509
 30
0.0
 40
0.9913121336814832
  1
SOLBET Optimal
  7
Solbet_1
100
AcDbAttributeDefinition
  3

  2
SYSTEM
 70
    11
1001
AcDbAttr
1070
     0
1070
     1
  0
ATTDEF
  5
247E
330
2478
100
AcDbEntity
  8
SOLBET_Wymiary_Opisy
100
AcDbText
 10
-0.0000000878742412
 20
1.744181511296331
 30
0.0
 40
0.9913121336814832
  1
Prawo
  7
Solbet_1
100
AcDbAttributeDefinition
  3

  2
WIDOK
 70
    11
1001
AcDbAttr
1070
     0
1070
     1
  0
LINE
  5
247F
330
2478
100
AcDbEntity
  8
SOLBET_Bloczki
100
AcDbLine
 10
12.00000017574848
 20
11.99999995881262
 30
0.0
 11
12.00000017574848
 21
-0.0000000411874908
 31
0.0
  0
LINE
  5
2480
330
2478
100
AcDbEntity
  8
SOLBET_Bloczki
100
AcDbLine
 10
12.00000017574848
 20
11.99999995881262
 30
0.0
 11
0.0000001757484824
 21
11.99999995881262
 31
0.0
  0
LINE
  5
2481
330
2478
100
AcDbEntity
  8
SOLBET_Bloczki
100
AcDbLine
 10
0.0000001757484824
 20
11.99999995881262
 30
0.0
 11
0.0000001757484824
 21
-0.0000000411873771
 31
0.0
  0
LINE
  5
2482
330
2478
100
AcDbEntity
  8
SOLBET_Bloczki
100
AcDbLine
 10
0.0000001757484824
 20
-0.0000000411873771
 30
0.0
 11
12.00000017574848
 21
-0.0000000411874908
 31
0.0
  0
ENDBLK
  5
2486
330
2478
100
AcDbEntity
  8
0
100
AcDbBlockEnd
  0
ENDSEC
  0
SECTION
  2
ENTITIES
  0
LINE
  5
216A
330
1F
100
AcDbEntity
  8
SOLBET_Wymiary_Opisy
100
AcDbLine
 10
27.41566189628315
 20
119.5541835407657
 30
0.0
 11
160.4135048480955
 21
119.5541835407657
 31
0.0
  0
LINE
  5
216F
330
1F
100
AcDbEntity
  8
SOLBET_Wymiary_Opisy
100
AcDbLine
 10
160.4135048480955
 20
213.6079383204706
 30
0.0
 11
160.4135048480955
 21
119.5541835407657
 31
0.0
  0
LINE
  5
2170
330
1F
100
AcDbEntity
  8
SOLBET_Wymiary_Opisy
100
AcDbLine
 10
27.41566189628315
 20
213.6079383204706
 30
0.0
 11
160.4135048480955
 21
213.6079383204706
 31
0.0
  0
LINE
  5
2173
330
1F
100
AcDbEntity
  8
SOLBET_Tynki_Posadzki
100
AcDbLine
 10
101.2126495633808
 20
189.7655935533421
 30
0.0
 11
101.2126495633808
 21
189.265593553343
 31
0.0
  0
ARC
  5
2174
330
1F
100
AcDbEntity
  8
SOLBET_Tynki_Posadzki
100
AcDbCircle
 10
100.4145833721875
 20
189.7655935533421
 30
0.0
 40
1.5000521396288
100
AcDbArc
 50
0.0
 51
90.0
  0
LINE
  5
2179
330
1F
100
AcDbEntity
  8
SOLBET_Tynki_Posadzki
100
AcDbLine
 10
101.2126495633808
 20
189.7655935533421
 30
0.0
 11
160.4135048480955
 21
189.7655935533421
 31
0.0
  0
LINE
  5
217E
330
1F
100
AcDbEntity
  8
SOLBET_Tynki_Posadzki
100
AcDbLine
 10
100.4145833721875
 20
189.265593553343
 30
0.0
 11
100.4145833721875
 21
213.6079383204706
 31
0.0
  0
LINE
  5
2180
330
1F
100
AcDbEntity
  8
SOLBET_Emulsje_Folie
100
AcDbLine
 10
101.0293994218598
 20
189.5155935533421
 30
0.0
 11
101.0293994218598
 21
186.8381260333599
 31
0.0
  0
LINE
  5
2181
330
1F
100
AcDbEntity
  8
SOLBET_Emulsje_Folie
100
AcDbLine
 10
101.2793994218598
 20
186.5881260333599
 30
0.0
 11
160.4135048480955
 21
186.5881260333599
 31
0.0
  0
ARC
  5
2182
330
1F
100
AcDbEntity
  8
SOLBET_Emulsje_Folie
100
AcDbCircle
 10
101.2793994218598
 20
186.8381260333599
 30
0.0
 40
0.25
100
AcDbArc
 50
180.0
 51
270.0
  0
LWPOLYLINE
  5
2183
102
{ACAD_REACTORS
330
2213
102
}
330
1F
100
AcDbEntity
  8
SOLBET_Tynki_Posadzki
100
AcDbPolyline
 90
        5
 70
     1
 43
0.0
 10
101.0293994218598
 20
186.8381260333599
 42
0.0737237824442244
 10
101.0401526050725
 20
186.7655935533421
 10
160.4135048480955
 20
186.7655935533421
 10
160.4135048480955
 20
189.265593553343
 10
101.0293994218598
 20
189.265593553343
1001
ASO_SCHRAFF
1005
0
1070
     1
1002
{
1070
     1
1005
0
1002
}
1002
{
1070
     2
1005
0
1002
}
1002
{
1070
     4
1000
AR-CONC
1040
0.01
1040
0.0
1070
     0
1000
T__SCHR
1070
   256
1000
_bylayer
1040
50.0
1070
     1
1002
}
  0
LINE
  5
2187
330
1F
100
AcDbEntity
  8
SOLBET_Tynki_Posadzki
100
AcDbLine
 10
100.4145833721875
 20
171.392286719788
 30
0.0
 11
100.4145833721875
 21
119.5541835407657
 31
0.0
  0
LINE
  5
2188
330
1F
100
AcDbEntity
  8
SOLBET_Tynki_Posadzki
100
AcDbLine
 10
100.4145833721875
 20
171.392286719788
 30
0.0
 11
160.4135048480955
 21
171.392286719788
 31
0.0
  0
LINE
  5
2189
330
1F
100
AcDbEntity
  8
SOLBET_Tynki_Posadzki
100
AcDbLine
 10
100.4145833721875
 20
171.392286719788
 30
0.0
 11
99.91657653972175
 21
171.892286719788
 31
0.0
  0
LWPOLYLINE
  5
218A
330
1F
100
AcDbEntity
  8
SOLBET_Zbrojenie_Konstrukcja
100
AcDbPolyline
 90
        3
 70
     0
 43
0.05
 10
100.1361699983852
 20
154.1002098728813
 10
100.1361699983852
 20
152.6002098728813
 10
98.63616999838519
 20
152.6002098728813
  0
LWPOLYLINE
  5
218B
330
1F
100
AcDbEntity
  8
SOLBET_Zbrojenie_Konstrukcja
100
AcDbPolyline
 90
        3
 70
     0
 43
0.05
 10
87.41082783815432
 20
154.1002098728813
 10
87.41082783815432
 20
152.6002098728813
 10
88.91082783815432
 20
152.6002098728813
  0
LINE
  5
21A4
330
1F
100
AcDbEntity
  8
SOLBET_Tynki_Posadzki
100
AcDbLine
 10
86.61651718100324
 20
189.7655935533421
 30
0.0
 11
86.61651718100324
 21
189.265593553343
 31
0.0
  0
LINE
  5
21A9
330
1F
100
AcDbEntity
  8
SOLBET_Tynki_Posadzki
100
AcDbLine
 10
86.61651718100324
 20
189.7655935533421
 30
0.0
 11
27.41566189628315
 21
189.7655935533421
 31
0.0
  0
LINE
  5
21AE
330
1F
100
AcDbEntity
  8
SOLBET_Tynki_Posadzki
100
AcDbLine
 10
87.4145833721875
 20
189.265593553343
 30
0.0
 11
87.4145833721875
 21
213.6079383204706
 31
0.0
  0
LINE
  5
21B0
330
1F
100
AcDbEntity
  8
SOLBET_Emulsje_Folie
100
AcDbLine
 10
86.79976732252612
 20
189.5155935533421
 30
0.0
 11
86.79976732252612
 21
186.8381260333599
 31
0.0
  0
LINE
  5
21B1
330
1F
100
AcDbEntity
  8
SOLBET_Emulsje_Folie
100
AcDbLine
 10
86.54976732252611
 20
186.5881260333599
 30
0.0
 11
27.41566189628315
 21
186.5881260333599
 31
0.0
  0
ARC
  5
21B2
330
1F
100
AcDbEntity
  8
SOLBET_Emulsje_Folie
100
AcDbCircle
 10
86.54976732252611
 20
186.8381260333599
 30
0.0
 40
0.25
100
AcDbArc
 50
270.0
 51
0.0
  0
LWPOLYLINE
  5
21B3
102
{ACAD_REACTORS
330
2213
102
}
330
1F
100
AcDbEntity
  8
SOLBET_Tynki_Posadzki
100
AcDbPolyline
 90
        5
 70
     1
 43
0.0
 10
86.79976732252612
 20
186.8381260333599
 42
-0.0737237824442244
 10
86.78901413930793
 20
186.7655935533421
 10
27.41566189628315
 20
186.7655935533421
 10
27.41566189628315
 20
189.265593553343
 10
86.79976732252612
 20
189.265593553343
1001
ASO_SCHRAFF
1005
0
1070
     1
1002
{
1070
     1
1005
0
1002
}
1002
{
1070
     2
1005
0
1002
}
1002
{
1070
     4
1000
AR-CONC
1040
0.01
1040
0.0
1070
     0
1000
T__SCHR
1070
   256
1000
_bylayer
1040
50.0
1070
     1
1002
}
  0
LINE
  5
21B6
330
1F
100
AcDbEntity
  8
SOLBET_Tynki_Posadzki
100
AcDbLine
 10
87.4145833721875
 20
171.392286719788
 30
0.0
 11
87.4145833721875
 21
119.5541835407657
 31
0.0
  0
LINE
  5
21B7
330
1F
100
AcDbEntity
  8
SOLBET_Tynki_Posadzki
100
AcDbLine
 10
87.4145833721875
 20
171.392286719788
 30
0.0
 11
27.41566189628315
 21
171.392286719788
 31
0.0
  0
LINE
  5
21B8
330
1F
100
AcDbEntity
  8
SOLBET_Tynki_Posadzki
100
AcDbLine
 10
87.4145833721875
 20
171.392286719788
 30
0.0
 11
87.91259020466418
 21
171.892286719788
 31
0.0
  0
LINE
  5
21C0
330
1F
100
AcDbEntity
  8
SOLBET_Wymiary_Opisy
100
AcDbLine
 10
27.41566189628315
 20
213.6079383204706
 30
0.0
 11
27.41566189628315
 21
119.5541835407657
 31
0.0
  0
LWPOLYLINE
  5
21C1
330
1F
100
AcDbEntity
  8
SOLBET_Zbrojenie_Konstrukcja
100
AcDbPolyline
 90
        2
 70
     1
 43
0.3
 10
92.51606530334788
 20
182.8170396702498
 42
1.0
 10
92.81606530334897
 20
182.8170396702498
 42
1.0
  0
LWPOLYLINE
  5
21C2
330
1F
100
AcDbEntity
  8
SOLBET_Zbrojenie_Konstrukcja
100
AcDbPolyline
 90
        2
 70
     1
 43
0.3
 10
95.04046078691748
 20
182.7954199951691
 42
1.0
 10
95.34046078691858
 20
182.7954199951691
 42
1.0
  0
LWPOLYLINE
  5
21C3
330
1F
100
AcDbEntity
  8
SOLBET_Zbrojenie_Konstrukcja
100
AcDbPolyline
 90
        2
 70
     1
 43
0.3
 10
92.51606530334788
 20
172.9585081201076
 42
1.0
 10
92.81606530334897
 20
172.9585081201076
 42
1.0
  0
LINE
  5
21C4
330
1F
100
AcDbEntity
  8
SOLBET_Zbrojenie_Konstrukcja
100
AcDbLine
 10
94.9609853746158
 20
181.7280731574146
 30
0.0
 11
93.54677181224246
 21
183.1422867197879
 31
0.0
  0
LINE
  5
21C5
330
1F
100
AcDbEntity
  8
SOLBET_Zbrojenie_Konstrukcja
100
AcDbLine
 10
93.76098537461507
 20
180.5280731574148
 30
0.0
 11
92.34677181224355
 21
181.9422867197881
 31
0.0
  0
LWPOLYLINE
  5
21C6
330
1F
100
AcDbEntity
  8
SOLBET_Zbrojenie_Konstrukcja
100
AcDbPolyline
 90
        5
 70
     0
 43
0.0
 10
95.48268061441081
 20
172.6422867197871
 10
95.48268061441081
 20
183.1422867197879
 10
92.34677181224355
 20
183.1422867197879
 10
92.34677181224355
 20
172.6422867197871
 10
95.48268061441081
 20
172.6422867197871
  0
LWPOLYLINE
  5
21C7
330
1F
100
AcDbEntity
  8
SOLBET_Zbrojenie_Konstrukcja
100
AcDbPolyline
 90
        2
 70
     1
 43
0.3
 10
95.31338712329921
 20
172.9585081201076
 42
-1.0
 10
95.01338712330539
 20
172.9585081201076
 42
-1.0
  0
LWPOLYLINE
  5
21C8
330
1F
100
AcDbEntity
  8
SOLBET_Ramka_05
100
AcDbPolyline
 90
        4
 70
     1
 43
0.0
 10
-0.0066454253537813
 20
0.0
 10
334.3451286667362
 20
0.0
 10
334.3451286667362
 20
297.0
 10
-0.0066454253537813
 20
297.0
  0
MTEXT
  5
21C9
102
{ACAD_XDICTIONARY
360
21CA
102
}
330
1F
100
AcDbEntity
  8
SOLBET_Wymiary_Opisy @ 1
100
AcDbMText
 10
18.84123562308264
 20
289.8967110907779
 30
0.0
 40
5.0
 41
124.2624847080697
 71
     1
 72
     5
  1
{\LDETAL 25\P}Spos\U+00F3b rozwi\U+0105zania nadpro\U+017Ca \Pw \U+015Bcianie wewn\U+0119trznej no\U+015Bnej
  7
Solbet_5
 73
     1
 44
1.0
1001
AcadAnnotative
1000
AnnotativeData
1002
{
1070
     1
1070
     0
1002
}
1001
ACAD
1000
MTEXTBEGIN
1070
    73
1070
     1
1070
    44
1040
1.0
1070
    74
1070
     0
1000
MTEXTEND
  0
LWPOLYLINE
  5
21E6
330
1F
100
AcDbEntity
  8
SOLBET_Bloczki
100
AcDbPolyline
 90
        5
 70
     0
 43
0.0
 10
87.91458337218751
 20
213.6079383204706
 10
87.91458354793599
 20
207.8922867197881
 10
99.91458337218752
 20
207.8922867197881
 10
99.91458337218752
 20
213.6079383204706
 10
87.91458337218751
 20
213.6079379514869
  0
LWPOLYLINE
  5
21ED
330
1F
100
AcDbEntity
  8
SOLBET_Bloczki
100
AcDbPolyline
 90
        5
 70
     0
 43
0.0
 10
87.91458337219308
 20
171.892286719788
 10
87.91458337219296
 20
164.8922867197881
 10
99.91458337218752
 20
164.8922867197881
 10
99.91458337218752
 20
171.892286719788
 10
87.91259020398241
 20
171.8922867191035
  0
ARC
  5
2211
330
1F
100
AcDbEntity
  8
SOLBET_Tynki_Posadzki
100
AcDbCircle
 10
87.41458319272783
 20
189.7655937437363
 30
0.0
 40
1.5000521396288
100
AcDbArc
 50
89.9999983217256
 51
179.9999983217256
  0
HATCH
  5
2213
330
1F
100
AcDbEntity
  8
SOLBET_Tynki_Posadzki
100
AcDbHatch
 10
0.0
 20
0.0
 30
0.0
210
0.0
220
0.0
230
1.0
  2
AR-CONC
 70
     0
 71
     1
 91
        2
 92
        1
 93
        5
 72
     2
 10
101.2793994218623
 20
186.8381260333577
 40
0.2500000000024727
 50
179.9999999994919
 51
196.8657343056337
 73
     1
 72
     1
 10
101.0401526050725
 20
186.7655935533421
 11
160.4135048480955
 21
186.7655935533421
 72
     1
 10
160.4135048480955
 20
186.7655935533421
 11
160.4135048480955
 21
189.265593553343
 72
     1
 10
160.4135048480955
 20
189.265593553343
 11
101.0293994218598
 21
189.265593553343
 72
     1
 10
101.0293994218598
 20
189.265593553343
 11
101.0293994218598
 21
186.8381260333599
 97
        1
330
2183
 92
        1
 93
        5
 72
     2
 10
86.54976732252093
 20
186.8381260333761
 40
0.2500000000052012
 50
0.0000000037063385
 51
16.86573430984825
 73
     0
 72
     1
 10
86.78901413930793
 20
186.7655935533421
 11
27.41566189628315
 21
186.7655935533421
 72
     1
 10
27.41566189628315
 20
186.7655935533421
 11
27.41566189628315
 21
189.265593553343
 72
     1
 10
27.41566189628315
 20
189.265593553343
 11
86.79976732252612
 21
189.265593553343
 72
     1
 10
86.79976732252612
 20
189.265593553343
 11
86.79976732252612
 21
186.8381260333599
 97
        1
330
21B3
 75
     0
 76
     1
 52
0.0
 41
0.05
 77
     0
 78
    13
 53
50.0
 43
930.1725825018682
 44
15.42286802251874
 45
9.1092334498002
 46
-0.7969542769451543
 79
     2
 49
0.9525000000000002
 49
-10.4775
 53
355.0
 43
930.1725825018682
 44
15.42286802251874
 45
-1.762141298783349
 46
9.552832144108998
 79
     2
 49
0.762
 49
-8.381999999999999
 53
100.451
 43
930.9316825018681
 44
15.35645552251874
 45
7.347125083297962
 46
8.755834391014593
 79
     2
 49
0.8095
 49
-8.9045
 53
46.1842
 43
930.1725825018682
 44
17.96286802251874
 45
13.5539520446065
 46
-2.102116396636357
 79
     2
 49
1.428749999999999
 49
-15.71625
 53
96.63559999999998
 43
931.3020775018681
 44
17.78769302251874
 45
11.87021172331186
 46
12.37127779450246
 79
     2
 49
1.214249999999999
 49
-13.35674999999999
 53
351.184
 43
930.1725825018682
 44
17.96286802251874
 45
11.87023029069669
 46
12.37125589302988
 79
     2
 49
1.143
 49
-12.573
 53
21.0
 43
931.4425825018682
 44
17.32786802251874
 45
7.580743991769164
 46
-5.113275925838125
 79
     2
 49
0.9525000000000002
 49
-10.4775
 53
326.0
 43
931.4425825018682
 44
17.32786802251874
 45
3.090101417382353
 46
9.209398306115962
 79
     2
 49
0.762
 49
-8.381999999999999
 53
71.45140000000001
 43
932.0743075018681
 44
16.90176302251874
 45
10.67082453850622
 46
4.096142885802872
 79
     2
 49
0.8095
 49
-8.9045
 53
37.5
 43
930.1725825018682
 44
15.42286802251874
 45
0.1544301625295909
 46
4.227751943657655
 79
     6
 49
0.0
 49
-8.2804
 49
0.0
 49
-8.509
 49
0.0
 49
-8.41375
 53
7.499999999999999
 43
930.1725825018682
 44
15.42286802251874
 45
3.340983125515287
 46
5.009028740905975
 79
     6
 49
0.0
 49
-4.851399999999999
 49
0.0
 49
-8.0899
 49
0.0
 49
-3.20675
 53
327.5
 43
927.3404825018682
 44
15.42286802251874
 45
6.779529758343568
 46
-0.2864371996336732
 79
     6
 49
0.0
 49
-3.175
 49
0.0
 49
-9.906
 49
0.0
 49
-13.1445
 53
317.5
 43
926.0704825018683
 44
15.42286802251874
 45
7.406459069300902
 46
1.27132455166665
 79
     6
 49
0.0
 49
-4.1275
 49
0.0
 49
-6.5786
 49
0.0
 49
-9.3345
 98
        1
 10
930.1725825018682
 20
15.42286802251874
1001
ACAD
1010
0.0
1020
0.0
1030
0.0
  0
LINE
  5
2214
330
1F
100
AcDbEntity
  8
SOLBET_Izolacja
100
AcDbLine
 10
87.91458337218751
 20
189.265593553343
 30
0.0
 11
86.91458337219296
 21
189.265593553343
 31
0.0
  0
LINE
  5
2215
330
1F
100
AcDbEntity
  8
SOLBET_Izolacja
100
AcDbLine
 10
86.91458337219296
 20
189.265593553343
 30
0.0
 11
86.91458337219296
 21
183.892286719788
 31
0.0
  0
LINE
  5
2216
330
1F
100
AcDbEntity
  8
SOLBET_Izolacja
100
AcDbLine
 10
86.91458337219296
 20
183.892286719788
 30
0.0
 11
87.91458354793599
 21
183.892286719788
 31
0.0
  0
LINE
  5
2217
330
1F
100
AcDbEntity
  8
SOLBET_Izolacja
100
AcDbLine
 10
87.91458354793599
 20
183.892286719788
 30
0.0
 11
87.91458337218751
 21
189.265593553343
 31
0.0
  0
LINE
  5
2218
330
1F
100
AcDbEntity
  8
SOLBET_Izolacja
100
AcDbLine
 10
86.91458337219296
 20
186.392286719788
 30
0.0
 11
27.41566189628315
 21
186.392286719788
 31
0.0
  0
LINE
  5
2219
330
1F
100
AcDbEntity
  8
SOLBET_Izolacja
100
AcDbLine
 10
27.41566189628315
 20
186.392286719788
 30
0.0
 11
27.41566189628304
 21
183.892286719788
 31
0.0
  0
LINE
  5
221A
330
1F
100
AcDbEntity
  8
SOLBET_Izolacja
100
AcDbLine
 10
27.41566189628304
 20
183.892286719788
 30
0.0
 11
86.91458337219296
 21
183.892286719788
 31
0.0
  0
LINE
  5
221B
330
1F
100
AcDbEntity
  8
SOLBET_Izolacja
100
AcDbLine
 10
86.91458337219296
 20
183.892286719788
 30
0.0
 11
86.91458337219296
 21
186.392286719788
 31
0.0
  0
LINE
  5
221C
330
1F
100
AcDbEntity
  8
SOLBET_Izolacja
100
AcDbLine
 10
99.914583547936
 20
189.265593553343
 30
0.0
 11
100.9145833721875
 21
189.265593553343
 31
0.0
  0
LINE
  5
221D
330
1F
100
AcDbEntity
  8
SOLBET_Izolacja
100
AcDbLine
 10
100.9145833721875
 20
189.265593553343
 30
0.0
 11
100.9145833721875
 21
183.892286719788
 31
0.0
  0
LINE
  5
221E
330
1F
100
AcDbEntity
  8
SOLBET_Izolacja
100
AcDbLine
 10
100.9145833721875
 20
183.892286719788
 30
0.0
 11
99.914583547936
 21
183.8922867197879
 31
0.0
  0
LINE
  5
221F
330
1F
100
AcDbEntity
  8
SOLBET_Izolacja
100
AcDbLine
 10
99.914583547936
 20
183.8922867197879
 30
0.0
 11
99.914583547936
 21
189.265593553343
 31
0.0
  0
LINE
  5
2220
330
1F
100
AcDbEntity
  8
SOLBET_Izolacja
100
AcDbLine
 10
100.9145833721875
 20
186.392286719788
 30
0.0
 11
160.4135048480955
 21
186.392286719788
 31
0.0
  0
LINE
  5
2221
330
1F
100
AcDbEntity
  8
SOLBET_Izolacja
100
AcDbLine
 10
160.4135048480955
 20
186.392286719788
 30
0.0
 11
160.4135048480955
 21
183.892286719788
 31
0.0
  0
LINE
  5
2222
330
1F
100
AcDbEntity
  8
SOLBET_Izolacja
100
AcDbLine
 10
160.4135048480955
 20
183.892286719788
 30
0.0
 11
100.9145833721875
 21
183.892286719788
 31
0.0
  0
LINE
  5
2223
330
1F
100
AcDbEntity
  8
SOLBET_Izolacja
100
AcDbLine
 10
100.9145833721875
 20
183.892286719788
 30
0.0
 11
100.9145833721875
 21
186.392286719788
 31
0.0
  0
LINE
  5
2224
330
1F
100
AcDbEntity
  8
SOLBET_Izolacja
  6
BATTING
 48
0.049
100
AcDbLine
 10
100.4137931365427
 20
189.265593553343
 30
0.0
 11
100.4145834600617
 21
183.8922867197879
 31
0.0
  0
LINE
  5
2225
330
1F
100
AcDbEntity
  8
SOLBET_Izolacja
  6
BATTING
 48
0.12
100
AcDbLine
 10
160.4135048480955
 20
185.142286719788
 30
0.0
 11
100.9145833721876
 21
185.142286719788
 31
0.0
  0
LINE
  5
2226
330
1F
100
AcDbEntity
  8
SOLBET_Izolacja
  6
BATTING
 48
0.05
100
AcDbLine
 10
87.4145833721875
 20
189.265593553343
 30
0.0
 11
87.41458346006448
 21
183.892286719788
 31
0.0
  0
LINE
  5
2227
330
1F
100
AcDbEntity
  8
SOLBET_Izolacja
  6
BATTING
 48
0.12
100
AcDbLine
 10
86.91458337219296
 20
185.142286719788
 30
0.0
 11
27.41566189628315
 21
185.142286719788
 31
0.0
  0
LINE
  5
2238
330
1F
100
AcDbEntity
  8
SOLBET_Zbrojenie_Konstrukcja
100
AcDbLine
 10
157.4145833721929
 20
180.3922867197881
 30
0.0
 11
160.4135048480982
 21
174.7693089524657
 31
0.0
  0
LINE
  5
2239
330
1F
100
AcDbEntity
  8
SOLBET_Zbrojenie_Konstrukcja
100
AcDbLine
 10
153.9479167055261
 20
173.8922867197879
 30
0.0
 11
157.4145833721929
 21
180.3922867197881
 31
0.0
  0
LINE
  5
223B
330
1F
100
AcDbEntity
  8
SOLBET_Zbrojenie_Konstrukcja
100
AcDbLine
 10
129.9479167055261
 20
173.8922867197879
 30
0.0
 11
133.4145833721929
 21
180.3922867197881
 31
0.0
  0
LINE
  5
223C
330
1F
100
AcDbEntity
  8
SOLBET_Zbrojenie_Konstrukcja
100
AcDbLine
 10
137.9479167055261
 20
173.8922867197879
 30
0.0
 11
141.4145833721927
 21
180.3922867197881
 31
0.0
  0
LINE
  5
223D
330
1F
100
AcDbEntity
  8
SOLBET_Zbrojenie_Konstrukcja
100
AcDbLine
 10
145.9479167055261
 20
173.8922867197879
 30
0.0
 11
149.4145833721928
 21
180.3922867197881
 31
0.0
  0
LINE
  5
223E
330
1F
100
AcDbEntity
  8
SOLBET_Zbrojenie_Konstrukcja
100
AcDbLine
 10
121.9479167055261
 20
173.8922867197879
 30
0.0
 11
125.414583372193
 21
180.3922867197881
 31
0.0
  0
LINE
  5
223F
330
1F
100
AcDbEntity
  8
SOLBET_Zbrojenie_Konstrukcja
100
AcDbLine
 10
113.9479167055261
 20
173.8922867197879
 30
0.0
 11
117.4145833721929
 21
180.3922867197881
 31
0.0
  0
LINE
  5
2240
330
1F
100
AcDbEntity
  8
SOLBET_Zbrojenie_Konstrukcja
100
AcDbLine
 10
105.9479167055261
 20
173.8922867197879
 30
0.0
 11
109.4145833721929
 21
180.3922867197881
 31
0.0
  0
LINE
  5
2241
330
1F
100
AcDbEntity
  8
SOLBET_Zbrojenie_Konstrukcja
100
AcDbLine
 10
97.94791670552626
 20
173.8922867197879
 30
0.0
 11
101.4145833721929
 21
180.3922867197881
 31
0.0
  0
LINE
  5
2242
330
1F
100
AcDbEntity
  8
SOLBET_Zbrojenie_Konstrukcja
100
AcDbLine
 10
101.4145833721929
 20
180.3922867197881
 30
0.0
 11
104.8812500388595
 21
173.8922867197879
 31
0.0
  0
LINE
  5
2243
330
1F
100
AcDbEntity
  8
SOLBET_Zbrojenie_Konstrukcja
100
AcDbLine
 10
109.4145833721929
 20
180.3922867197881
 30
0.0
 11
112.8812500388595
 21
173.8922867197879
 31
0.0
  0
LINE
  5
2244
330
1F
100
AcDbEntity
  8
SOLBET_Zbrojenie_Konstrukcja
100
AcDbLine
 10
117.4145833721929
 20
180.3922867197881
 30
0.0
 11
120.8812500388598
 21
173.8922867197879
 31
0.0
  0
LINE
  5
2245
330
1F
100
AcDbEntity
  8
SOLBET_Zbrojenie_Konstrukcja
100
AcDbLine
 10
125.414583372193
 20
180.3922867197881
 30
0.0
 11
128.8812500388597
 21
173.8922867197879
 31
0.0
  0
LINE
  5
2246
330
1F
100
AcDbEntity
  8
SOLBET_Zbrojenie_Konstrukcja
100
AcDbLine
 10
160.4135048480982
 20
180.3922867197882
 30
0.0
 11
95.91458337219297
 21
180.3922867197879
 31
0.0
  0
LINE
  5
2247
330
1F
100
AcDbEntity
  8
SOLBET_Zbrojenie_Konstrukcja
100
AcDbLine
 10
149.4145833721928
 20
180.3922867197881
 30
0.0
 11
152.8812500388596
 21
173.8922867197879
 31
0.0
  0
LINE
  5
2248
330
1F
100
AcDbEntity
  8
SOLBET_Zbrojenie_Konstrukcja
100
AcDbLine
 10
141.4145833721927
 20
180.3922867197881
 30
0.0
 11
144.8812500388596
 21
173.8922867197879
 31
0.0
  0
LINE
  5
2249
330
1F
100
AcDbEntity
  8
SOLBET_Zbrojenie_Konstrukcja
100
AcDbLine
 10
133.4145833721929
 20
180.3922867197881
 30
0.0
 11
136.8812500388596
 21
173.8922867197879
 31
0.0
  0
INSERT
  5
224D
330
1F
100
AcDbEntity
  8
SOLBET_Beton
100
AcDbBlockReference
  2
*X3
 10
-473.7863325087634
 20
-284.1290543346391
 30
0.0
 41
50.0
 42
50.0
 43
50.0
1001
ASO_SCHRAFF
1005
0
1070
     0
1005
0
1001
ACAD
1000
HATCH
1002
{
1070
    16
1000
NET
1040
0.25
1040
0.7853981633974483
1002
}
  0
LINE
  5
224E
330
1F
100
AcDbEntity
  8
SOLBET_Zbrojenie_Konstrukcja
100
AcDbLine
 10
30.41458337219296
 20
180.3922867197881
 30
0.0
 11
27.4156618962877
 21
174.7693089524657
 31
0.0
  0
LINE
  5
224F
330
1F
100
AcDbEntity
  8
SOLBET_Zbrojenie_Konstrukcja
100
AcDbLine
 10
33.88125003885978
 20
173.8922867197879
 30
0.0
 11
30.41458337219296
 21
180.3922867197881
 31
0.0
  0
LINE
  5
2251
330
1F
100
AcDbEntity
  8
SOLBET_Zbrojenie_Konstrukcja
100
AcDbLine
 10
57.88125003885977
 20
173.8922867197879
 30
0.0
 11
54.41458337219296
 21
180.3922867197881
 31
0.0
  0
LINE
  5
2252
330
1F
100
AcDbEntity
  8
SOLBET_Zbrojenie_Konstrukcja
100
AcDbLine
 10
49.88125003885977
 20
173.8922867197879
 30
0.0
 11
46.41458337219319
 21
180.3922867197881
 31
0.0
  0
LINE
  5
2253
330
1F
100
AcDbEntity
  8
SOLBET_Zbrojenie_Konstrukcja
100
AcDbLine
 10
41.88125003885978
 20
173.8922867197879
 30
0.0
 11
38.41458337219308
 21
180.3922867197881
 31
0.0
  0
LINE
  5
2254
330
1F
100
AcDbEntity
  8
SOLBET_Zbrojenie_Konstrukcja
100
AcDbLine
 10
65.88125003885977
 20
173.8922867197879
 30
0.0
 11
62.41458337219296
 21
180.3922867197881
 31
0.0
  0
LINE
  5
2255
330
1F
100
AcDbEntity
  8
SOLBET_Zbrojenie_Konstrukcja
100
AcDbLine
 10
73.88125003885978
 20
173.8922867197879
 30
0.0
 11
70.41458337219296
 21
180.3922867197881
 31
0.0
  0
LINE
  5
2256
330
1F
100
AcDbEntity
  8
SOLBET_Zbrojenie_Konstrukcja
100
AcDbLine
 10
81.88125003885977
 20
173.8922867197879
 30
0.0
 11
78.41458337219297
 21
180.3922867197881
 31
0.0
  0
LINE
  5
2257
330
1F
100
AcDbEntity
  8
SOLBET_Zbrojenie_Konstrukcja
100
AcDbLine
 10
89.88125003885967
 20
173.8922867197879
 30
0.0
 11
86.41458337219296
 21
180.3922867197881
 31
0.0
  0
LINE
  5
2258
330
1F
100
AcDbEntity
  8
SOLBET_Zbrojenie_Konstrukcja
100
AcDbLine
 10
86.41458337219296
 20
180.3922867197881
 30
0.0
 11
82.94791670552639
 21
173.8922867197879
 31
0.0
  0
LINE
  5
2259
330
1F
100
AcDbEntity
  8
SOLBET_Zbrojenie_Konstrukcja
100
AcDbLine
 10
78.41458337219297
 20
180.3922867197881
 30
0.0
 11
74.94791670552638
 21
173.8922867197879
 31
0.0
  0
LINE
  5
225A
330
1F
100
AcDbEntity
  8
SOLBET_Zbrojenie_Konstrukcja
100
AcDbLine
 10
70.41458337219296
 20
180.3922867197881
 30
0.0
 11
66.94791670552615
 21
173.8922867197879
 31
0.0
  0
LINE
  5
225B
330
1F
100
AcDbEntity
  8
SOLBET_Zbrojenie_Konstrukcja
100
AcDbLine
 10
62.41458337219296
 20
180.3922867197881
 30
0.0
 11
58.94791670552615
 21
173.8922867197879
 31
0.0
  0
LINE
  5
225C
330
1F
100
AcDbEntity
  8
SOLBET_Zbrojenie_Konstrukcja
100
AcDbLine
 10
27.4156618962877
 20
180.3922867197882
 30
0.0
 11
91.91458337219296
 21
180.3922867197879
 31
0.0
  0
LINE
  5
225D
330
1F
100
AcDbEntity
  8
SOLBET_Zbrojenie_Konstrukcja
100
AcDbLine
 10
38.41458337219308
 20
180.3922867197881
 30
0.0
 11
34.94791670552627
 21
173.8922867197879
 31
0.0
  0
LINE
  5
225E
330
1F
100
AcDbEntity
  8
SOLBET_Zbrojenie_Konstrukcja
100
AcDbLine
 10
46.41458337219319
 20
180.3922867197881
 30
0.0
 11
42.94791670552626
 21
173.8922867197879
 31
0.0
  0
LINE
  5
225F
330
1F
100
AcDbEntity
  8
SOLBET_Zbrojenie_Konstrukcja
100
AcDbLine
 10
54.41458337219296
 20
180.3922867197881
 30
0.0
 11
50.94791670552627
 21
173.8922867197879
 31
0.0
  0
INSERT
  5
2263
330
1F
100
AcDbEntity
  8
SOLBET_Beton
100
AcDbBlockReference
  2
*X3
 10
-661.6154992531495
 20
-284.1290543346391
 30
0.0
 41
50.0
 42
50.0
 43
-50.0
210
0.0
220
0.0
230
-1.0
1001
ASO_SCHRAFF
1005
0
1070
     0
1005
0
1001
ACAD
1000
HATCH
1002
{
1070
    16
1000
NET
1040
0.25
1040
0.7853981633974483
1002
}
  0
LINE
  5
2264
330
1F
100
AcDbEntity
  8
SOLBET_Beton
100
AcDbLine
 10
27.4156618962877
 20
171.892286719788
 30
0.0
 11
91.91458337219296
 21
171.892286719788
 31
0.0
  0
LINE
  5
2265
330
1F
100
AcDbEntity
  8
SOLBET_Beton
100
AcDbLine
 10
91.91458337219296
 20
171.892286719788
 30
0.0
 11
91.91458337219296
 21
173.8922867197879
 31
0.0
  0
LINE
  5
2266
330
1F
100
AcDbEntity
  8
SOLBET_Beton
100
AcDbLine
 10
91.91458337219296
 20
173.8922867197879
 30
0.0
 11
27.41566189628315
 21
173.8922867197879
 31
0.0
  0
LINE
  5
2267
330
1F
100
AcDbEntity
  8
SOLBET_Beton
100
AcDbLine
 10
27.41566189628315
 20
173.8922867197879
 30
0.0
 11
27.4156618962877
 21
171.892286719788
 31
0.0
  0
LINE
  5
2268
330
1F
100
AcDbEntity
  8
SOLBET_Beton
100
AcDbLine
 10
27.41366872879075
 20
182.3922867198153
 30
0.0
 11
89.17891115895031
 21
182.3922867198153
 31
0.0
  0
LINE
  5
2269
330
1F
100
AcDbEntity
  8
SOLBET_Beton
100
AcDbLine
 10
89.17891115895031
 20
182.3922867198153
 30
0.0
 11
89.17891115895031
 21
173.8922867197879
 31
0.0
  0
LINE
  5
226A
330
1F
100
AcDbEntity
  8
SOLBET_Beton
100
AcDbLine
 10
89.17891115895031
 20
173.8922867197879
 30
0.0
 11
27.41566189628315
 21
173.8922867196475
 31
0.0
  0
LINE
  5
226B
330
1F
100
AcDbEntity
  8
SOLBET_Beton
100
AcDbLine
 10
27.41566189628315
 20
173.8922867196475
 30
0.0
 11
27.41566189628315
 21
182.3922867198153
 31
0.0
  0
LINE
  5
226C
330
1F
100
AcDbEntity
  8
SOLBET_Beton
100
AcDbLine
 10
29.17891115895031
 20
182.3922867198153
 30
0.0
 11
29.17891115895043
 21
173.8922867198152
 31
0.0
  0
LINE
  5
226D
330
1F
100
AcDbEntity
  8
SOLBET_Beton
100
AcDbLine
 10
41.17891115895031
 20
182.3922867198153
 30
0.0
 11
41.17891115895031
 21
173.8922867198152
 31
0.0
  0
LINE
  5
226E
330
1F
100
AcDbEntity
  8
SOLBET_Beton
100
AcDbLine
 10
53.17891115895031
 20
182.3922867198152
 30
0.0
 11
53.17891115895031
 21
173.8922867198152
 31
0.0
  0
LINE
  5
226F
330
1F
100
AcDbEntity
  8
SOLBET_Beton
100
AcDbLine
 10
65.17891115895031
 20
182.3922867198153
 30
0.0
 11
65.17891115895031
 21
173.8922867197343
 31
0.0
  0
LINE
  5
2270
330
1F
100
AcDbEntity
  8
SOLBET_Beton
100
AcDbLine
 10
77.17891115895032
 20
182.3922867198152
 30
0.0
 11
77.17891115895032
 21
173.8922867198152
 31
0.0
  0
LINE
  5
2271
330
1F
100
AcDbEntity
  8
SOLBET_Beton
100
AcDbLine
 10
89.17891115895031
 20
177.3922867198153
 30
0.0
 11
27.41366872879075
 21
177.3922867198153
 31
0.0
  0
LINE
  5
2272
330
1F
100
AcDbEntity
  8
SOLBET_Beton
100
AcDbLine
 10
95.91458337219297
 20
171.8922867195598
 30
0.0
 11
95.91458337219297
 21
173.8922867197879
 31
0.0
  0
LINE
  5
2273
330
1F
100
AcDbEntity
  8
SOLBET_Beton
100
AcDbLine
 10
95.91458337219297
 20
173.8922867197879
 30
0.0
 11
160.4135048480982
 21
173.8922867197879
 31
0.0
  0
LINE
  5
2274
330
1F
100
AcDbEntity
  8
SOLBET_Beton
100
AcDbLine
 10
160.4135048480982
 20
173.8922867197879
 30
0.0
 11
160.4135048480955
 21
171.892286719788
 31
0.0
  0
LINE
  5
2275
330
1F
100
AcDbEntity
  8
SOLBET_Beton
100
AcDbLine
 10
160.4135048480955
 20
171.892286719788
 30
0.0
 11
95.91458337219297
 21
171.8922867195598
 31
0.0
  0
LINE
  5
2276
330
1F
100
AcDbEntity
  8
SOLBET_Beton
100
AcDbLine
 10
98.65025558542834
 20
182.3922867198152
 30
0.0
 11
98.65025558542834
 21
173.8922867197879
 31
0.0
  0
LINE
  5
2277
330
1F
100
AcDbEntity
  8
SOLBET_Beton
100
AcDbLine
 10
98.65025558542834
 20
173.8922867197879
 30
0.0
 11
160.4135048480982
 21
173.8922867197879
 31
0.0
  0
LINE
  5
2278
330
1F
100
AcDbEntity
  8
SOLBET_Beton
100
AcDbLine
 10
160.4135048480982
 20
173.8922867197879
 30
0.0
 11
160.4154980155952
 21
182.3922867198153
 31
0.0
  0
LINE
  5
2279
330
1F
100
AcDbEntity
  8
SOLBET_Beton
100
AcDbLine
 10
160.4154980155952
 20
182.3922867198153
 30
0.0
 11
98.65025558542834
 21
182.3922867198152
 31
0.0
  0
LINE
  5
227A
330
1F
100
AcDbEntity
  8
SOLBET_Beton
100
AcDbLine
 10
98.65025558542834
 20
177.3922867198153
 30
0.0
 11
160.4154980155952
 21
177.3922867198153
 31
0.0
  0
LINE
  5
227B
330
1F
100
AcDbEntity
  8
SOLBET_Beton
100
AcDbLine
 10
158.6502555854338
 20
182.3922867198152
 30
0.0
 11
158.6502555854338
 21
173.8922867197879
 31
0.0
  0
LINE
  5
227C
330
1F
100
AcDbEntity
  8
SOLBET_Beton
100
AcDbLine
 10
146.6502555854283
 20
182.3922867198152
 30
0.0
 11
146.6502555854338
 21
173.8922867197879
 31
0.0
  0
LINE
  5
227D
330
1F
100
AcDbEntity
  8
SOLBET_Beton
100
AcDbLine
 10
134.6502555854283
 20
182.3922867198152
 30
0.0
 11
134.6502555854283
 21
173.8922867198152
 31
0.0
  0
LINE
  5
227E
330
1F
100
AcDbEntity
  8
SOLBET_Beton
100
AcDbLine
 10
122.6502555854283
 20
182.3922867198152
 30
0.0
 11
122.6502555854283
 21
173.8922867197879
 31
0.0
  0
LINE
  5
227F
330
1F
100
AcDbEntity
  8
SOLBET_Beton
100
AcDbLine
 10
110.6502555854283
 20
182.3922867198152
 30
0.0
 11
110.6502555854283
 21
173.8922867198152
 31
0.0
  0
LEADER
  5
2280
330
1F
100
AcDbEntity
  8
SOLBET_Wymiary_Opisy
100
AcDbLeader
  3
Solbet$7
 73
     0
 74
     0
 75
     1
 40
3.25
 41
27.75
 76
     3
 10
94.66821977609175
 20
178.0938869634683
 30
0.0
 10
108.7971825950906
 20
201.6734270858706
 30
0.0
 10
111.2971825950906
 20
201.6734270858706
 30
0.0
340
2281
213
1.177601578005123
223
-0.1753245211093599
233
0.0
1001
ACAD
1000
DSTYLE
1002
{
1070
   147
1040
0.625
1070
    77
1070
     1
1002
}
  0
MTEXT
  5
2281
102
{ACAD_XDICTIONARY
360
24FD
102
}
102
{ACAD_REACTORS
330
2280
102
}
330
1F
100
AcDbEntity
  8
SOLBET_Wymiary_Opisy
100
AcDbMText
 10
110.7445810170854
 20
205.7237516069799
 30
0.0
 40
2.5
 41
0.0
 71
     1
 72
     1
  1
Wieniec \U+017Celbetowy
  7
Solbet_2_5
 73
     1
 44
1.0
1001
ACAD
1000
MTEXTBEGIN
1070
    73
1070
     1
1070
    44
1040
1.0
1070
    74
1070
     0
1000
MTEXTEND
  0
LEADER
  5
2282
330
1F
100
AcDbEntity
  8
SOLBET_Wymiary_Opisy
100
AcDbLeader
  3
Solbet$7
 73
     0
 75
     1
 40
3.25
 41
27.0
 76
     3
 10
90.27874398650851
 20
158.1023457880328
 30
0.0
 10
81.75399552831619
 20
143.5023230535389
 30
0.0
 10
79.25399552831618
 20
143.5023230535389
 30
0.0
340
2283
213
1.177601578005123
223
-0.1753245211093599
233
0.0
1001
ACAD
1000
DSTYLE
1002
{
1070
   147
1040
0.625
1070
    77
1070
     1
1002
}
  0
MTEXT
  5
2283
102
{ACAD_XDICTIONARY
360
24FF
102
}
102
{ACAD_REACTORS
330
2282
102
}
330
1F
100
AcDbEntity
  8
SOLBET_Wymiary_Opisy
100
AcDbMText
 10
50.45139395031106
 20
147.5526475746483
 30
0.0
 40
2.5
 41
0.0
 71
     1
 72
     1
  1
Nadpro\U+017Ca SOLBET
  7
Solbet_2_5
 73
     1
 44
1.0
1001
ACAD
1000
MTEXTBEGIN
1070
    73
1070
     1
1070
    44
1040
1.0
1070
    74
1070
     0
1000
MTEXTEND
  0
LEADER
  5
2284
330
1F
100
AcDbEntity
  8
SOLBET_Wymiary_Opisy
100
AcDbLeader
  3
Solbet$7
 73
     0
 75
     1
 40
7.666666666666666
 41
50.75
 76
     3
 10
93.80139876987845
 20
169.0926002604592
 30
0.0
 10
85.04133431720289
 20
156.8010579338582
 30
0.0
 10
82.54133431720289
 20
156.8010579338582
 30
0.0
340
2285
213
1.177601578005123
223
-0.1753245211093599
233
0.0
1001
ACAD
1000
DSTYLE
1002
{
1070
   147
1040
0.625
1070
    77
1070
     1
1002
}
  0
MTEXT
  5
2285
102
{ACAD_XDICTIONARY
360
2501
102
}
102
{ACAD_REACTORS
330
2284
102
}
330
1F
100
AcDbEntity
  8
SOLBET_Wymiary_Opisy
100
AcDbMText
 10
80.73873273919776
 20
165.2680491216342
 30
0.0
 40
2.5
 41
0.0
 71
     3
 72
     1
  1
Bloczek SOLBET ca\U+0142y lub doci\U+0119ty\Pdo wysoko\U+015Bci kondygnacji
  7
Solbet_2_5
 73
     1
 44
1.0
1001
ACAD
1000
MTEXTBEGIN
1070
    73
1070
     1
1070
    44
1040
1.0
1070
    74
1070
     0
1000
MTEXTEND
  0
LEADER
  5
22AA
330
1F
100
AcDbEntity
  8
SOLBET_Wymiary_Opisy
100
AcDbLeader
  3
Solbet$7
 73
     0
 74
     0
 75
     1
 40
3.5
 41
37.25
 76
     3
 10
242.5354529102815
 20
188.5380344695355
 30
0.0
 10
267.2370365304232
 20
197.65763919021
 30
0.0
 10
269.7370365304232
 20
197.65763919021
 30
0.0
213
1.177601578005123
223
-0.1753245211093599
233
0.0
1001
ACAD
1000
DSTYLE
1002
{
1070
   147
1040
0.625
1070
    77
1070
     1
1002
}
  0
MTEXT
  5
22AB
102
{ACAD_XDICTIONARY
360
2503
102
}
102
{ACAD_REACTORS
330
22AA
102
}
330
1F
100
AcDbEntity
  8
SOLBET_Wymiary_Opisy
100
AcDbMText
 10
269.1844349524181
 20
201.9579637113194
 30
0.0
 40
2.5
 41
0.0
 71
     1
 72
     1
  1
Warstwa wyko\U+0144czeniowa
  7
Solbet_2_5
 73
     1
 44
1.0
1001
ACAD
1000
MTEXTBEGIN
1070
    73
1070
     1
1070
    44
1040
1.0
1070
    74
1070
     0
1000
MTEXTEND
  0
LEADER
  5
22AC
330
1F
100
AcDbEntity
  8
SOLBET_Wymiary_Opisy
100
AcDbLeader
  3
Solbet$7
 73
     0
 74
     0
 75
     1
 40
3.25
 41
32.5
 76
     3
 10
243.0937214193886
 20
180.7719156531167
 30
0.0
 10
266.0594349524181
 20
191.4164326596193
 30
0.0
 10
268.5594349524181
 20
191.4164326596193
 30
0.0
213
0.0
223
-0.2322806831707567
233
0.0
1001
ACAD
1000
DSTYLE
1002
{
1070
   147
1040
0.625
1070
    77
1070
     1
1002
}
  0
MTEXT
  5
22AD
102
{ACAD_REACTORS
330
22AC
102
}
330
1F
100
AcDbEntity
  8
SOLBET_Wymiary_Opisy
100
AcDbMText
 10
269.1844349524181
 20
195.5237133427901
 30
0.0
 40
2.5
 41
0.0
 71
     1
 72
     1
  1
Wylewka jastrychowa
  7
Solbet_2_5
 73
     1
 44
1.0
1001
ACAD
1000
MTEXTBEGIN
1070
    73
1070
     1
1070
    44
1040
1.0
1070
    74
1070
     0
1000
MTEXTEND
  0
LEADER
  5
22AE
330
1F
100
AcDbEntity
  8
SOLBET_Wymiary_Opisy
100
AcDbLeader
  3
Solbet$7
 73
     0
 74
     0
 75
     1
 40
3.25
 41
19.75
 76
     3
 10
245.1322702530879
 20
173.8782559534268
 30
0.0
 10
266.0594349524181
 20
185.1812755808415
 30
0.0
 10
268.5594349524181
 20
185.1812755808415
 30
0.0
213
0.0
223
-0.2322806831707567
233
0.0
1001
ACAD
1000
DSTYLE
1002
{
1070
   147
1040
0.625
1070
    77
1070
     1
1002
}
  0
MTEXT
  5
22AF
102
{ACAD_REACTORS
330
22AE
102
}
330
1F
100
AcDbEntity
  8
SOLBET_Wymiary_Opisy
100
AcDbMText
 10
269.1844349524181
 20
189.2885562640123
 30
0.0
 40
2.5
 41
0.0
 71
     1
 72
     1
  1
Hydroizolacja
  7
Solbet_2_5
 73
     1
 44
1.0
1001
ACAD
1000
MTEXTBEGIN
1070
    73
1070
     1
1070
    44
1040
1.0
1070
    74
1070
     0
1000
MTEXTEND
  0
LEADER
  5
22B0
330
1F
100
AcDbEntity
  8
SOLBET_Wymiary_Opisy
100
AcDbLeader
  3
Solbet$7
 73
     0
 74
     0
 75
     1
 40
3.25
 41
36.5
 76
     3
 10
249.6177412179963
 20
163.1015375918658
 30
0.0
 10
266.0594349524181
 20
175.2473535546068
 30
0.0
 10
268.5594349524181
 20
175.2473535546068
 30
0.0
213
0.0
223
-0.2322806831707567
233
0.0
1001
ACAD
1000
DSTYLE
1002
{
1070
   147
1040
0.625
1070
    77
1070
     1
1002
}
  0
MTEXT
  5
22B1
102
{ACAD_XDICTIONARY
360
2505
102
}
102
{ACAD_REACTORS
330
22B0
102
}
330
1F
100
AcDbEntity
  8
SOLBET_Wymiary_Opisy
100
AcDbMText
 10
269.1844349524181
 20
179.5666131450754
 30
0.0
 40
2.5
 41
0.0
 71
     1
 72
     1
  1
P\U+0142yty izolacyjne twarde
  7
Solbet_2_5
 73
     1
 44
1.0
1001
ACAD
1000
MTEXTBEGIN
1070
    73
1070
     1
1070
    44
1040
1.0
1070
    74
1070
     0
1000
MTEXTEND
  0
LINE
  5
22B2
330
1F
100
AcDbEntity
  8
SOLBET_Wymiary_Opisy
100
AcDbLine
 10
255.1540115562966
 20
189.7655935533424
 30
0.0
 11
255.1540115562966
 21
134.8011418465835
 31
0.0
  0
LINE
  5
22B3
330
1F
100
AcDbEntity
  8
SOLBET_Izolacja
100
AcDbLine
 10
211.2676656166904
 20
160.3990593855663
 30
0.0
 11
255.1540115562966
 21
160.3990593855663
 31
0.0
  0
LINE
  5
22B4
330
1F
100
AcDbEntity
  8
SOLBET_Izolacja
100
AcDbLine
 10
211.2676656166904
 20
172.8990593855663
 30
0.0
 11
255.1540115562966
 21
172.8990593855663
 31
0.0
  0
LINE
  5
22B5
330
1F
100
AcDbEntity
  8
SOLBET_Tynki_Posadzki
100
AcDbLine
 10
219.8828584787416
 20
189.7655935533424
 30
0.0
 11
255.1540115562966
 21
189.7655935533424
 31
0.0
  0
LINE
  5
22B6
330
1F
100
AcDbEntity
  8
SOLBET_Emulsje_Folie
100
AcDbLine
 10
211.4679271127315
 20
173.8782559534268
 30
0.0
 11
255.1540115562966
 21
173.8782559534268
 31
0.0
  0
HATCH
  5
22B7
330
1F
100
AcDbEntity
  8
SOLBET_Tynki_Posadzki
100
AcDbHatch
 10
0.0
 20
0.0
 30
0.0
210
0.0
220
0.0
230
1.0
  2
AR-CONC
 70
     0
 71
     0
 91
        1
 92
        5
 93
        4
 72
     2
 10
244.3216673726483
 20
166.6490593855665
 40
33.63970172404727
 50
142.2031821742316
 51
166.0379938227853
 73
     1
 72
     1
 10
211.6758191651629
 20
174.7655935533433
 11
255.1540115562962
 21
174.7655935533433
 72
     1
 10
255.1540115562966
 20
174.7655935533433
 11
255.1540115562971
 21
187.2655935533422
 72
     1
 10
255.154011556297
 20
187.2655935533422
 11
217.7399433692698
 21
187.2655935533422
 97
        0
 75
     0
 76
     1
 52
0.0
 41
0.03
 77
     0
 78
    13
 53
50.0
 43
881.2498624930523
 44
89.51704060682882
 45
5.46554006988012
 46
-0.4781725661670926
 79
     2
 49
0.5715
 49
-6.2865
 53
355.0
 43
881.2498624930523
 44
89.51704060682882
 45
-1.057284779270009
 46
5.731699286465398
 79
     2
 49
0.4572
 49
-5.029199999999999
 53
100.451
 43
881.7053224930521
 44
89.47719310682881
 45
4.408275049978777
 46
5.253500634608755
 79
     2
 49
0.4857000000000001
 49
-5.342699999999999
 53
46.1842
 43
881.2498624930523
 44
91.04104060682882
 45
8.132371226763897
 46
-1.261269837981814
 79
     2
 49
0.8572499999999999
 49
-9.429749999999998
 53
96.63559999999998
 43
881.927559493052
 44
90.93593560682881
 45
7.122127033987114
 46
7.422766676701476
 79
     2
 49
0.7285499999999983
 49
-8.01404999999997
 53
351.184
 43
881.2498624930523
 44
91.04104060682882
 45
7.122138174418017
 46
7.422753535817929
 79
     2
 49
0.6858
 49
-7.5438
 53
21.0
 43
882.0118624930522
 44
90.66004060682882
 45
4.548446395061498
 46
-3.067965555502874
 79
     2
 49
0.5715
 49
-6.2865
 53
326.0
 43
882.0118624930522
 44
90.66004060682882
 45
1.854060850429411
 46
5.525638983669577
 79
     2
 49
0.4572
 49
-5.029199999999999
 53
71.45140000000001
 43
882.3908974930521
 44
90.40437760682882
 45
6.402494723103733
 46
2.457685731481723
 79
     2
 49
0.4857000000000001
 49
-5.342699999999999
 53
37.5
 43
881.2498624930523
 44
89.51704060682882
 45
0.0926580975177545
 46
2.536651166194593
 79
     6
 49
0.0
 49
-4.968239999999999
 49
0.0
 49
-5.1054
 49
0.0
 49
-5.04825
 53
7.499999999999999
 43
881.2498624930523
 44
89.51704060682882
 45
2.004589875309172
 46
3.005417244543585
 79
     6
 49
0.0
 49
-2.910839999999999
 49
0.0
 49
-4.853939999999999
 49
0.0
 49
-1.92405
 53
327.5
 43
879.5506024930521
 44
89.51704060682882
 45
4.067717855006141
 46
-0.1718623197802037
 79
     6
 49
0.0
 49
-1.905
 49
0.0
 49
-5.943599999999999
 49
0.0
 49
-7.886699999999999
 53
317.5
 43
878.7886024930521
 44
89.51704060682882
 45
4.443875441580541
 46
0.7627947309999904
 79
     6
 49
0.0
 49
-2.476499999999999
 49
0.0
 49
-3.947159999999999
 49
0.0
 49
-5.600699999999999
 47
0.0387476598051738
 98
        1
 10
234.6244559168404
 20
180.8631318509572
1001
ACAD
1010
0.0
1020
0.0
1030
0.0
  0
LWPOLYLINE
  5
22B8
330
1F
100
AcDbEntity
  8
SOLBET_Tynki_Posadzki
100
AcDbPolyline
 90
        4
 70
     0
 43
0.0
 10
211.6758191651629
 20
174.7655935533433
 10
255.1540115562966
 20
174.7655935533433
 10
255.154011556297
 20
187.2655935533424
 10
217.7399433692703
 20
187.2655935533424
1001
ASO_SCHRAFF
1005
0
1070
     1
1002
{
1070
     1
1005
0
1002
}
1002
{
1070
     2
1005
0
1002
}
1002
{
1070
     4
1000
AR-CONC
1040
0.01
1040
0.0
1070
     0
1000
T__SCHR
1070
   256
1000
_bylayer
1040
50.0
1070
     1
1002
}
  0
LWPOLYLINE
  5
22B9
330
1F
100
AcDbEntity
  8
SOLBET_Beton
100
AcDbPolyline
 90
        3
 70
     0
 43
0.0
 10
212.0868939751662
 20
157.0288246641143
 10
255.1540115562966
 20
157.0288246641143
 10
255.1540115562966
 20
134.8011418465833
  0
LINE
  5
22BA
330
1F
100
AcDbEntity
  8
SOLBET_Izolacja
  6
BATTING
 48
0.6
100
AcDbLine
 10
210.6819656486013
 20
166.6490593855663
 30
0.0
 11
255.1540115562966
 21
166.6490593855663
 31
0.0
  0
ARC
  5
22BB
330
1F
100
AcDbEntity
  8
SOLBET_Wymiary_Opisy
100
AcDbCircle
 10
244.3216673726483
 20
166.6490593855663
 30
0.0
 40
33.6397017240473
100
AcDbArc
 50
136.5926968744823
 51
288.784567676401
  0
MTEXT
  5
22BC
102
{ACAD_XDICTIONARY
360
2408
102
}
330
1F
100
AcDbEntity
  8
SOLBET_Wymiary_Opisy
100
AcDbMText
 10
220.5506660064288
 20
218.4319078834366
 30
0.0
 40
5.0
 41
30.77919768571883
 71
     1
 72
     5
  1
\pxqc;A\P(5 : 1)
  7
Solbet_5
 73
     1
 44
1.0
1001
ACAD
1000
MTEXTBEGIN
1070
    73
1070
     1
1070
    44
1040
1.0
1070
    74
1070
     0
1000
MTEXTEND
1000
ACAD_MTEXT_DEFINED_HEIGHT_BEGIN
1070
    46
1040
23.42535011036716
1000
ACAD_MTEXT_DEFINED_HEIGHT_END
  0
LINE
  5
22BD
330
1F
100
AcDbEntity
  8
SOLBET_Beton
100
AcDbLine
 10
247.9517831153875
 20
157.0288246641143
 30
0.0
 11
247.9517831153875
 21
133.2057971078341
 31
0.0
  0
LINE
  5
22BE
330
1F
100
AcDbEntity
  8
SOLBET_Zbrojenie_Konstrukcja
100
AcDbLine
 10
255.1540115562966
 20
149.6101541489923
 30
0.0
 11
215.3164050841959
 21
149.6101541489923
 31
0.0
  0
CIRCLE
  5
22BF
330
1F
100
AcDbEntity
  8
SOLBET_Wymiary_Opisy
100
AcDbCircle
 10
156.0180143745372
 20
186.392286719788
 30
0.0
 40
6.72794034480946
  0
LEADER
  5
22C0
330
1F
100
AcDbEntity
  8
SOLBET_Wymiary_Opisy
100
AcDbLeader
  3
Solbet$7
 73
     0
 74
     0
 75
     1
 40
5.0
 41
4.0
 76
     3
 10
159.6395880446541
 20
192.0623295269659
 30
0.0
 10
162.6107382454706
 20
196.0608162660098
 30
0.0
 10
165.1107382454706
 20
196.0608162660098
 30
0.0
213
0.8103787685154202
223
-0.1753245211093599
233
0.0
1001
ACAD
1000
DSTYLE
1002
{
1070
   341
1005
1EF2
1070
   147
1040
0.625
1070
    77
1070
     1
1002
}
  0
MTEXT
  5
22C1
102
{ACAD_REACTORS
330
22C0
102
}
330
1F
100
AcDbEntity
  8
SOLBET_Wymiary_Opisy
100
AcDbMText
 10
168.9253594769552
 20
201.8611407871192
 30
0.0
 40
5.0
 41
0.0
 71
     3
 72
     1
  1
A
  7
Solbet_5
 73
     1
 44
1.0
1001
ACAD
1000
MTEXTBEGIN
1070
    73
1070
     1
1070
    44
1040
1.0
1070
    74
1070
     0
1000
MTEXTEND
  0
LEADER
  5
22C2
330
1F
100
AcDbEntity
  8
SOLBET_Wymiary_Opisy
100
AcDbLeader
  3
Solbet$7
 73
     0
 74
     0
 75
     1
 40
3.25
 41
20.25
 76
     3
 10
114.3175300181414
 20
171.392286719788
 30
0.0
 10
127.7313044887075
 20
143.9396717693053
 30
0.0
 10
130.2313044887075
 20
143.9396717693053
 30
0.0
340
22C3
213
1.177601578005123
223
-0.1753245211093599
233
0.0
1001
ACAD
1000
DSTYLE
1002
{
1070
   147
1040
0.625
1070
    77
1070
     1
1002
}
  0
MTEXT
  5
22C3
102
{ACAD_REACTORS
330
22C2
102
}
330
1F
100
AcDbEntity
  8
SOLBET_Wymiary_Opisy
100
AcDbMText
 10
149.9287029107024
 20
147.9899962904146
 30
0.0
 40
2.5
 41
0.0
 71
     3
 72
     1
  1
Tynk SOLBET
  7
Solbet_2_5
 73
     1
 44
1.0
1001
ACAD
1000
MTEXTBEGIN
1070
    73
1070
     1
1070
    44
1040
1.0
1070
    74
1070
     0
1000
MTEXTEND
  0
LEADER
  5
22C4
330
1F
100
AcDbEntity
  8
SOLBET_Wymiary_Opisy
100
AcDbLeader
  3
Solbet$7
 73
     0
 74
     0
 75
     1
 40
3.25
 41
19.5
 76
     3
 10
127.1479167055263
 20
177.142286719788
 30
0.0
 10
136.6184017677685
 20
156.1859300445867
 30
0.0
 10
139.1184017677685
 20
156.1859300445867
 30
0.0
340
22C5
213
1.177601578005123
223
-0.1753245211093599
233
0.0
1001
ACAD
1000
DSTYLE
1002
{
1070
   147
1040
0.625
1070
    77
1070
     1
1002
}
  0
MTEXT
  5
22C5
102
{ACAD_REACTORS
330
22C4
102
}
330
1F
100
AcDbEntity
  8
SOLBET_Wymiary_Opisy
100
AcDbMText
 10
158.0658001897634
 20
160.236254565696
 30
0.0
 40
2.5
 41
0.0
 71
     3
 72
     1
  1
Strop Teriva
  7
Solbet_2_5
 73
     1
 44
1.0
1001
ACAD
1000
MTEXTBEGIN
1070
    73
1070
     1
1070
    44
1040
1.0
1070
    74
1070
     0
1000
MTEXTEND
  0
LINE
  5
22C6
330
1F
100
AcDbEntity
  8
SOLBET_Zbrojenie_Konstrukcja
100
AcDbLine
 10
228.6279364062757
 20
136.8944573812043
 30
0.0
 11
238.8776831352445
 21
157.0288246641143
 31
0.0
  0
LINE
  5
22C7
330
1F
100
AcDbEntity
  8
SOLBET_Zbrojenie_Konstrukcja
100
AcDbLine
 10
238.8776831352445
 20
157.0288246641143
 30
0.0
 11
250.5240155534341
 21
133.5860829749772
 31
0.0
  0
INSERT
  5
244E
330
1F
100
AcDbEntity
  8
SOLBET_Bloczki
100
AcDbBlockReference
  2
SOLBET_Nadproze_120x240x1600_zz_PRA
 10
87.91458337219296
 20
152.892287015971
 30
0.0
  0
INSERT
  5
244F
330
1F
100
AcDbEntity
  8
SOLBET_Bloczki
100
AcDbBlockReference
  2
SOLBET_Nadproze_120x240x1600_zz_PRA
 10
93.91458335848847
 20
152.892287015971
 30
0.0
  0
INSERT
  5
2487
330
1F
100
AcDbEntity
  8
SOLBET_Bloczki
100
AcDbBlockReference
  2
SOLBET_Bloczek_Optimal_240x240x590_G_KG500_PRA
 10
87.91458354793599
 20
183.892286719788
 30
0.0
  0
INSERT
  5
2488
330
1F
100
AcDbEntity
  8
SOLBET_Bloczki
100
AcDbBlockReference
  2
SOLBET_Bloczek_Optimal_240x240x590_G_KG500_PRA
 10
87.91458354793599
 20
195.8922866786006
 30
0.0
  0
MTEXT
  5
24C1
102
{ACAD_XDICTIONARY
360
24C2
102
}
330
1F
100
AcDbEntity
  8
SOLBET_Wymiary_Opisy
100
AcDbMText
 10
301.2476179002279
 20
7.273150535415538
 30
0.0
 40
5.0
 41
0.0
 71
     1
 72
     5
  1
Skala 1:20
  7
Solbet_5
 73
     1
 44
1.0
1001
ACAD
1000
MTEXTBEGIN
1070
    73
1070
     1
1070
    44
1040
1.0
1070
    74
1070
     0
1000
MTEXTEND
1000
ACAD_MTEXT_DEFINED_HEIGHT_BEGIN
1070
    46
1040
5.395147572682731
1000
ACAD_MTEXT_DEFINED_HEIGHT_END
  0
LWPOLYLINE
  5
24C4
330
1F
100
AcDbEntity
  8
SOLBET_Ramka_05
100
AcDbPolyline
 90
        4
 70
     1
 43
0.0
 10
298.228951779314
 20
9.804221198935465
 10
334.3451286667362
 20
9.804221198935465
 10
334.3451286667362
 20
0.0
 10
298.2289517793141
 20
0.0
  0
ENDSEC
  0
SECTION
  2
OBJECTS
  0
DICTIONARY
  5
C
330
0
100
AcDbDictionary
281
     1
  3
ACAD_COLOR
350
6B
  3
ACAD_GROUP
350
D
  3
ACAD_LAYOUT
350
1A
  3
ACAD_MATERIAL
350
6A
  3
ACAD_MLEADERSTYLE
350
12D
  3
ACAD_MLINESTYLE
350
17
  3
ACAD_PLOTSETTINGS
350
19
  3
ACAD_PLOTSTYLENAME
350
E
  3
ACAD_SCALELIST
350
10C
  3
ACAD_TABLESTYLE
350
7E
  3
ACAD_VISUALSTYLE
350
EF
  3
ACDB_RECOMPOSE_DATA
350
15D
  3
AcDbVariableDictionary
350
5E
  3
DWGPROPS
350
24EF
  0
DICTIONARY
  5
443
330
8
100
AcDbDictionary
280
     1
281
     1
  0
DICTIONARY
  5
3E5
330
2
100
AcDbDictionary
280
     1
281
     1
  3
ACAD_LAYERFILTERS
360
2210
  3
ACLYDICTIONARY
360
220F
  0
DICTIONARY
  5
13C
330
10
100
AcDbDictionary
280
     1
281
     1
  3
ADSK_XREC_LAYER_RECONCILED
360
3F4
  0
DICTIONARY
  5
403
330
3DD
100
AcDbDictionary
280
     1
281
     1
  3
ADSK_XREC_LAYER_RECONCILED
360
404
  0
DICTIONARY
  5
405
330
3DF
100
AcDbDictionary
280
     1
281
     1
  3
ADSK_XREC_LAYER_RECONCILED
360
406
  0
DICTIONARY
  5
407
330
3E0
100
AcDbDictionary
280
     1
281
     1
  3
ADSK_XREC_LAYER_RECONCILED
360
408
  0
DICTIONARY
  5
409
330
3E1
100
AcDbDictionary
280
     1
281
     1
  3
ADSK_XREC_LAYER_RECONCILED
360
40A
  0
DICTIONARY
  5
40B
330
3E2
100
AcDbDictionary
280
     1
281
     1
  3
ADSK_XREC_LAYER_RECONCILED
360
40C
  0
DICTIONARY
  5
40F
330
3E4
100
AcDbDictionary
280
     1
281
     1
  3
ADSK_XREC_LAYER_RECONCILED
360
410
  0
DICTIONARY
  5
411
330
3E8
100
AcDbDictionary
280
     1
281
     1
  3
ADSK_XREC_LAYER_RECONCILED
360
412
  0
DICTIONARY
  5
2406
330
2405
100
AcDbDictionary
280
     1
281
     1
  3
ASDK_XREC_ANNO_SCALE_INFO
360
2407
  0
DICTIONARY
  5
4A3
330
1F
100
AcDbDictionary
280
     1
281
     1
  3
ACAD_SORTENTS
360
4A4
  0
DICTIONARY
  5
21DC
330
21D0
100
AcDbDictionary
280
     1
281
     1
  3
ACAD_SORTENTS
360
21DD
  0
DICTIONARY
  5
21F8
330
21EE
100
AcDbDictionary
280
     1
281
     1
  3
ACAD_SORTENTS
360
21F9
  0
DICTIONARY
  5
244A
330
2439
100
AcDbDictionary
280
     1
281
     1
  3
ACAD_SORTENTS
360
244B
  0
DICTIONARY
  5
2483
330
2478
100
AcDbDictionary
280
     1
281
     1
  3
ACAD_SORTENTS
360
2484
  0
DICTIONARY
  5
21CA
330
21C9
100
AcDbDictionary
280
     1
281
     1
  3
ACAD_MTEXT_RT
360
24FC
  3
AcDbContextDataManager
360
21CB
  0
DICTIONARY
  5
24FD
330
2281
100
AcDbDictionary
280
     1
281
     1
  3
ACAD_MTEXT_RT
360
24FE
  0
DICTIONARY
  5
24FF
330
2283
100
AcDbDictionary
280
     1
281
     1
  3
ACAD_MTEXT_RT
360
2500
  0
DICTIONARY
  5
2501
330
2285
100
AcDbDictionary
280
     1
281
     1
  3
ACAD_MTEXT_RT
360
2502
  0
DICTIONARY
  5
2503
330
22AB
100
AcDbDictionary
280
     1
281
     1
  3
ACAD_MTEXT_RT
360
2504
  0
DICTIONARY
  5
2505
330
22B1
100
AcDbDictionary
280
     1
281
     1
  3
ACAD_MTEXT_RT
360
2506
  0
DICTIONARY
  5
2408
330
22BC
100
AcDbDictionary
280
     1
281
     1
  3
ACAD_MTEXT_2008_RT
360
2409
  0
DICTIONARY
  5
24C2
330
24C1
100
AcDbDictionary
280
     1
281
     1
  3
ACAD_MTEXT_2008_RT
360
24C3
  0
DICTIONARY
  5
6B
102
{ACAD_REACTORS
330
C
102
}
330
C
100
AcDbDictionary
281
     1
  0
DICTIONARY
  5
D
102
{ACAD_REACTORS
330
C
102
}
330
C
100
AcDbDictionary
281
     1
  0
DICTIONARY
  5
1A
102
{ACAD_REACTORS
330
C
102
}
330
C
100
AcDbDictionary
281
     1
  3
Arkusz1
350
D3
  3
Arkusz2
350
D7
  3
Model
350
22
  0
DICTIONARY
  5
6A
102
{ACAD_REACTORS
330
C
102
}
330
C
100
AcDbDictionary
281
     1
  3
ByBlock
350
ED
  3
ByLayer
350
EC
  3
Global
350
EE
  0
DICTIONARY
  5
12D
102
{ACAD_REACTORS
330
C
102
}
330
C
100
AcDbDictionary
281
     1
  3
Standard
350
12E
  0
DICTIONARY
  5
17
102
{ACAD_REACTORS
330
C
102
}
330
C
100
AcDbDictionary
281
     1
  3
SOLBET_IZOLACJA
350
7E9
  3
Standard
350
18
  0
DICTIONARY
  5
19
102
{ACAD_REACTORS
330
C
102
}
330
C
100
AcDbDictionary
281
     1
  0
ACDBDICTIONARYWDFLT
  5
E
102
{ACAD_REACTORS
330
C
102
}
330
C
100
AcDbDictionary
281
     1
  3
Normal
350
F
100
AcDbDictionaryWithDefault
340
F
  0
DICTIONARY
  5
10C
102
{ACAD_REACTORS
330
C
102
}
330
C
100
AcDbDictionary
281
     1
  3
A0
350
10D
  3
A1
350
188
  3
A2
350
189
  3
A3
350
18A
  3
A4
350
18B
  3
A5
350
18C
  3
A6
350
18D
  3
A7
350
18E
  3
A8
350
18F
  3
A9
350
190
  3
B0
350
191
  3
B1
350
192
  3
B2
350
193
  3
B3
350
194
  3
B4
350
195
  3
B5
350
196
  3
B6
350
197
  3
B7
350
198
  3
B8
350
199
  3
B9
350
19A
  3
C0
350
19B
  3
C1
350
19C
  3
C2
350
19D
  3
C3
350
19E
  3
C4
350
19F
  3
C5
350
1A0
  3
C6
350
1A1
  3
C7
350
1A2
  3
C8
350
1A3
  3
C9
350
1A4
  3
D0
350
1A5
  3
D1
350
1A6
  3
D2
350
1A7
  0
DICTIONARY
  5
7E
102
{ACAD_REACTORS
330
C
102
}
330
C
100
AcDbDictionary
281
     1
  3
Standard
350
7F
  0
DICTIONARY
  5
EF
102
{ACAD_REACTORS
330
C
102
}
330
C
100
AcDbDictionary
281
     1
  3
2dWireframe
350
F5
  3
3D Hidden
350
F7
  3
3dWireframe
350
F6
  3
Basic
350
F4
  3
Brighten
350
FB
  3
ColorChange
350
FF
  3
Conceptual
350
F8
  3
Dim
350
FA
  3
Facepattern
350
FE
  3
Flat
350
F0
  3
FlatWithEdges
350
F1
  3
Gouraud
350
F2
  3
GouraudWithEdges
350
F3
  3
Linepattern
350
FD
  3
Realistic
350
F9
  3
Thicken
350
FC
  0
XRECORD
  5
15D
102
{ACAD_REACTORS
330
C
102
}
330
C
100
AcDbXrecord
280
     1
 90
        1
330
7F
330
21C9
330
22BC
  0
DICTIONARY
  5
5E
102
{ACAD_REACTORS
330
C
102
}
330
C
100
AcDbDictionary
281
     1
  3
CANNOSCALE
350
146
  3
CMLEADERSTYLE
350
145
  3
CTABLESTYLE
350
84
  3
DIMASSOC
350
5F
  3
HIDETEXT
350
63
  3
INDEXCTL
350
466
  3
LIGHTINGUNITS
350
464
  3
MSLTSCALE
350
463
  3
PSOLHEIGHT
350
24EE
  3
PSOLWIDTH
350
24ED
  3
SORTENTS
350
465
  0
XRECORD
  5
24EF
102
{ACAD_REACTORS
330
C
102
}
330
C
100
AcDbXrecord
280
     1
  1
DWGPROPS COOKIE
  2

  3

  4

  6

  7

  8
Olus
  9

300
=
301
=
302
=
303
=
304
=
305
=
306
=
307
=
308
=
309
=
 40
0.4200361342592593
 41
2454690.075573148
 42
2454848.865825104
  1

 90
        0
  0
DICTIONARY
  5
2210
102
{ACAD_REACTORS
330
3E5
102
}
330
3E5
100
AcDbDictionary
281
     1
  0
DICTIONARY
  5
220F
102
{ACAD_REACTORS
330
3E5
102
}
330
3E5
100
AcDbDictionary
281
     1
1001
ACAD
1000
<All
  0
XRECORD
  5
3F4
102
{ACAD_REACTORS
330
13C
102
}
330
13C
100
AcDbXrecord
280
     1
290
     1
  0
XRECORD
  5
404
102
{ACAD_REACTORS
330
403
102
}
330
403
100
AcDbXrecord
280
     1
290
     1
  0
XRECORD
  5
406
102
{ACAD_REACTORS
330
405
102
}
330
405
100
AcDbXrecord
280
     1
290
     1
  0
XRECORD
  5
408
102
{ACAD_REACTORS
330
407
102
}
330
407
100
AcDbXrecord
280
     1
290
     1
  0
XRECORD
  5
40A
102
{ACAD_REACTORS
330
409
102
}
330
409
100
AcDbXrecord
280
     1
290
     1
  0
XRECORD
  5
40C
102
{ACAD_REACTORS
330
40B
102
}
330
40B
100
AcDbXrecord
280
     1
290
     1
  0
XRECORD
  5
410
102
{ACAD_REACTORS
330
40F
102
}
330
40F
100
AcDbXrecord
280
     1
290
     1
  0
XRECORD
  5
412
102
{ACAD_REACTORS
330
411
102
}
330
411
100
AcDbXrecord
280
     1
290
     1
  0
XRECORD
  5
2407
102
{ACAD_REACTORS
330
2406
102
}
330
2406
100
AcDbXrecord
280
     1
 70
     1
340
10D
340
3DF
 70
    -1
  0
SORTENTSTABLE
  5
4A4
102
{ACAD_REACTORS
330
4A3
102
}
330
4A3
100
AcDbSortentsTable
330
1F
331
221E
  5
2256
331
226D
  5
226A
331
2226
  5
225E
331
2275
  5
2273
331
223E
  5
2184
331
227D
  5
227C
331
2246
  5
218F
331
21C4
  5
223F
331
224E
  5
21E6
331
2256
  5
2202
331
225E
  5
220A
331
2217
  5
224F
331
2266
  5
2263
331
221F
  5
2257
331
226E
  5
226B
331
2227
  5
225F
331
2276
  5
2275
331
227E
  5
227D
331
223F
  5
2185
331
2247
  5
2190
331
21C5
  5
2240
331
217E
  5
21A7
331
224F
  5
21ED
331
2257
  5
2203
331
225F
  5
220B
331
2267
  5
2264
331
21ED
  5
2274
331
21AE
  5
221C
331
21B6
  5
2222
331
2218
  5
2250
331
2220
  5
2258
331
226F
  5
226C
331
2277
  5
2276
331
2238
  5
217D
331
227F
  5
227E
331
2240
  5
2186
331
216F
  5
227F
331
21C6
  5
2241
331
2187
  5
21AF
331
2248
  5
2191
331
2258
  5
2204
331
2211
  5
2248
331
21E6
  5
2245
331
21B7
  5
2223
331
2219
  5
2251
331
2268
  5
2265
331
2221
  5
2259
331
2270
  5
226D
331
2278
  5
2277
331
2239
  5
217E
331
2241
  5
2187
331
2170
  5
224B
331
21C7
  5
2242
331
2180
  5
21A9
331
2249
  5
2192
331
2251
  5
21FD
331
2259
  5
2205
331
2188
  5
21B0
331
21B0
  5
221E
331
221A
  5
2252
331
2269
  5
2266
331
2222
  5
225A
331
2271
  5
226E
331
2279
  5
2278
331
2242
  5
2188
331
21B8
  5
2224
331
21C0
  5
226F
331
2179
  5
21A2
331
21C8
  5
2243
331
2181
  5
21AA
331
2252
  5
21FE
331
225A
  5
2206
331
2213
  5
21AC
331
2189
  5
21B1
331
21A9
  5
2217
331
21B1
  5
221F
331
221B
  5
2253
331
226A
  5
2267
331
2223
  5
225B
331
2272
  5
2270
331
227A
  5
2279
331
223B
  5
2180
331
2243
  5
2189
331
216A
  5
224A
331
21C1
  5
223C
331
21C9
  5
2244
331
2182
  5
21AB
331
2253
  5
21FF
331
225B
  5
2207
331
2214
  5
224C
331
2263
  5
2212
331
218A
  5
21B2
331
21B2
  5
2220
331
221C
  5
2254
331
226B
  5
2268
331
2224
  5
225C
331
2273
  5
2271
331
227B
  5
227A
331
223C
  5
2181
331
2244
  5
218A
331
2173
  5
219D
331
21C2
  5
223D
331
2183
  5
21AD
331
2254
  5
2200
331
225C
  5
2208
331
2215
  5
224D
331
2264
  5
2261
331
218B
  5
21B3
331
21B3
  5
2221
331
221D
  5
2255
331
226C
  5
2269
331
2225
  5
225D
331
2274
  5
2272
331
227C
  5
227B
331
223D
  5
2183
331
2245
  5
218B
331
2174
  5
219E
331
21C3
  5
223E
331
224D
  5
2199
331
2255
  5
2201
331
225D
  5
2209
331
2216
  5
224E
331
2265
  5
2262
331
21A4
  5
2213
  0
SORTENTSTABLE
  5
21DD
102
{ACAD_REACTORS
330
21DC
102
}
330
21DC
100
AcDbSortentsTable
330
21D0
  0
SORTENTSTABLE
  5
21F9
102
{ACAD_REACTORS
330
21F8
102
}
330
21F8
100
AcDbSortentsTable
330
21EE
  0
SORTENTSTABLE
  5
244B
102
{ACAD_REACTORS
330
244A
102
}
330
244A
100
AcDbSortentsTable
330
2439
  0
SORTENTSTABLE
  5
2484
102
{ACAD_REACTORS
330
2483
102
}
330
2483
100
AcDbSortentsTable
330
2478
  0
XRECORD
  5
24FC
102
{ACAD_REACTORS
330
21CA
102
}
330
21CA
100
AcDbXrecord
280
     1
 40
481619.0
  1
{\LDETAL 25\P}Sposób rozwiązania nadproża \Pw ścianie wewnętrznej nośnej
  0
DICTIONARY
  5
21CB
102
{ACAD_REACTORS
330
21CA
102
}
330
21CA
100
AcDbDictionary
281
     1
  3
ACDB_ANNOTATIONSCALES
350
21CC
  0
XRECORD
  5
24FE
102
{ACAD_REACTORS
330
24FD
102
}
330
24FD
100
AcDbXrecord
280
     1
 40
25446.0
  1
Wieniec żelbetowy
  0
XRECORD
  5
2500
102
{ACAD_REACTORS
330
24FF
102
}
330
24FF
100
AcDbXrecord
280
     1
 40
16792.0
  1
Nadproża SOLBET
  0
XRECORD
  5
2502
102
{ACAD_REACTORS
330
2501
102
}
330
2501
100
AcDbXrecord
280
     1
 40
250001.0
  1
Bloczek SOLBET cały lub docięty\Pdo wysokości kondygnacji
  0
XRECORD
  5
2504
102
{ACAD_REACTORS
330
2503
102
}
330
2503
100
AcDbXrecord
280
     1
 40
34960.0
  1
Warstwa wykończeniowa
  0
XRECORD
  5
2506
102
{ACAD_REACTORS
330
2505
102
}
330
2505
100
AcDbXrecord
280
     1
 40
42625.0
  1
Płyty izolacyjne twarde
  0
XRECORD
  5
2409
102
{ACAD_REACTORS
330
2408
102
}
330
2408
100
AcDbXrecord
280
     1
 40
24693.0
  1
\pxqc;A\P(5 : 1)
  0
XRECORD
  5
24C3
102
{ACAD_REACTORS
330
24C2
102
}
330
24C2
100
AcDbXrecord
280
     1
 40
24748.0
  1
\pxqc;C\P(5 : 1)
  0
LAYOUT
  5
D3
102
{ACAD_XDICTIONARY
360
24F3
102
}
102
{ACAD_REACTORS
330
1A
102
}
330
1A
100
AcDbPlotSettings
  1

  2
C:\Documents and Settings\basas\Application Data\Autodesk\AutoCAD 2005\R16.1\enu\plotters\Default Windows System Printer.pc3
  4

  6

 40
0.0
 41
0.0
 42
0.0
 43
0.0
 44
0.0
 45
0.0
 46
0.0
 47
0.0
 48
0.0
 49
0.0
140
0.0
141
0.0
142
1.0
143
1.0
 70
   688
 72
     0
 73
     0
 74
     5
  7

 75
    16
147
1.0
148
0.0
149
0.0
100
AcDbLayout
  1
Arkusz1
 70
     1
 71
     1
 10
0.0
 20
0.0
 11
12.0
 21
9.0
 12
0.0
 22
0.0
 32
0.0
 14
0.0
 24
0.0
 34
0.0
 15
0.0
 25
0.0
 35
0.0
146
0.0
 13
0.0
 23
0.0
 33
0.0
 16
1.0
 26
0.0
 36
0.0
 17
0.0
 27
1.0
 37
0.0
 76
     0
330
D2
  0
LAYOUT
  5
D7
102
{ACAD_XDICTIONARY
360
24F5
102
}
102
{ACAD_REACTORS
330
1A
102
}
330
1A
100
AcDbPlotSettings
  1

  2
C:\Documents and Settings\basas\Application Data\Autodesk\AutoCAD 2005\R16.1\enu\plotters\Default Windows System Printer.pc3
  4

  6

 40
0.0
 41
0.0
 42
0.0
 43
0.0
 44
0.0
 45
0.0
 46
0.0
 47
0.0
 48
0.0
 49
0.0
140
0.0
141
0.0
142
1.0
143
1.0
 70
   688
 72
     0
 73
     0
 74
     5
  7

 75
    16
147
1.0
148
0.0
149
0.0
100
AcDbLayout
  1
Arkusz2
 70
     1
 71
     2
 10
0.0
 20
0.0
 11
12.0
 21
9.0
 12
0.0
 22
0.0
 32
0.0
 14
0.0
 24
0.0
 34
0.0
 15
0.0
 25
0.0
 35
0.0
146
0.0
 13
0.0
 23
0.0
 33
0.0
 16
1.0
 26
0.0
 36
0.0
 17
0.0
 27
1.0
 37
0.0
 76
     0
330
D6
  0
LAYOUT
  5
22
102
{ACAD_XDICTIONARY
360
24F0
102
}
102
{ACAD_REACTORS
330
1A
102
}
330
1A
100
AcDbPlotSettings
  1

  2
none_device
  4
Letter_(8.50_x_11.00_Inches)
  6

 40
6.349999904632568
 41
6.349999904632568
 42
6.350006103515625
 43
6.350006103515625
 44
215.8999938964844
 45
279.3999938964844
 46
11.54999923706054
 47
-13.65000009536743
 48
0.0
 49
0.0
140
210.0
141
297.0
142
1.0
143
1.0
 70
 11936
 72
     1
 73
     0
 74
     4
  7

 75
     0
147
0.9999999999999998
148
0.0
149
0.0
100
AcDbLayout
  1
Model
 70
     1
 71
     0
 10
0.0
 20
0.0
 11
12.0
 21
9.0
 12
0.0
 22
0.0
 32
0.0
 14
0.0
 24
0.0
 34
0.0
 15
0.0
 25
0.0
 35
0.0
146
0.0
 13
0.0
 23
0.0
 33
0.0
 16
1.0
 26
0.0
 36
0.0
 17
0.0
 27
1.0
 37
0.0
 76
     0
330
1F
331
EA
1001
ACAD_PSEXT
1000
Brak
1000
Brak
1000
Nie można zastosować.
1000
Arkusz nie zostanie wydrukowany dopóki nie wybrano konfiguracji plotera.
1070
     0
  0
MATERIAL
  5
ED
102
{ACAD_XDICTIONARY
360
24F9
102
}
102
{ACAD_REACTORS
330
6A
102
}
330
6A
100
AcDbMaterial
  1
ByBlock
 73
     2
 78
     2
172
     2
176
     2
270
     2
274
     2
  0
MATERIAL
  5
EC
102
{ACAD_XDICTIONARY
360
24F7
102
}
102
{ACAD_REACTORS
330
6A
102
}
330
6A
100
AcDbMaterial
  1
ByLayer
 73
     2
 78
     2
172
     2
176
     2
270
     2
274
     2
  0
MATERIAL
  5
EE
102
{ACAD_XDICTIONARY
360
173
102
}
102
{ACAD_REACTORS
330
6A
102
}
330
6A
100
AcDbMaterial
  1
Global
 73
     2
 43
0.0007999999797903
 43
0.0
 43
0.0
 43
0.0
 43
0.0
 43
0.0007999999797903
 43
0.0
 43
0.0
 43
0.0
 43
0.0
 43
1.0
 43
0.0
 43
0.0
 43
0.0
 43
0.0
 43
1.0
 78
     2
172
     2
 49
0.0007999999797903
 49
0.0
 49
0.0
 49
0.0
 49
0.0
 49
0.0007999999797903
 49
0.0
 49
0.0
 49
0.0
 49
0.0
 49
1.0
 49
0.0
 49
0.0
 49
0.0
 49
0.0
 49
1.0
176
     2
142
0.0007999999797903
142
0.0
142
0.0
142
0.0
142
0.0
142
0.0007999999797903
142
0.0
142
0.0
142
0.0
142
0.0
142
1.0
142
0.0
142
0.0
142
0.0
142
0.0
142
1.0
270
     2
144
0.0007999999797903
144
0.0
144
0.0
144
0.0
144
0.0
144
0.0007999999797903
144
0.0
144
0.0
144
0.0
144
0.0
144
1.0
144
0.0
144
0.0
144
0.0
144
0.0
144
1.0
274
     2
1001
ACAD
1070
    -1
1070
     3
1070
     0
1000

1071
        0
1070
     0
  0
ACAD_PROXY_OBJECT
  5
12E
102
{ACAD_REACTORS
330
12D
102
}
330
12D
100
AcDbProxyObject
 90
      499
 91
      508
 95
       23
 70
     0
 93
      618
310
40901902A4063FBFFFFFE0000000000000020400000000000020404254DD185B99185C99000000000000000104090140501A0000000000000410000000000000004102576400000000000003903F
340
14
340
0
340
11
340
0
 94
        0
1001
ACAD_MLEADERVER
1070
     2
1001
ACAD
1000
AcRTDxfName
1000
MLEADERSTYLE
1000
AcRTDxfName
1000
MLEADERSTYLE
  0
MLINESTYLE
  5
7E9
102
{ACAD_REACTORS
330
17
102
}
330
17
100
AcDbMlineStyle
  2
SOLBET_IZOLACJA
 70
   272
  3

 62
   256
 51
90.0
 52
90.0
 71
     2
 49
0.008
 62
   256
  6
BYLAYER
 49
-0.008
 62
   256
  6
BYLAYER
  0
MLINESTYLE
  5
18
102
{ACAD_REACTORS
330
17
102
}
330
17
100
AcDbMlineStyle
  2
STANDARD
 70
     0
  3

 62
   256
 51
90.0
 52
90.0
 71
     2
 49
0.5
 62
   256
  6
BYLAYER
 49
-0.5
 62
   256
  6
BYLAYER
  0
ACDBPLACEHOLDER
  5
F
102
{ACAD_REACTORS
330
E
102
}
330
E
  0
ACAD_PROXY_OBJECT
  5
10D
102
{ACAD_REACTORS
330
10C
102
}
330
10C
100
AcDbProxyObject
 90
      499
 91
      507
 95
       23
 70
     0
 93
       49
310
904313A31005FF
 94
        0
1001
ACAD
1000
AcRTDxfName
1000
SCALE
1000
AcRTDxfName
1000
SCALE
  0
ACAD_PROXY_OBJECT
  5
188
102
{ACAD_REACTORS
330
10C
102
}
330
10C
100
AcDbProxyObject
 90
      499
 91
      507
 95
       23
 70
     0
 93
      113
310
904313A3200400000000000000407F
 94
        0
1001
ACAD
1000
AcRTDxfName
1000
SCALE
1000
AcRTDxfName
1000
SCALE
  0
ACAD_PROXY_OBJECT
  5
189
102
{ACAD_REACTORS
330
10C
102
}
330
10C
100
AcDbProxyObject
 90
      499
 91
      507
 95
       23
 70
     0
 93
      113
310
904313A3400400000000000010407F
 94
        0
1001
ACAD
1000
AcRTDxfName
1000
SCALE
1000
AcRTDxfName
1000
SCALE
  0
ACAD_PROXY_OBJECT
  5
18A
102
{ACAD_REACTORS
330
10C
102
}
330
10C
100
AcDbProxyObject
 90
      499
 91
      507
 95
       23
 70
     0
 93
      113
310
904313A3500400000000000014407F
 94
        0
1001
ACAD
1000
AcRTDxfName
1000
SCALE
1000
AcRTDxfName
1000
SCALE
  0
ACAD_PROXY_OBJECT
  5
18B
102
{ACAD_REACTORS
330
10C
102
}
330
10C
100
AcDbProxyObject
 90
      499
 91
      507
 95
       23
 70
     0
 93
      113
310
904313A3800400000000000020407F
 94
        0
1001
ACAD
1000
AcRTDxfName
1000
SCALE
1000
AcRTDxfName
1000
SCALE
  0
ACAD_PROXY_OBJECT
  5
18C
102
{ACAD_REACTORS
330
10C
102
}
330
10C
100
AcDbProxyObject
 90
      499
 91
      507
 95
       23
 70
     0
 93
      121
310
905313A313000400000000000024407F
 94
        0
1001
ACAD
1000
AcRTDxfName
1000
SCALE
1000
AcRTDxfName
1000
SCALE
  0
ACAD_PROXY_OBJECT
  5
18D
102
{ACAD_REACTORS
330
10C
102
}
330
10C
100
AcDbProxyObject
 90
      499
 91
      507
 95
       23
 70
     0
 93
      121
310
905313A313600400000000000030407F
 94
        0
1001
ACAD
1000
AcRTDxfName
1000
SCALE
1000
AcRTDxfName
1000
SCALE
  0
ACAD_PROXY_OBJECT
  5
18E
102
{ACAD_REACTORS
330
10C
102
}
330
10C
100
AcDbProxyObject
 90
      499
 91
      507
 95
       23
 70
     0
 93
      121
310
905313A323000400000000000034407F
 94
        0
1001
ACAD
1000
AcRTDxfName
1000
SCALE
1000
AcRTDxfName
1000
SCALE
  0
ACAD_PROXY_OBJECT
  5
18F
102
{ACAD_REACTORS
330
10C
102
}
330
10C
100
AcDbProxyObject
 90
      499
 91
      507
 95
       23
 70
     0
 93
      121
310
905313A33300040000000000003E407F
 94
        0
1001
ACAD
1000
AcRTDxfName
1000
SCALE
1000
AcRTDxfName
1000
SCALE
  0
ACAD_PROXY_OBJECT
  5
190
102
{ACAD_REACTORS
330
10C
102
}
330
10C
100
AcDbProxyObject
 90
      499
 91
      507
 95
       23
 70
     0
 93
      121
310
905313A343000400000000000044407F
 94
        0
1001
ACAD
1000
AcRTDxfName
1000
SCALE
1000
AcRTDxfName
1000
SCALE
  0
ACAD_PROXY_OBJECT
  5
191
102
{ACAD_REACTORS
330
10C
102
}
330
10C
100
AcDbProxyObject
 90
      499
 91
      507
 95
       23
 70
     0
 93
      121
310
905313A353000400000000000049407F
 94
        0
1001
ACAD
1000
AcRTDxfName
1000
SCALE
1000
AcRTDxfName
1000
SCALE
  0
ACAD_PROXY_OBJECT
  5
192
102
{ACAD_REACTORS
330
10C
102
}
330
10C
100
AcDbProxyObject
 90
      499
 91
      507
 95
       23
 70
     0
 93
      129
310
906313A31303000400000000000059407F
 94
        0
1001
ACAD
1000
AcRTDxfName
1000
SCALE
1000
AcRTDxfName
1000
SCALE
  0
ACAD_PROXY_OBJECT
  5
193
102
{ACAD_REACTORS
330
10C
102
}
330
10C
100
AcDbProxyObject
 90
      499
 91
      507
 95
       23
 70
     0
 93
      113
310
904323A3100000000000000001017F
 94
        0
1001
ACAD
1000
AcRTDxfName
1000
SCALE
1000
AcRTDxfName
1000
SCALE
  0
ACAD_PROXY_OBJECT
  5
194
102
{ACAD_REACTORS
330
10C
102
}
330
10C
100
AcDbProxyObject
 90
      499
 91
      507
 95
       23
 70
     0
 93
      113
310
904343A3100000000000000041017F
 94
        0
1001
ACAD
1000
AcRTDxfName
1000
SCALE
1000
AcRTDxfName
1000
SCALE
  0
ACAD_PROXY_OBJECT
  5
195
102
{ACAD_REACTORS
330
10C
102
}
330
10C
100
AcDbProxyObject
 90
      499
 91
      507
 95
       23
 70
     0
 93
      113
310
904383A3100000000000000081017F
 94
        0
1001
ACAD
1000
AcRTDxfName
1000
SCALE
1000
AcRTDxfName
1000
SCALE
  0
ACAD_PROXY_OBJECT
  5
196
102
{ACAD_REACTORS
330
10C
102
}
330
10C
100
AcDbProxyObject
 90
      499
 91
      507
 95
       23
 70
     0
 93
      121
310
90531303A3100000000000000091017F
 94
        0
1001
ACAD
1000
AcRTDxfName
1000
SCALE
1000
AcRTDxfName
1000
SCALE
  0
ACAD_PROXY_OBJECT
  5
197
102
{ACAD_REACTORS
330
10C
102
}
330
10C
100
AcDbProxyObject
 90
      499
 91
      507
 95
       23
 70
     0
 93
      129
310
9063130303A3100000000000000165017F
 94
        0
1001
ACAD
1000
AcRTDxfName
1000
SCALE
1000
AcRTDxfName
1000
SCALE
  0
ACAD_PROXY_OBJECT
  5
198
102
{ACAD_REACTORS
330
10C
102
}
330
10C
100
AcDbProxyObject
 90
      499
 91
      507
 95
       23
 70
     0
 93
      265
310
90F312F31323822203D2031272D302200000000000000200FC00000000000028407F
 94
        0
1001
ACAD
1000
AcRTDxfName
1000
SCALE
1000
AcRTDxfName
1000
SCALE
  0
ACAD_PROXY_OBJECT
  5
199
102
{ACAD_REACTORS
330
10C
102
}
330
10C
100
AcDbProxyObject
 90
      499
 91
      507
 95
       23
 70
     0
 93
      257
310
90E312F363422203D2031272D302200000000000000240FC00000000000028407F
 94
        0
1001
ACAD
1000
AcRTDxfName
1000
SCALE
1000
AcRTDxfName
1000
SCALE
  0
ACAD_PROXY_OBJECT
  5
19A
102
{ACAD_REACTORS
330
10C
102
}
330
10C
100
AcDbProxyObject
 90
      499
 91
      507
 95
       23
 70
     0
 93
      257
310
90E312F333222203D2031272D302200000000000000280FC00000000000028407F
 94
        0
1001
ACAD
1000
AcRTDxfName
1000
SCALE
1000
AcRTDxfName
1000
SCALE
  0
ACAD_PROXY_OBJECT
  5
19B
102
{ACAD_REACTORS
330
10C
102
}
330
10C
100
AcDbProxyObject
 90
      499
 91
      507
 95
       23
 70
     0
 93
      257
310
90E312F313622203D2031272D3022000000000000002C0FC00000000000028407F
 94
        0
1001
ACAD
1000
AcRTDxfName
1000
SCALE
1000
AcRTDxfName
1000
SCALE
  0
ACAD_PROXY_OBJECT
  5
19C
102
{ACAD_REACTORS
330
10C
102
}
330
10C
100
AcDbProxyObject
 90
      499
 91
      507
 95
       23
 70
     0
 93
      257
310
90E332F333222203D2031272D3022000000000000002E0FC00000000000028407F
 94
        0
1001
ACAD
1000
AcRTDxfName
1000
SCALE
1000
AcRTDxfName
1000
SCALE
  0
ACAD_PROXY_OBJECT
  5
19D
102
{ACAD_REACTORS
330
10C
102
}
330
10C
100
AcDbProxyObject
 90
      499
 91
      507
 95
       23
 70
     0
 93
      249
310
90D312F3822203D2031272D302200000000000000300FC00000000000028407F
 94
        0
1001
ACAD
1000
AcRTDxfName
1000
SCALE
1000
AcRTDxfName
1000
SCALE
  0
ACAD_PROXY_OBJECT
  5
19E
102
{ACAD_REACTORS
330
10C
102
}
330
10C
100
AcDbProxyObject
 90
      499
 91
      507
 95
       23
 70
     0
 93
      257
310
90E332F313622203D2031272D302200000000000000320FC00000000000028407F
 94
        0
1001
ACAD
1000
AcRTDxfName
1000
SCALE
1000
AcRTDxfName
1000
SCALE
  0
ACAD_PROXY_OBJECT
  5
19F
102
{ACAD_REACTORS
330
10C
102
}
330
10C
100
AcDbProxyObject
 90
      499
 91
      507
 95
       23
 70
     0
 93
      249
310
90D312F3422203D2031272D302200000000000000340FC00000000000028407F
 94
        0
1001
ACAD
1000
AcRTDxfName
1000
SCALE
1000
AcRTDxfName
1000
SCALE
  0
ACAD_PROXY_OBJECT
  5
1A0
102
{ACAD_REACTORS
330
10C
102
}
330
10C
100
AcDbProxyObject
 90
      499
 91
      507
 95
       23
 70
     0
 93
      249
310
90D332F3822203D2031272D302200000000000000360FC00000000000028407F
 94
        0
1001
ACAD
1000
AcRTDxfName
1000
SCALE
1000
AcRTDxfName
1000
SCALE
  0
ACAD_PROXY_OBJECT
  5
1A1
102
{ACAD_REACTORS
330
10C
102
}
330
10C
100
AcDbProxyObject
 90
      499
 91
      507
 95
       23
 70
     0
 93
      249
310
90D312F3222203D2031272D302200000000000000380FC00000000000028407F
 94
        0
1001
ACAD
1000
AcRTDxfName
1000
SCALE
1000
AcRTDxfName
1000
SCALE
  0
ACAD_PROXY_OBJECT
  5
1A2
102
{ACAD_REACTORS
330
10C
102
}
330
10C
100
AcDbProxyObject
 90
      499
 91
      507
 95
       23
 70
     0
 93
      249
310
90D332F3422203D2031272D3022000000000000003A0FC00000000000028407F
 94
        0
1001
ACAD
1000
AcRTDxfName
1000
SCALE
1000
AcRTDxfName
1000
SCALE
  0
ACAD_PROXY_OBJECT
  5
1A3
102
{ACAD_REACTORS
330
10C
102
}
330
10C
100
AcDbProxyObject
 90
      499
 91
      507
 95
       23
 70
     0
 93
      169
310
90B3122203D2031272D302200400000000000028407F
 94
        0
1001
ACAD
1000
AcRTDxfName
1000
SCALE
1000
AcRTDxfName
1000
SCALE
  0
ACAD_PROXY_OBJECT
  5
1A4
102
{ACAD_REACTORS
330
10C
102
}
330
10C
100
AcDbProxyObject
 90
      499
 91
      507
 95
       23
 70
     0
 93
      265
310
90F312D312F3222203D2031272D3022000000000000003E0FC00000000000028407F
 94
        0
1001
ACAD
1000
AcRTDxfName
1000
SCALE
1000
AcRTDxfName
1000
SCALE
  0
ACAD_PROXY_OBJECT
  5
1A5
102
{ACAD_REACTORS
330
10C
102
}
330
10C
100
AcDbProxyObject
 90
      499
 91
      507
 95
       23
 70
     0
 93
      233
310
90B3322203D2031272D3022000000000000000210000000000000028407F
 94
        0
1001
ACAD
1000
AcRTDxfName
1000
SCALE
1000
AcRTDxfName
1000
SCALE
  0
ACAD_PROXY_OBJECT
  5
1A6
102
{ACAD_REACTORS
330
10C
102
}
330
10C
100
AcDbProxyObject
 90
      499
 91
      507
 95
       23
 70
     0
 93
      233
310
90B3622203D2031272D3022000000000000000610000000000000028407F
 94
        0
1001
ACAD
1000
AcRTDxfName
1000
SCALE
1000
AcRTDxfName
1000
SCALE
  0
ACAD_PROXY_OBJECT
  5
1A7
102
{ACAD_REACTORS
330
10C
102
}
330
10C
100
AcDbProxyObject
 90
      499
 91
      507
 95
       23
 70
     0
 93
      257
310
90E31272D3022203D2031272D3022000000000000000A10000000000000028407F
 94
        0
1001
ACAD
1000
AcRTDxfName
1000
SCALE
1000
AcRTDxfName
1000
SCALE
  0
TABLESTYLE
  5
7F
102
{ACAD_XDICTIONARY
360
162
102
}
102
{ACAD_REACTORS
330
7E
102
}
330
7E
100
AcDbTableStyle
  3
Standard
 70
     0
 71
     0
 40
1.5
 41
1.5
280
     0
281
     0
  7
Standard
140
4.5
170
     2
 62
     0
 63
     7
283
     0
274
    -2
284
     1
 64
     0
275
    -2
285
     1
 65
     0
276
    -2
286
     1
 66
     0
277
    -2
287
     1
 67
     0
278
    -2
288
     1
 68
     0
279
    -2
289
     1
 69
     0
  7
Standard
140
6.0
170
     5
 62
     0
 63
     7
283
     0
274
    -2
284
     1
 64
     0
275
    -2
285
     1
 65
     0
276
    -2
286
     1
 66
     0
277
    -2
287
     1
 67
     0
278
    -2
288
     1
 68
     0
279
    -2
289
     1
 69
     0
  7
Standard
140
4.5
170
     5
 62
     0
 63
     7
283
     0
274
    -2
284
     1
 64
     0
275
    -2
285
     1
 65
     0
276
    -2
286
     1
 66
     0
277
    -2
287
     1
 67
     0
278
    -2
288
     1
 68
     0
279
    -2
289
     1
 69
     0
  0
VISUALSTYLE
  5
F5
102
{ACAD_REACTORS
330
EF
102
}
330
EF
100
AcDbVisualStyle
  2
2dWireframe
 70
     4
 71
     0
 72
     2
 73
     1
 90
        0
 40
-0.6
 41
-30.0
 62
     5
 63
     7
 74
     1
 91
        4
 64
     7
 65
   257
 75
     1
175
     1
 42
1.0
 92
        0
 66
   257
 43
1.0
 76
     1
 77
     6
 78
     2
 67
     7
 79
     5
170
     0
171
     0
290
     0
174
     0
 93
        1
 44
0.0
173
     0
291
     0
 45
0.0
1001
ACAD
1000
AcDbSavedByObjectVersion
1070
     0
  0
VISUALSTYLE
  5
F7
102
{ACAD_REACTORS
330
EF
102
}
330
EF
100
AcDbVisualStyle
  2
3D Hidden
 70
     6
 71
     1
 72
     2
 73
     2
 90
        0
 40
-0.6
 41
-30.0
 62
     5
 63
     7
 74
     2
 91
        2
 64
     7
 65
   257
 75
     2
175
     1
 42
40.0
 92
        0
 66
   257
 43
1.0
 76
     1
 77
     6
 78
     2
 67
     7
 79
     3
170
     0
171
     0
290
     0
174
     0
 93
        1
 44
0.0
173
     0
291
     0
 45
0.0
1001
ACAD
1000
AcDbSavedByObjectVersion
1070
     0
  0
VISUALSTYLE
  5
F6
102
{ACAD_REACTORS
330
EF
102
}
330
EF
100
AcDbVisualStyle
  2
3dWireframe
 70
     5
 71
     0
 72
     2
 73
     1
 90
        0
 40
-0.6
 41
-30.0
 62
     5
 63
     7
 74
     1
 91
        4
 64
     7
 65
   257
 75
     1
175
     1
 42
1.0
 92
        0
 66
   257
 43
1.0
 76
     1
 77
     6
 78
     2
 67
     7
 79
     5
170
     0
171
     0
290
     0
174
     0
 93
        1
 44
0.0
173
     0
291
     0
 45
0.0
1001
ACAD
1000
AcDbSavedByObjectVersion
1070
     0
  0
VISUALSTYLE
  5
F4
102
{ACAD_REACTORS
330
EF
102
}
330
EF
100
AcDbVisualStyle
  2
Basic
 70
     7
 71
     1
 72
     0
 73
     1
 90
        0
 40
-0.6
 41
-30.0
 62
     5
 63
     7
 74
     0
 91
        4
 64
     7
 65
   257
 75
     1
175
     1
 42
1.0
 92
        8
 66
     7
 43
1.0
 76
     1
 77
     6
 78
     2
 67
     7
 79
     5
170
     0
171
     0
290
     0
174
     0
 93
        1
 44
0.0
173
     0
291
     1
 45
0.0
1001
ACAD
1000
AcDbSavedByObjectVersion
1070
     0
  0
VISUALSTYLE
  5
FB
102
{ACAD_REACTORS
330
EF
102
}
330
EF
100
AcDbVisualStyle
  2
Brighten
 70
    12
 71
     2
 72
     2
 73
     1
 90
        0
 40
-0.6
 41
-30.0
 62
     5
 63
     7
 74
     1
 91
        4
 64
     7
 65
   257
 75
     1
175
     1
 42
1.0
 92
        8
 66
     7
 43
1.0
 76
     1
 77
     6
 78
     2
 67
     7
 79
     5
170
     0
171
     0
290
     0
174
     0
 93
        1
 44
50.0
173
     0
291
     1
 45
0.0
1001
ACAD
1000
AcDbSavedByObjectVersion
1070
     0
  0
VISUALSTYLE
  5
FF
102
{ACAD_REACTORS
330
EF
102
}
330
EF
100
AcDbVisualStyle
  2
ColorChange
 70
    16
 71
     2
 72
     2
 73
     3
 90
        0
 40
-0.6
 41
-30.0
 62
     5
 63
     8
 74
     1
 91
        4
 64
     7
 65
   257
 75
     1
175
     1
 42
1.0
 92
        8
 66
     8
 43
1.0
 76
     1
 77
     6
 78
     2
 67
     7
 79
     5
170
     0
171
     0
290
     0
174
     0
 93
        1
 44
0.0
173
     0
291
     1
 45
0.0
1001
ACAD
1000
AcDbSavedByObjectVersion
1070
     0
  0
VISUALSTYLE
  5
F8
102
{ACAD_REACTORS
330
EF
102
}
330
EF
100
AcDbVisualStyle
  2
Conceptual
 70
     9
 71
     3
 72
     2
 73
     1
 90
        0
 40
-0.6
 41
-30.0
 62
     5
 63
     7
 74
     2
 91
        2
 64
     7
 65
   257
 75
     1
175
     1
 42
40.0
 92
        8
 66
     7
 43
1.0
 76
     1
 77
     6
 78
     2
 67
     7
 79
     3
170
     0
171
     0
290
     0
174
     0
 93
        1
 44
0.0
173
     0
291
     0
 45
0.0
1001
ACAD
1000
AcDbSavedByObjectVersion
1070
     0
  0
VISUALSTYLE
  5
FA
102
{ACAD_REACTORS
330
EF
102
}
330
EF
100
AcDbVisualStyle
  2
Dim
 70
    11
 71
     2
 72
     2
 73
     1
 90
        0
 40
-0.6
 41
-30.0
 62
     5
 63
     7
 74
     1
 91
        4
 64
     7
 65
   257
 75
     1
175
     1
 42
1.0
 92
        8
 66
     7
 43
1.0
 76
     1
 77
     6
 78
     2
 67
     7
 79
     5
170
     0
171
     0
290
     0
174
     0
 93
        1
 44
-50.0
173
     0
291
     1
 45
0.0
1001
ACAD
1000
AcDbSavedByObjectVersion
1070
     0
  0
VISUALSTYLE
  5
FE
102
{ACAD_REACTORS
330
EF
102
}
330
EF
100
AcDbVisualStyle
  2
Facepattern
 70
    15
 71
     2
 72
     2
 73
     1
 90
        0
 40
-0.6
 41
-30.0
 62
     5
 63
     7
 74
     1
 91
        4
 64
     7
 65
   257
 75
     1
175
     1
 42
1.0
 92
        8
 66
     7
 43
1.0
 76
     1
 77
     6
 78
     2
 67
     7
 79
     5
170
     0
171
     0
290
     0
174
     0
 93
        1
 44
0.0
173
     0
291
     1
 45
0.0
1001
ACAD
1000
AcDbSavedByObjectVersion
1070
     0
  0
VISUALSTYLE
  5
F0
102
{ACAD_REACTORS
330
EF
102
}
330
EF
100
AcDbVisualStyle
  2
Flat
 70
     0
 71
     2
 72
     1
 73
     1
 90
        2
 40
-0.6
 41
30.0
 62
     5
 63
     7
 74
     0
 91
        4
 64
     7
 65
   257
 75
     1
175
     1
 42
1.0
 92
        8
 66
     7
 43
1.0
 76
     1
 77
     6
 78
     2
 67
     7
 79
     5
170
     0
171
     0
290
     0
174
     0
 93
        1
 44
0.0
173
     0
291
     1
 45
0.0
1001
ACAD
1000
AcDbSavedByObjectVersion
1070
     0
  0
VISUALSTYLE
  5
F1
102
{ACAD_REACTORS
330
EF
102
}
330
EF
100
AcDbVisualStyle
  2
FlatWithEdges
 70
     1
 71
     2
 72
     1
 73
     1
 90
        2
 40
-0.6
 41
30.0
 62
     5
 63
     7
 74
     1
 91
        4
 64
     7
 65
   257
 75
     1
175
     1
 42
1.0
 92
        0
 66
   257
 43
1.0
 76
     1
 77
     6
 78
     2
 67
     7
 79
     5
170
     0
171
     0
290
     0
174
     0
 93
        1
 44
0.0
173
     0
291
     1
 45
0.0
1001
ACAD
1000
AcDbSavedByObjectVersion
1070
     0
  0
VISUALSTYLE
  5
F2
102
{ACAD_REACTORS
330
EF
102
}
330
EF
100
AcDbVisualStyle
  2
Gouraud
 70
     2
 71
     2
 72
     2
 73
     1
 90
        2
 40
-0.6
 41
30.0
 62
     5
 63
     7
 74
     0
 91
        4
 64
     7
 65
   257
 75
     1
175
     1
 42
1.0
 92
        0
 66
     7
 43
1.0
 76
     1
 77
     6
 78
     2
 67
     7
 79
     5
170
     0
171
     0
290
     0
174
     0
 93
        1
 44
0.0
173
     0
291
     1
 45
0.0
1001
ACAD
1000
AcDbSavedByObjectVersion
1070
     0
  0
VISUALSTYLE
  5
F3
102
{ACAD_REACTORS
330
EF
102
}
330
EF
100
AcDbVisualStyle
  2
GouraudWithEdges
 70
     3
 71
     2
 72
     2
 73
     1
 90
        2
 40
-0.6
 41
30.0
 62
     5
 63
     7
 74
     1
 91
        4
 64
     7
 65
   257
 75
     1
175
     1
 42
1.0
 92
        0
 66
   257
 43
1.0
 76
     1
 77
     6
 78
     2
 67
     7
 79
     5
170
     0
171
     0
290
     0
174
     0
 93
        1
 44
0.0
173
     0
291
     1
 45
0.0
1001
ACAD
1000
AcDbSavedByObjectVersion
1070
     0
  0
VISUALSTYLE
  5
FD
102
{ACAD_REACTORS
330
EF
102
}
330
EF
100
AcDbVisualStyle
  2
Linepattern
 70
    14
 71
     2
 72
     2
 73
     1
 90
        0
 40
-0.6
 41
-30.0
 62
     5
 63
     7
 74
     1
 91
        4
 64
     7
 65
   257
 75
     7
175
     7
 42
1.0
 92
        8
 66
     7
 43
1.0
 76
     1
 77
     6
 78
     2
 67
     7
 79
     5
170
     0
171
     0
290
     0
174
     0
 93
        1
 44
0.0
173
     0
291
     1
 45
0.0
1001
ACAD
1000
AcDbSavedByObjectVersion
1070
     0
  0
VISUALSTYLE
  5
F9
102
{ACAD_REACTORS
330
EF
102
}
330
EF
100
AcDbVisualStyle
  2
Realistic
 70
     8
 71
     2
 72
     2
 73
     1
 90
        0
 40
-0.6
 41
-30.0
 62
     5
 63
     7
 74
     1
 91
        0
 64
     7
 65
   257
 75
     1
175
     1
 42
1.0
 92
        8
 66
     8
 43
1.0
 76
     1
 77
     6
 78
     2
 67
     7
 79
     5
170
     0
171
     0
290
     0
174
     0
 93
       13
 44
0.0
173
     0
291
     0
 45
0.0
1001
ACAD
1000
AcDbSavedByObjectVersion
1070
     0
  0
VISUALSTYLE
  5
FC
102
{ACAD_REACTORS
330
EF
102
}
330
EF
100
AcDbVisualStyle
  2
Thicken
 70
    13
 71
     2
 72
     2
 73
     1
 90
        0
 40
-0.6
 41
-30.0
 62
     5
 63
     7
 74
     1
 91
        4
 64
     7
 65
   257
 75
     1
175
     1
 42
1.0
 92
       12
 66
     7
 43
1.0
 76
     1
 77
     6
 78
     2
 67
     7
 79
     5
170
     0
171
     0
290
     0
174
     0
 93
        1
 44
0.0
173
     0
291
     1
 45
0.0
1001
ACAD
1000
AcDbSavedByObjectVersion
1070
     0
  0
DICTIONARYVAR
  5
146
102
{ACAD_REACTORS
330
5E
102
}
330
5E
100
DictionaryVariables
280
     0
  1
1:1
  0
DICTIONARYVAR
  5
145
102
{ACAD_REACTORS
330
5E
102
}
330
5E
100
DictionaryVariables
280
     0
  1
STANDARD
  0
DICTIONARYVAR
  5
84
102
{ACAD_REACTORS
330
5E
102
}
330
5E
100
DictionaryVariables
280
     0
  1
STANDARD
  0
DICTIONARYVAR
  5
5F
102
{ACAD_REACTORS
330
5E
102
}
330
5E
100
DictionaryVariables
280
     0
  1
2
  0
DICTIONARYVAR
  5
63
102
{ACAD_REACTORS
330
5E
102
}
330
5E
100
DictionaryVariables
280
     0
  1
1
  0
DICTIONARYVAR
  5
466
102
{ACAD_REACTORS
330
5E
102
}
330
5E
100
DictionaryVariables
280
     0
  1
0
  0
DICTIONARYVAR
  5
464
102
{ACAD_REACTORS
330
5E
102
}
330
5E
100
DictionaryVariables
280
     0
  1
2
  0
DICTIONARYVAR
  5
463
102
{ACAD_REACTORS
330
5E
102
}
330
5E
100
DictionaryVariables
280
     0
  1
1
  0
DICTIONARYVAR
  5
24EE
102
{ACAD_REACTORS
330
5E
102
}
330
5E
100
DictionaryVariables
280
     0
  1
80.000000
  0
DICTIONARYVAR
  5
24ED
102
{ACAD_REACTORS
330
5E
102
}
330
5E
100
DictionaryVariables
280
     0
  1
5.000000
  0
DICTIONARYVAR
  5
465
102
{ACAD_REACTORS
330
5E
102
}
330
5E
100
DictionaryVariables
280
     0
  1
127
  0
DICTIONARY
  5
21CC
102
{ACAD_REACTORS
330
21CB
102
}
330
21CB
100
AcDbDictionary
281
     1
  0
DICTIONARY
  5
24F3
330
D3
100
AcDbDictionary
280
     1
281
     1
  3
ACAD_XREC_ROUNDTRIP
360
24F4
  0
DICTIONARY
  5
24F5
330
D7
100
AcDbDictionary
280
     1
281
     1
  3
ACAD_XREC_ROUNDTRIP
360
24F6
  0
DICTIONARY
  5
24F0
330
22
100
AcDbDictionary
280
     1
281
     1
  3
ACAD_XREC_ROUNDTRIP
360
24F1
  0
DICTIONARY
  5
24F9
330
ED
100
AcDbDictionary
280
     1
281
     1
  3
ACAD_XREC_ROUNDTRIP
360
24FA
  0
DICTIONARY
  5
24F7
330
EC
100
AcDbDictionary
280
     1
281
     1
  3
ACAD_XREC_ROUNDTRIP
360
24F8
  0
DICTIONARY
  5
173
330
EE
100
AcDbDictionary
280
     1
281
     1
  3
ACAD_XREC_ROUNDTRIP
360
24FB
  3
BUMPTILE
360
175
  3
DIFFUSETILE
360
174
  3
OPACITYTILE
360
176
  3
REFLECTIONTILE
360
177
  0
DICTIONARY
  5
162
330
7F
100
AcDbDictionary
280
     1
281
     1
  3
ACAD_ROUNDTRIP_2008_TABLESTYLE_CELLSTYLEMAP
360
2404
  3
ACAD_XREC_ROUNDTRIP
360
24F2
  0
XRECORD
  5
24F4
102
{ACAD_REACTORS
330
24F3
102
}
330
24F3
100
AcDbXrecord
280
     1
102
SHADEPLOT
 70
     0
102
SHADEPLOTRESLEVEL
 70
     2
102
SHADEPLOTCUSTOMDPI
 70
   300
  0
XRECORD
  5
24F6
102
{ACAD_REACTORS
330
24F5
102
}
330
24F5
100
AcDbXrecord
280
     1
102
SHADEPLOT
 70
     0
102
SHADEPLOTRESLEVEL
 70
     2
102
SHADEPLOTCUSTOMDPI
 70
   300
  0
XRECORD
  5
24F1
102
{ACAD_REACTORS
330
24F0
102
}
330
24F0
100
AcDbXrecord
280
     1
102
SHADEPLOT
 70
     0
102
SHADEPLOTRESLEVEL
 70
     2
102
SHADEPLOTCUSTOMDPI
 70
   300
  0
XRECORD
  5
24FA
102
{ACAD_REACTORS
330
24F9
102
}
330
24F9
100
AcDbXrecord
280
     1
102
MATERIAL
148
0.0
149
0.0
149
0.0
 93
        0
 94
       63
282
     0
 72
     1
 77
     1
171
     1
175
     1
179
     1
273
     0
  0
XRECORD
  5
24F8
102
{ACAD_REACTORS
330
24F7
102
}
330
24F7
100
AcDbXrecord
280
     1
102
MATERIAL
148
0.0
149
0.0
149
0.0
 93
        0
 94
       63
282
     0
 72
     1
 77
     1
171
     1
175
     1
179
     1
273
     0
  0
XRECORD
  5
24FB
102
{ACAD_REACTORS
330
173
102
}
330
173
100
AcDbXrecord
280
     1
102
MATERIAL
148
0.0
149
0.0
149
0.0
 93
        0
 94
       63
282
     0
 72
     1
 77
     1
171
     1
175
     1
179
     1
273
     0
  0
XRECORD
  5
175
102
{ACAD_REACTORS
330
173
102
}
330
173
100
AcDbXrecord
280
     1
270
     1
271
     1
  0
XRECORD
  5
174
102
{ACAD_REACTORS
330
173
102
}
330
173
100
AcDbXrecord
280
     1
270
     1
271
     1
  0
XRECORD
  5
176
102
{ACAD_REACTORS
330
173
102
}
330
173
100
AcDbXrecord
280
     1
270
     1
271
     1
  0
XRECORD
  5
177
102
{ACAD_REACTORS
330
173
102
}
330
173
100
AcDbXrecord
280
     1
270
     1
271
     1
  0
ACAD_PROXY_OBJECT
  5
2404
102
{ACAD_REACTORS
330
162
102
}
330
162
100
AcDbProxyObject
 90
      499
 91
      509
 95
       23
 70
     0
 93
     5304
310
40D054060020000020000003200101A000080002A5058000000C10000000000000006101010000000000003E0FC000000000000F83F0000000000003E0FC000000000000F83F02B5E8DC0F42B1CFC0AD7A3703D0AC73F419019018000000C1003FBFFFFFE0000000000003C8FD029018000000C1003FBFFFFFE00000000000
310
03C8FD049018000000C1003FBFFFFFE0000000000003C8FD089018000000C1003FBFFFFFE0000000000003C8FD109018000000C1003FBFFFFFE0000000000003C8FD209018000000C1003FBFFFFFE0000000000003C8FD01405075F5449544C450041501A8000000C800406800020000A94160000003040000000000000012
310
40404000000000000F83F0000000000003E0FC000000000000F83F0000000000003E0FC0AD7A3703D0AC73F02B5E8DC0F42B1CFD0640640600000030400FEFFFFFF8000000000000F23F40A40600000030400FEFFFFFF8000000000000F23F41240600000030400FEFFFFFF8000000000000F23F42240600000030400FEFFF
310
FFF8000000000000F23F44240600000030400FEFFFFFF8000000000000F23F48240600000030400FEFFFFFF8000000000000F23F409014217D2115051115480105406A0000003200101A000080002A5028000000C10000000000000004901010000000000003E0FC000000000000F83F0000000000003E0FC000000000000F
310
83F02B5E8DC0F42B1CFC0AD7A3703D0AC73F419019018000000C1003FBFFFFFE0000000000003C8FD029018000000C1003FBFFFFFE0000000000003C8FD049018000000C1003FBFFFFFE0000000000003C8FD089018000000C1003FBFFFFFE0000000000003C8FD109018000000C1003FBFFFFFE0000000000003C8FD20901
310
8000000C1003FBFFFFFE0000000000003C8FD03409065F444154410000
340
11
340
14
340
14
340
14
340
14
340
14
340
14
340
11
340
14
340
14
340
14
340
14
340
14
340
14
340
11
340
14
340
14
340
14
340
14
340
14
340
14
 94
        0
1001
ACAD
1000
AcRTDxfName
1000
CELLSTYLEMAP
1000
AcRTDxfName
1000
CELLSTYLEMAP
  0
XRECORD
  5
24F2
102
{ACAD_REACTORS
330
162
102
}
330
162
100
AcDbXrecord
280
     1
102
ACAD_ROUNDTRIP_PRE2007_TABLESTYLE
 90
      512
 91
        0
  1

 92
      512
 93
        0
  2

 94
      512
 95
        0
  3

  0
ENDSEC
  0
EOF
