  0
SECTION
  2
HEADER
  9
$ACADVER
  1
AC1015
  9
$ACADMAINTVER
 70
    20
  9
$DWGCODEPAGE
  3
ANSI_1250
  9
$INSBASE
 10
0.0
 20
0.0
 30
0.0
  9
$EXTMIN
 10
-0.0032020964374055
 20
-0.004528679247187
 30
-0.0000000000112498
  9
$EXTMAX
 10
210.0032050302828
 20
297.0045328285427
 30
0.0000000000002956
  9
$LIMMIN
 10
0.0
 20
0.0
  9
$LIMMAX
 10
210.0
 20
297.0
  9
$ORTHOMODE
 70
     1
  9
$REGENMODE
 70
     1
  9
$FILLMODE
 70
     1
  9
$QTEXTMODE
 70
     0
  9
$MIRRTEXT
 70
     0
  9
$LTSCALE
 40
1.0
  9
$ATTMODE
 70
     2
  9
$TEXTSIZE
 40
5.0
  9
$TRACEWID
 40
1.0
  9
$TEXTSTYLE
  7
Solbet_5
  9
$CLAYER
  8
SOLBET_Bloczki
  9
$CELTYPE
  6
ByLayer
  9
$CECOLOR
 62
   256
  9
$CELTSCALE
 40
1.0
  9
$DISPSILH
 70
     0
  9
$DIMSCALE
 40
1.0
  9
$DIMASZ
 40
2.5
  9
$DIMEXO
 40
0.0
  9
$DIMDLI
 40
3.75
  9
$DIMRND
 40
0.0
  9
$DIMDLE
 40
0.0
  9
$DIMEXE
 40
1.25
  9
$DIMTP
 40
0.0
  9
$DIMTM
 40
0.0
  9
$DIMTXT
 40
2.5
  9
$DIMCEN
 40
2.5
  9
$DIMTSZ
 40
0.0
  9
$DIMTOL
 70
     0
  9
$DIMLIM
 70
     0
  9
$DIMTIH
 70
     0
  9
$DIMTOH
 70
     0
  9
$DIMSE1
 70
     0
  9
$DIMSE2
 70
     0
  9
$DIMTAD
 70
     1
  9
$DIMZIN
 70
     8
  9
$DIMBLK
  1

  9
$DIMASO
 70
     1
  9
$DIMSHO
 70
     1
  9
$DIMPOST
  1

  9
$DIMAPOST
  1

  9
$DIMALT
 70
     0
  9
$DIMALTD
 70
     3
  9
$DIMALTF
 40
0.03937007874016
  9
$DIMLFAC
 40
1.0
  9
$DIMTOFL
 70
     1
  9
$DIMTVP
 40
0.0
  9
$DIMTIX
 70
     0
  9
$DIMSOXD
 70
     0
  9
$DIMSAH
 70
     0
  9
$DIMBLK1
  1

  9
$DIMBLK2
  1

  9
$DIMSTYLE
  2
Solbet
  9
$DIMCLRD
 70
     0
  9
$DIMCLRE
 70
     0
  9
$DIMCLRT
 70
     0
  9
$DIMTFAC
 40
1.0
  9
$DIMGAP
 40
0.625
  9
$DIMJUST
 70
     0
  9
$DIMSD1
 70
     0
  9
$DIMSD2
 70
     0
  9
$DIMTOLJ
 70
     0
  9
$DIMTZIN
 70
     8
  9
$DIMALTZ
 70
     0
  9
$DIMALTTZ
 70
     0
  9
$DIMUPT
 70
     0
  9
$DIMDEC
 70
     2
  9
$DIMTDEC
 70
     2
  9
$DIMALTU
 70
     2
  9
$DIMALTTD
 70
     3
  9
$DIMTXSTY
  7
Solbet_2_5
  9
$DIMAUNIT
 70
     0
  9
$DIMADEC
 70
     0
  9
$DIMALTRND
 40
0.0
  9
$DIMAZIN
 70
     0
  9
$DIMDSEP
 70
    44
  9
$DIMATFIT
 70
     3
  9
$DIMFRAC
 70
     0
  9
$DIMLDRBLK
  1

  9
$DIMLUNIT
 70
     2
  9
$DIMLWD
 70
    -2
  9
$DIMLWE
 70
    -2
  9
$DIMTMOVE
 70
     0
  9
$LUNITS
 70
     2
  9
$LUPREC
 70
     4
  9
$SKETCHINC
 40
1.0
  9
$FILLETRAD
 40
0.0
  9
$AUNITS
 70
     0
  9
$AUPREC
 70
     0
  9
$MENU
  1
.
  9
$ELEVATION
 40
0.0
  9
$PELEVATION
 40
0.0
  9
$THICKNESS
 40
0.0
  9
$LIMCHECK
 70
     0
  9
$CHAMFERA
 40
0.0
  9
$CHAMFERB
 40
0.0
  9
$CHAMFERC
 40
0.0
  9
$CHAMFERD
 40
0.0
  9
$SKPOLY
 70
     0
  9
$TDCREATE
 40
2454690.075573148
  9
$TDUCREATE
 40
2454690.033906482
  9
$TDUPDATE
 40
2454848.873057454
  9
$TDUUPDATE
 40
2454848.831390787
  9
$TDINDWG
 40
0.4801288657
  9
$TDUSRTIMER
 40
0.4801243403
  9
$USRTIMER
 70
     1
  9
$ANGBASE
 50
0.0
  9
$ANGDIR
 70
     0
  9
$PDMODE
 70
     0
  9
$PDSIZE
 40
0.0
  9
$PLINEWID
 40
0.0
  9
$SPLFRAME
 70
     0
  9
$SPLINETYPE
 70
     6
  9
$SPLINESEGS
 70
     8
  9
$HANDSEED
  5
2959
  9
$SURFTAB1
 70
     6
  9
$SURFTAB2
 70
     6
  9
$SURFTYPE
 70
     6
  9
$SURFU
 70
     6
  9
$SURFV
 70
     6
  9
$UCSBASE
  2

  9
$UCSNAME
  2

  9
$UCSORG
 10
0.0
 20
0.0
 30
0.0
  9
$UCSXDIR
 10
1.0
 20
0.0
 30
0.0
  9
$UCSYDIR
 10
0.0
 20
1.0
 30
0.0
  9
$UCSORTHOREF
  2

  9
$UCSORTHOVIEW
 70
     0
  9
$UCSORGTOP
 10
0.0
 20
0.0
 30
0.0
  9
$UCSORGBOTTOM
 10
0.0
 20
0.0
 30
0.0
  9
$UCSORGLEFT
 10
0.0
 20
0.0
 30
0.0
  9
$UCSORGRIGHT
 10
0.0
 20
0.0
 30
0.0
  9
$UCSORGFRONT
 10
0.0
 20
0.0
 30
0.0
  9
$UCSORGBACK
 10
0.0
 20
0.0
 30
0.0
  9
$PUCSBASE
  2

  9
$PUCSNAME
  2

  9
$PUCSORG
 10
0.0
 20
0.0
 30
0.0
  9
$PUCSXDIR
 10
1.0
 20
0.0
 30
0.0
  9
$PUCSYDIR
 10
0.0
 20
1.0
 30
0.0
  9
$PUCSORTHOREF
  2

  9
$PUCSORTHOVIEW
 70
     0
  9
$PUCSORGTOP
 10
0.0
 20
0.0
 30
0.0
  9
$PUCSORGBOTTOM
 10
0.0
 20
0.0
 30
0.0
  9
$PUCSORGLEFT
 10
0.0
 20
0.0
 30
0.0
  9
$PUCSORGRIGHT
 10
0.0
 20
0.0
 30
0.0
  9
$PUCSORGFRONT
 10
0.0
 20
0.0
 30
0.0
  9
$PUCSORGBACK
 10
0.0
 20
0.0
 30
0.0
  9
$USERI1
 70
     0
  9
$USERI2
 70
     0
  9
$USERI3
 70
     0
  9
$USERI4
 70
     0
  9
$USERI5
 70
     0
  9
$USERR1
 40
0.0
  9
$USERR2
 40
0.0
  9
$USERR3
 40
0.0
  9
$USERR4
 40
0.0
  9
$USERR5
 40
0.0
  9
$WORLDVIEW
 70
     1
  9
$SHADEDGE
 70
     3
  9
$SHADEDIF
 70
    70
  9
$TILEMODE
 70
     1
  9
$MAXACTVP
 70
    64
  9
$PINSBASE
 10
0.0
 20
0.0
 30
0.0
  9
$PLIMCHECK
 70
     0
  9
$PEXTMIN
 10
0.0
 20
0.0
 30
0.0
  9
$PEXTMAX
 10
0.0
 20
0.0
 30
0.0
  9
$PLIMMIN
 10
0.0
 20
0.0
  9
$PLIMMAX
 10
12.0
 20
9.0
  9
$UNITMODE
 70
     0
  9
$VISRETAIN
 70
     1
  9
$PLINEGEN
 70
     0
  9
$PSLTSCALE
 70
     1
  9
$TREEDEPTH
 70
  3020
  9
$CMLSTYLE
  2
SOLBET_IZOLACJA
  9
$CMLJUST
 70
     0
  9
$CMLSCALE
 40
20.0
  9
$PROXYGRAPHICS
 70
     1
  9
$MEASUREMENT
 70
     1
  9
$CELWEIGHT
370
    -1
  9
$ENDCAPS
280
     0
  9
$JOINSTYLE
280
     0
  9
$LWDISPLAY
290
     1
  9
$INSUNITS
 70
     4
  9
$HYPERLINKBASE
  1

  9
$STYLESHEET
  1

  9
$XEDIT
290
     1
  9
$CEPSNTYPE
380
     0
  9
$PSTYLEMODE
290
     1
  9
$FINGERPRINTGUID
  2
{6B12AB33-8E39-428E-8E85-461C8D99A3CB}
  9
$VERSIONGUID
  2
{E93C470D-40F0-4C77-A07B-1B9A0628A066}
  9
$EXTNAMES
290
     1
  9
$PSVPSCALE
 40
0.0
  9
$OLESTARTUP
290
     0
  0
ENDSEC
  0
SECTION
  2
CLASSES
  0
CLASS
  1
ACDBDICTIONARYWDFLT
  2
AcDbDictionaryWithDefault
  3
ObjectDBX Classes
 90
        0
280
     0
281
     0
  0
CLASS
  1
ACDBPLACEHOLDER
  2
AcDbPlaceHolder
  3
ObjectDBX Classes
 90
        0
280
     0
281
     0
  0
CLASS
  1
LAYOUT
  2
AcDbLayout
  3
ObjectDBX Classes
 90
        0
280
     0
281
     0
  0
CLASS
  1
DICTIONARYVAR
  2
AcDbDictionaryVar
  3
ObjectDBX Classes
 90
        0
280
     0
281
     0
  0
CLASS
  1
TABLESTYLE
  2
AcDbTableStyle
  3
ObjectDBX Classes
 90
     4095
280
     0
281
     0
  0
CLASS
  1
MATERIAL
  2
AcDbMaterial
  3
ObjectDBX Classes
 90
     1024
280
     0
281
     0
  0
CLASS
  1
VISUALSTYLE
  2
AcDbVisualStyle
  3
ObjectDBX Classes
 90
     4095
280
     0
281
     0
  0
CLASS
  1
SCALE
  2
AcDbScale
  3
ObjectDBX Classes
 90
     1153
280
     0
281
     0
  0
CLASS
  1
MLEADERSTYLE
  2
AcDbMLeaderStyle
  3
ACDB_MLEADERSTYLE_CLASS
 90
     4095
280
     0
281
     0
  0
CLASS
  1
CELLSTYLEMAP
  2
AcDbCellStyleMap
  3
ObjectDBX Classes
 90
     1152
280
     0
281
     0
  0
CLASS
  1
DIMASSOC
  2
AcDbDimAssoc
  3
"AcDbDimAssoc|Product Desc:     AcDim ARX App For Dimension|Company:          Autodesk, Inc.|WEB Address:      www.autodesk.com"
 90
    32768
280
     0
281
     0
  0
CLASS
  1
SORTENTSTABLE
  2
AcDbSortentsTable
  3
ObjectDBX Classes
 90
        0
280
     0
281
     0
  0
CLASS
  1
MULTILEADER
  2
AcDbMLeader
  3
ACDB_MLEADER_CLASS
 90
    33793
280
     0
281
     1
  0
CLASS
  1
ACDB_MTEXTOBJECTCONTEXTDATA_CLASS
  2
AcDbMTextObjectContextData
  3
ObjectDBX Classes
 90
    33921
280
     0
281
     0
  0
ENDSEC
  0
SECTION
  2
TABLES
  0
TABLE
  2
VPORT
  5
8
102
{ACAD_XDICTIONARY
360
443
102
}
330
0
100
AcDbSymbolTable
 70
     1
  0
VPORT
  5
EA
330
8
100
AcDbSymbolTableRecord
100
AcDbViewportTableRecord
  2
*Active
 70
     0
 10
0.0
 20
0.0
 11
1.0
 21
1.0
 12
105.0000014669226
 22
148.5000020746477
 13
0.0
 23
0.0
 14
10.0
 24
10.0
 15
10.0
 25
10.0
 16
0.0
 26
0.0
 36
1.0
 17
0.0
 27
0.0
 37
0.0
 40
300.3091621912098
 41
1.74582560296846
 42
50.0
 43
0.0
 44
0.0
 50
0.0
 51
0.0
 71
     0
 72
  1000
 73
     1
 74
     3
 75
     0
 76
     0
 77
     0
 78
     0
281
     0
 65
     1
110
0.0
120
0.0
130
0.0
111
1.0
121
0.0
131
0.0
112
0.0
122
1.0
132
0.0
 79
     0
146
0.0
  0
ENDTAB
  0
TABLE
  2
LTYPE
  5
5
330
0
100
AcDbSymbolTable
 70
     1
  0
LTYPE
  5
14
330
5
100
AcDbSymbolTableRecord
100
AcDbLinetypeTableRecord
  2
ByBlock
 70
     0
  3

 72
    65
 73
     0
 40
0.0
  0
LTYPE
  5
15
330
5
100
AcDbSymbolTableRecord
100
AcDbLinetypeTableRecord
  2
ByLayer
 70
     0
  3

 72
    65
 73
     0
 40
0.0
  0
LTYPE
  5
16
330
5
100
AcDbSymbolTableRecord
100
AcDbLinetypeTableRecord
  2
Continuous
 70
     0
  3
Solid line
 72
    65
 73
     0
 40
0.0
  0
ENDTAB
  0
TABLE
  2
LAYER
  5
2
102
{ACAD_XDICTIONARY
360
3E5
102
}
330
0
100
AcDbSymbolTable
 70
     8
  0
LAYER
  5
10
102
{ACAD_XDICTIONARY
360
13C
102
}
330
2
100
AcDbSymbolTableRecord
100
AcDbLayerTableRecord
  2
0
 70
     0
 62
     7
  6
Continuous
370
    -3
390
F
  0
LAYER
  5
3DD
102
{ACAD_XDICTIONARY
360
403
102
}
330
2
100
AcDbSymbolTableRecord
100
AcDbLayerTableRecord
  2
SOLBET_Bloczki
 70
     0
 62
   140
  6
Continuous
370
    -3
390
F
1001
AcAecLayerStandard
1000

1000

  0
LAYER
  5
3DF
102
{ACAD_XDICTIONARY
360
405
102
}
330
2
100
AcDbSymbolTableRecord
100
AcDbLayerTableRecord
  2
SOLBET_Wymiary_Opisy
 70
     0
 62
     1
  6
Continuous
370
    -3
390
F
1001
AcAecLayerStandard
1000

1000

  0
LAYER
  5
3E4
102
{ACAD_XDICTIONARY
360
40F
102
}
330
2
100
AcDbSymbolTableRecord
100
AcDbLayerTableRecord
  2
SOLBET_Tynki_Posadzki
 70
     0
 62
     3
  6
Continuous
370
    -3
390
F
1001
AcAecLayerStandard
1000

1000

  0
LAYER
  5
3E8
102
{ACAD_XDICTIONARY
360
411
102
}
330
2
100
AcDbSymbolTableRecord
100
AcDbLayerTableRecord
  2
SOLBET_Ramka_05
 70
     0
 62
     2
  6
Continuous
370
    -3
390
F
1001
AcAecLayerStandard
1000

1000

  0
LAYER
  5
2327
330
2
100
AcDbSymbolTableRecord
100
AcDbLayerTableRecord
  2
SOLBET_Zbrojenie_Konstrukcja
 70
     0
 62
     7
  6
Continuous
370
    -3
390
F
1001
AcAecLayerStandard
1000

1000

  0
LAYER
  5
23E2
330
2
100
AcDbSymbolTableRecord
100
AcDbLayerTableRecord
  2
DEFPOINTS
 70
     0
 62
     7
  6
Continuous
290
     0
370
    -3
390
F
  0
LAYER
  5
289C
102
{ACAD_XDICTIONARY
360
289D
102
}
330
2
100
AcDbSymbolTableRecord
100
AcDbLayerTableRecord
  2
SOLBET_Wymiary_Opisy @ 1
 70
     0
 62
     1
  6
Continuous
370
    -3
390
F
1001
AcAecLayerStandard
1000

1000

1001
AcadAnnotativeDecomposition
1000
AnnotativeData
1002
{
1070
     1
1070
     1
1002
}
  0
ENDTAB
  0
TABLE
  2
STYLE
  5
3
330
0
100
AcDbSymbolTable
 70
     4
  0
STYLE
  5
11
330
3
100
AcDbSymbolTableRecord
100
AcDbTextStyleTableRecord
  2
Standard
 70
     0
 40
0.0
 41
1.0
 50
0.0
 71
     0
 42
2.5
  3
txt.shx
  4

  0
STYLE
  5
7D7
330
3
100
AcDbSymbolTableRecord
100
AcDbTextStyleTableRecord
  2
Solbet_5
 70
     0
 40
5.0
 41
1.0
 50
0.0
 71
     0
 42
5.0
  3
isocpeur.ttf
  4

1001
ACAD
1000
ISOCPEUR
1071
       34
  0
STYLE
  5
7D9
330
3
100
AcDbSymbolTableRecord
100
AcDbTextStyleTableRecord
  2
Solbet_2_5
 70
     0
 40
2.5
 41
1.0
 50
0.0
 71
     0
 42
2.5
  3
isocpeur.ttf
  4

1001
ACAD
1000
ISOCPEUR
1071
       34
  0
STYLE
  5
20FC
330
3
100
AcDbSymbolTableRecord
100
AcDbTextStyleTableRecord
  2
Solbet_1
 70
     0
 40
1.0
 41
1.0
 50
0.0
 71
     0
 42
2.5
  3
isocpeur.ttf
  4

1001
ACAD
1000
ISOCPEUR
1071
       34
  0
ENDTAB
  0
TABLE
  2
VIEW
  5
6
330
0
100
AcDbSymbolTable
 70
     0
  0
ENDTAB
  0
TABLE
  2
UCS
  5
7
330
0
100
AcDbSymbolTable
 70
     0
  0
ENDTAB
  0
TABLE
  2
APPID
  5
9
330
0
100
AcDbSymbolTable
 70
    13
  0
APPID
  5
12
330
9
100
AcDbSymbolTableRecord
100
AcDbRegAppTableRecord
  2
ACAD
 70
     0
  0
APPID
  5
9E
330
9
100
AcDbSymbolTableRecord
100
AcDbRegAppTableRecord
  2
ACAD_PSEXT
 70
     0
  0
APPID
  5
133
330
9
100
AcDbSymbolTableRecord
100
AcDbRegAppTableRecord
  2
AcadAnnoPO
 70
     0
  0
APPID
  5
134
330
9
100
AcDbSymbolTableRecord
100
AcDbRegAppTableRecord
  2
AcadAnnotative
 70
     0
  0
APPID
  5
135
330
9
100
AcDbSymbolTableRecord
100
AcDbRegAppTableRecord
  2
ACAD_DSTYLE_DIMJAG
 70
     0
  0
APPID
  5
136
330
9
100
AcDbSymbolTableRecord
100
AcDbRegAppTableRecord
  2
ACAD_DSTYLE_DIMTALN
 70
     0
  0
APPID
  5
165
330
9
100
AcDbSymbolTableRecord
100
AcDbRegAppTableRecord
  2
ACAD_MLEADERVER
 70
     0
  0
APPID
  5
2C4
330
9
100
AcDbSymbolTableRecord
100
AcDbRegAppTableRecord
  2
ASO_SCHRAFF
 70
     0
  0
APPID
  5
3DE
330
9
100
AcDbSymbolTableRecord
100
AcDbRegAppTableRecord
  2
AcAecLayerStandard
 70
     0
  0
APPID
  5
7DE
330
9
100
AcDbSymbolTableRecord
100
AcDbRegAppTableRecord
  2
ACAD_EXEMPT_FROM_CAD_STANDARDS
 70
     0
  0
APPID
  5
948
330
9
100
AcDbSymbolTableRecord
100
AcDbRegAppTableRecord
  2
ACAD_DSTYLE_DIMBREAK
 70
     0
  0
APPID
  5
1D0A
330
9
100
AcDbSymbolTableRecord
100
AcDbRegAppTableRecord
  2
AcadAnnotativeDecomposition
 70
     0
  0
APPID
  5
20FD
330
9
100
AcDbSymbolTableRecord
100
AcDbRegAppTableRecord
  2
AcDbAttr
 70
     0
  0
ENDTAB
  0
TABLE
  2
DIMSTYLE
  5
A
330
0
100
AcDbSymbolTable
 70
     1
100
AcDbDimStyleTable
 71
     1
340
949
  0
DIMSTYLE
105
949
330
A
100
AcDbSymbolTableRecord
100
AcDbDimStyleTableRecord
  2
Solbet
 70
     0
 41
2.5
 42
0.0
 43
3.75
 44
1.25
 73
     0
 74
     0
 77
     1
 78
     8
140
2.5
141
2.5
143
0.03937007874016
147
0.625
171
     3
172
     1
271
     2
272
     2
274
     3
278
    44
283
     0
284
     8
340
7D9
1001
ACAD_DSTYLE_DIMBREAK
1070
   391
1040
3.75
1001
ACAD_DSTYLE_DIMJAG
1070
   388
1040
1.5
1001
ACAD_DSTYLE_DIMTALN
1070
   392
1070
     0
  0
ENDTAB
  0
TABLE
  2
BLOCK_RECORD
  5
1
330
0
100
AcDbSymbolTable
 70
     9
  0
BLOCK_RECORD
  5
1F
102
{ACAD_XDICTIONARY
360
4A3
102
}
330
1
100
AcDbSymbolTableRecord
100
AcDbBlockTableRecord
  2
*Model_Space
340
22
  0
BLOCK_RECORD
  5
D2
330
1
100
AcDbSymbolTableRecord
100
AcDbBlockTableRecord
  2
*Paper_Space
340
D3
  0
BLOCK_RECORD
  5
D6
330
1
100
AcDbSymbolTableRecord
100
AcDbBlockTableRecord
  2
*Paper_Space0
340
D7
  0
BLOCK_RECORD
  5
958
330
1
100
AcDbSymbolTableRecord
100
AcDbBlockTableRecord
  2
_DotSmall
340
0
102
{BLKREFS
331
279F
331
27A2
331
27A5
331
27A8
102
}
  0
BLOCK_RECORD
  5
2704
102
{ACAD_XDICTIONARY
360
270F
102
}
330
1
100
AcDbSymbolTableRecord
100
AcDbBlockTableRecord
  2
SOLBET_Bloczek_OPTIMAL_120x240x590_brak_PRA
340
0
1001
ACAD
1000
DesignCenter Data
1002
{
1070
     1
1070
     4
1002
}
  0
BLOCK_RECORD
  5
2730
102
{ACAD_XDICTIONARY
360
273A
102
}
330
1
100
AcDbSymbolTableRecord
100
AcDbBlockTableRecord
  2
SOLBET_Nadproze_200_12_2000x240x120_PRA
340
0
1001
ACAD
1000
DesignCenter Data
1002
{
1070
     1
1070
     4
1002
}
  0
BLOCK_RECORD
  5
27AA
330
1
100
AcDbSymbolTableRecord
100
AcDbBlockTableRecord
  2
SOFI-VERLI
340
0
102
{BLKREFS
331
27C6
102
}
  0
BLOCK_RECORD
  5
27B0
330
1
100
AcDbSymbolTableRecord
100
AcDbBlockTableRecord
  2
SOFI-VERRE
340
0
102
{BLKREFS
331
27C5
102
}
  0
BLOCK_RECORD
  5
28BF
102
{ACAD_XDICTIONARY
360
28CA
102
}
330
1
100
AcDbSymbolTableRecord
100
AcDbBlockTableRecord
  2
SOLBET_Bloczek_Optimal_120x240x590_G_KG700_PRA
340
0
102
{BLKREFS
331
28CE
102
}
1001
ACAD
1000
DesignCenter Data
1002
{
1070
     1
1070
     4
1002
}
  0
BLOCK_RECORD
  5
28E4
102
{ACAD_XDICTIONARY
360
28F5
102
}
330
1
100
AcDbSymbolTableRecord
100
AcDbBlockTableRecord
  2
SOLBET_Nadproze_120x240x2000_zz_PRA
340
0
102
{BLKREFS
331
28F9
102
}
1001
ACAD
1000
DesignCenter Data
1002
{
1070
     1
1070
     4
1002
}
  0
ENDTAB
  0
ENDSEC
  0
SECTION
  2
BLOCKS
  0
BLOCK
  5
20
330
1F
100
AcDbEntity
  8
0
100
AcDbBlockBegin
  2
*Model_Space
 70
     0
 10
0.0
 20
0.0
 30
0.0
  3
*Model_Space
  1

  0
ENDBLK
  5
21
330
1F
100
AcDbEntity
  8
0
100
AcDbBlockEnd
  0
BLOCK
  5
D4
330
D2
100
AcDbEntity
 67
     1
  8
0
100
AcDbBlockBegin
  2
*Paper_Space
 70
     0
 10
0.0
 20
0.0
 30
0.0
  3
*Paper_Space
  1

  0
ENDBLK
  5
D5
330
D2
100
AcDbEntity
 67
     1
  8
0
100
AcDbBlockEnd
  0
BLOCK
  5
D8
330
D6
100
AcDbEntity
 67
     1
  8
0
100
AcDbBlockBegin
  2
*Paper_Space0
 70
     0
 10
0.0
 20
0.0
 30
0.0
  3
*Paper_Space0
  1

  0
ENDBLK
  5
D9
330
D6
100
AcDbEntity
 67
     1
  8
0
100
AcDbBlockEnd
  0
BLOCK
  5
95A
330
958
100
AcDbEntity
  8
0
100
AcDbBlockBegin
  2
_DotSmall
 70
     0
 10
0.0
 20
0.0
 30
0.0
  3
_DotSmall
  1

  0
LWPOLYLINE
  5
959
330
958
100
AcDbEntity
  8
0
  6
ByBlock
 62
     0
100
AcDbPolyline
 90
        2
 70
     1
 43
0.5
 10
-0.0625
 20
0.0
 42
1.0
 10
0.0625
 20
0.0
 42
1.0
  0
ENDBLK
  5
95B
330
958
100
AcDbEntity
  8
0
100
AcDbBlockEnd
  0
BLOCK
  5
2711
330
2704
100
AcDbEntity
  8
0
100
AcDbBlockBegin
  2
SOLBET_Bloczek_OPTIMAL_120x240x590_brak_PRA
 70
     2
 10
0.0
 20
0.0
 30
0.0
  3
SOLBET_Bloczek_OPTIMAL_120x240x590_brak_PRA
  1

  0
ATTDEF
  5
2705
330
2704
100
AcDbEntity
  8
SOLBET_Wymiary_Opisy
100
AcDbText
 10
-0.000000150103233
 20
2.598190964365766
 30
0.0
 40
0.5444803754078297
  1
120x240x590
  7
Solbet_1
100
AcDbAttributeDefinition
  3

  2
WYMIARY
 70
     3
1001
AcDbAttr
1070
     0
1070
     1
  0
ATTDEF
  5
2706
330
2704
100
AcDbEntity
  8
SOLBET_Wymiary_Opisy
100
AcDbText
 10
-0.000000150103233
 20
1.767436344358767
 30
0.0
 40
0.5444803754078297
  1
400, 600, 700
  7
Solbet_1
100
AcDbAttributeDefinition
  3

  2
KLASA_GĘSTOŚCI
 70
     9
1001
AcDbAttr
1070
     0
1070
     1
  0
ATTDEF
  5
2707
330
2704
100
AcDbEntity
  8
SOLBET_Wymiary_Opisy
100
AcDbText
 10
-0.0000000264364354
 20
0.1344924945601741
 30
0.0
 40
0.5444803754078297
  1
SOLBET
  7
Solbet_1
100
AcDbAttributeDefinition
  3

  2
FIRMA
 70
     3
1001
AcDbAttr
1070
     0
1070
     1
  0
ATTDEF
  5
2708
330
2704
100
AcDbEntity
  8
SOLBET_Wymiary_Opisy
100
AcDbText
 10
-0.000000150103233
 20
4.262595413219882
 30
0.0
 40
0.5444803754078297
  1
Bloczek
  7
Solbet_1
100
AcDbAttributeDefinition
  3
Nazwa
  2
NAZWA
 70
     3
1001
AcDbAttr
1070
     0
1070
     1
  0
ATTDEF
  5
2709
330
2704
100
AcDbEntity
  8
SOLBET_Wymiary_Opisy
100
AcDbText
 10
-0.000000150103233
 20
3.417269806407621
 30
0.0
 40
0.5444803754078297
  1
SOLBET OPTIMAL
  7
Solbet_1
100
AcDbAttributeDefinition
  3

  2
SYSTEM
 70
     3
1001
AcDbAttr
1070
     0
1070
     1
  0
ATTDEF
  5
270A
330
2704
100
AcDbEntity
  8
SOLBET_Wymiary_Opisy
100
AcDbText
 10
-0.0000000264364354
 20
0.95799553093567
 30
0.0
 40
0.5444803754078297
  1
Prawo
  7
Solbet_1
100
AcDbAttributeDefinition
  3

  2
WIDOK
 70
    11
1001
AcDbAttr
1070
     0
1070
     1
  0
LINE
  5
270B
330
2704
100
AcDbEntity
  8
SOLBET_Bloczki
100
AcDbLine
 10
5.999999849896539
 20
0.0000000056816134
 30
0.0
 11
5.999999849896767
 21
12.00000000568173
 31
0.0
  0
LINE
  5
270C
330
2704
100
AcDbEntity
  8
SOLBET_Bloczki
100
AcDbLine
 10
5.999999849896767
 20
12.00000000568173
 30
0.0
 11
-0.000000150103233
 21
12.00000000568173
 31
0.0
  0
LINE
  5
270D
330
2704
100
AcDbEntity
  8
SOLBET_Bloczki
100
AcDbLine
 10
-0.000000150103233
 20
12.00000000568173
 30
0.0
 11
-0.000000150103233
 21
0.0000000056818408
 31
0.0
  0
LINE
  5
270E
330
2704
100
AcDbEntity
  8
SOLBET_Bloczki
100
AcDbLine
 10
-0.000000150103233
 20
0.0000000056818408
 30
0.0
 11
5.999999849896539
 21
0.0000000056817271
 31
0.0
  0
ENDBLK
  5
2712
330
2704
100
AcDbEntity
  8
0
100
AcDbBlockEnd
  0
BLOCK
  5
273C
330
2730
100
AcDbEntity
  8
0
100
AcDbBlockBegin
  2
SOLBET_Nadproze_200_12_2000x240x120_PRA
 70
     2
 10
0.0
 20
0.0
 30
0.0
  3
SOLBET_Nadproze_200_12_2000x240x120_PRA
  1

  0
ATTDEF
  5
2731
330
2730
100
AcDbEntity
  8
SOLBET_Wymiary_Opisy
100
AcDbText
 10
-0.0000002754209163
 20
4.914367003308234
 30
0.0
 40
0.9913121336814832
  1
2000x240x120
  7
Solbet_1
100
AcDbAttributeDefinition
  3

  2
WYMIARY
 70
     3
1001
AcDbAttr
1070
     0
1070
     1
  0
ATTDEF
  5
2732
330
2730
100
AcDbEntity
  8
SOLBET_Wymiary_Opisy
100
AcDbText
 10
0.0000001377104581
 20
3.269569171638422
 30
0.0
 40
0.9913121336814832
  1
25
  7
Solbet_1
100
AcDbAttributeDefinition
  3

  2
DŁUGOŚĆ_PODPARCIA_2
 70
    11
1001
AcDbAttr
1070
     0
1070
     1
  0
ATTDEF
  5
2733
330
2730
100
AcDbEntity
  8
SOLBET_Wymiary_Opisy
100
AcDbText
 10
0.0000001377104581
 20
0.2448647622976432
 30
0.0
 40
0.9913121336814832
  1
SOLBET
  7
Solbet_1
100
AcDbAttributeDefinition
  3

  2
FIRMA
 70
     3
1001
AcDbAttr
1070
     0
1070
     1
  0
ATTDEF
  5
2734
330
2730
100
AcDbEntity
  8
SOLBET_Wymiary_Opisy
100
AcDbText
 10
-0.0000002754209163
 20
6.505718915794942
 30
0.0
 40
0.9913121336814832
  1
Nadproże 200/12
  7
Solbet_1
100
AcDbAttributeDefinition
  3
Nazwa
  2
NAZWA
 70
     3
1001
AcDbAttr
1070
     0
1070
     1
  0
ATTDEF
  5
2735
330
2730
100
AcDbEntity
  8
SOLBET_Wymiary_Opisy
100
AcDbText
 10
0.0000001377104581
 20
1.744181521824755
 30
0.0
 40
0.9913121336814832
  1
Prawo
  7
Solbet_1
100
AcDbAttributeDefinition
  3

  2
WIDOK
 70
    11
1001
AcDbAttr
1070
     0
1070
     1
  0
LINE
  5
2736
330
2730
100
AcDbEntity
  8
SOLBET_Bloczki
100
AcDbLine
 10
6.000000284205952
 20
12.00000009473342
 30
0.0
 11
6.000000284205952
 21
0.0000000947327408
 31
0.0
  0
LINE
  5
2737
330
2730
100
AcDbEntity
  8
SOLBET_Bloczki
100
AcDbLine
 10
6.000000284205952
 20
0.0000000947327408
 30
0.0
 11
0.000000284205953
 21
0.0000000947327408
 31
0.0
  0
LINE
  5
2738
330
2730
100
AcDbEntity
  8
SOLBET_Bloczki
100
AcDbLine
 10
0.000000284205953
 20
0.0000000947327408
 30
0.0
 11
0.000000284205953
 21
12.00000009473342
 31
0.0
  0
LINE
  5
2739
330
2730
100
AcDbEntity
  8
SOLBET_Bloczki
100
AcDbLine
 10
0.000000284205953
 20
12.00000009473342
 30
0.0
 11
6.000000284205952
 21
12.00000009473342
 31
0.0
  0
ENDBLK
  5
273D
330
2730
100
AcDbEntity
  8
0
100
AcDbBlockEnd
  0
BLOCK
  5
27AB
330
27AA
100
AcDbEntity
  8
0
100
AcDbBlockBegin
  2
SOFI-VERLI
 70
     0
 10
0.0
 20
0.0
 30
0.0
  3
SOFI-VERLI
  1
SOFI-VERLI
  0
LINE
  5
27AC
330
27AA
100
AcDbEntity
  8
0
  6
ByBlock
 62
     0
100
AcDbLine
 10
-5.0
 20
0.0
 30
0.0
 11
5.0
 21
0.0
 31
0.0
  0
LINE
  5
27AD
330
27AA
100
AcDbEntity
  8
0
  6
ByBlock
 62
     0
100
AcDbLine
 10
3.535
 20
3.535
 30
0.0
 11
-3.535
 21
-3.535
 31
0.0
  0
LINE
  5
27AE
330
27AA
100
AcDbEntity
  8
0
  6
ByBlock
 62
     0
100
AcDbLine
 10
0.0
 20
20.0
 30
0.0
 11
0.0
 21
-8.5
 31
0.0
  0
ENDBLK
  5
27AF
330
27AA
100
AcDbEntity
  8
0
100
AcDbBlockEnd
  0
BLOCK
  5
27B1
330
27B0
100
AcDbEntity
  8
0
100
AcDbBlockBegin
  2
SOFI-VERRE
 70
     0
 10
0.0
 20
0.0
 30
0.0
  3
SOFI-VERRE
  1
SOFI-VERRE
  0
LINE
  5
27B2
330
27B0
100
AcDbEntity
  8
0
  6
ByBlock
 62
     0
100
AcDbLine
 10
-5.0
 20
0.0
 30
0.0
 11
5.0
 21
0.0
 31
0.0
  0
LINE
  5
27B3
330
27B0
100
AcDbEntity
  8
0
  6
ByBlock
 62
     0
100
AcDbLine
 10
3.535
 20
3.535
 30
0.0
 11
-3.535
 21
-3.535
 31
0.0
  0
LINE
  5
27B4
330
27B0
100
AcDbEntity
  8
0
  6
ByBlock
 62
     0
100
AcDbLine
 10
0.0
 20
-20.0
 30
0.0
 11
0.0
 21
8.5
 31
0.0
  0
ENDBLK
  5
27B5
330
27B0
100
AcDbEntity
  8
0
100
AcDbBlockEnd
  0
BLOCK
  5
28CC
330
28BF
100
AcDbEntity
  8
0
100
AcDbBlockBegin
  2
SOLBET_Bloczek_Optimal_120x240x590_G_KG700_PRA
 70
     2
 10
0.0
 20
0.0
 30
0.0
  3
SOLBET_Bloczek_Optimal_120x240x590_G_KG700_PRA
  1

  0
ATTDEF
  5
28C0
330
28BF
100
AcDbEntity
  8
SOLBET_Wymiary_Opisy
100
AcDbText
 10
-0.000000150103233
 20
2.598190964365766
 30
0.0
 40
0.5444803754078297
  1
120x240x590
  7
Solbet_1
100
AcDbAttributeDefinition
  3

  2
WYMIARY
 70
    11
1001
AcDbAttr
1070
     0
1070
     1
  0
ATTDEF
  5
28C1
330
28BF
100
AcDbEntity
  8
SOLBET_Wymiary_Opisy
100
AcDbText
 10
-0.000000150103233
 20
1.767436344358767
 30
0.0
 40
0.5444803754078297
  1
700
  7
Solbet_1
100
AcDbAttributeDefinition
  3

  2
KLASA_GĘSTOŚCI
 70
    11
1001
AcDbAttr
1070
     0
1070
     1
  0
ATTDEF
  5
28C2
330
28BF
100
AcDbEntity
  8
SOLBET_Wymiary_Opisy
100
AcDbText
 10
-0.0000000264364354
 20
0.1344924945601741
 30
0.0
 40
0.5444803754078297
  1
SOLBET
  7
Solbet_1
100
AcDbAttributeDefinition
  3

  2
FIRMA
 70
    11
1001
AcDbAttr
1070
     0
1070
     1
  0
ATTDEF
  5
28C3
330
28BF
100
AcDbEntity
  8
SOLBET_Wymiary_Opisy
100
AcDbText
 10
-0.000000150103233
 20
4.262595413219882
 30
0.0
 40
0.5444803754078297
  1
Bloczek
  7
Solbet_1
100
AcDbAttributeDefinition
  3
Nazwa
  2
NAZWA
 70
    11
1001
AcDbAttr
1070
     0
1070
     1
  0
ATTDEF
  5
28C4
330
28BF
100
AcDbEntity
  8
SOLBET_Wymiary_Opisy
100
AcDbText
 10
-0.000000150103233
 20
3.417269806407621
 30
0.0
 40
0.5444803754078297
  1
SOLBET Optimal
  7
Solbet_1
100
AcDbAttributeDefinition
  3

  2
SYSTEM
 70
    11
1001
AcDbAttr
1070
     0
1070
     1
  0
ATTDEF
  5
28C5
330
28BF
100
AcDbEntity
  8
SOLBET_Wymiary_Opisy
100
AcDbText
 10
-0.0000000264364354
 20
0.95799553093567
 30
0.0
 40
0.5444803754078297
  1
Prawo
  7
Solbet_1
100
AcDbAttributeDefinition
  3

  2
WIDOK
 70
    11
1001
AcDbAttr
1070
     0
1070
     1
  0
LINE
  5
28C6
330
28BF
100
AcDbEntity
  8
SOLBET_Bloczki
100
AcDbLine
 10
5.999999849896539
 20
0.0000000056816134
 30
0.0
 11
5.999999849896767
 21
12.00000000568173
 31
0.0
  0
LINE
  5
28C7
330
28BF
100
AcDbEntity
  8
SOLBET_Bloczki
100
AcDbLine
 10
5.999999849896767
 20
12.00000000568173
 30
0.0
 11
-0.000000150103233
 21
12.00000000568173
 31
0.0
  0
LINE
  5
28C8
330
28BF
100
AcDbEntity
  8
SOLBET_Bloczki
100
AcDbLine
 10
-0.000000150103233
 20
12.00000000568173
 30
0.0
 11
-0.000000150103233
 21
0.0000000056818408
 31
0.0
  0
LINE
  5
28C9
330
28BF
100
AcDbEntity
  8
SOLBET_Bloczki
100
AcDbLine
 10
-0.000000150103233
 20
0.0000000056818408
 30
0.0
 11
5.999999849896539
 21
0.0000000056817271
 31
0.0
  0
ENDBLK
  5
28CD
330
28BF
100
AcDbEntity
  8
0
100
AcDbBlockEnd
  0
BLOCK
  5
28F7
330
28E4
100
AcDbEntity
  8
0
100
AcDbBlockBegin
  2
SOLBET_Nadproze_120x240x2000_zz_PRA
 70
     2
 10
0.0
 20
0.0
 30
0.0
  3
SOLBET_Nadproze_120x240x2000_zz_PRA
  1

  0
ATTDEF
  5
28E5
330
28E4
100
AcDbEntity
  8
SOLBET_Wymiary_Opisy
100
AcDbText
 10
-0.0000002754209163
 20
4.914367003308234
 30
0.0
 40
0.9913121336814832
  1
120x240x2000
  7
Solbet_1
100
AcDbAttributeDefinition
  3

  2
WYMIARY
 70
    11
1001
AcDbAttr
1070
     0
1070
     1
  0
ATTDEF
  5
28E6
330
28E4
100
AcDbEntity
  8
SOLBET_Wymiary_Opisy
100
AcDbText
 10
0.0000001377104581
 20
3.269569171638422
 30
0.0
 40
0.9913121336814832
  1
25
  7
Solbet_1
100
AcDbAttributeDefinition
  3

  2
DŁUGOŚĆ_PODPARCIA_2
 70
    11
1001
AcDbAttr
1070
     0
1070
     1
  0
ATTDEF
  5
28E7
330
28E4
100
AcDbEntity
  8
SOLBET_Wymiary_Opisy
100
AcDbText
 10
0.0000001377104581
 20
0.2448647622976432
 30
0.0
 40
0.9913121336814832
  1
SOLBET
  7
Solbet_1
100
AcDbAttributeDefinition
  3

  2
FIRMA
 70
    11
1001
AcDbAttr
1070
     0
1070
     1
  0
ATTDEF
  5
28E8
330
28E4
100
AcDbEntity
  8
SOLBET_Wymiary_Opisy
100
AcDbText
 10
-0.0000002754209163
 20
6.505718915794942
 30
0.0
 40
0.9913121336814832
  1
Nadproże 200/12
  7
Solbet_1
100
AcDbAttributeDefinition
  3
Nazwa
  2
NAZWA
 70
    11
1001
AcDbAttr
1070
     0
1070
     1
  0
ATTDEF
  5
28E9
330
28E4
100
AcDbEntity
  8
SOLBET_Wymiary_Opisy
100
AcDbText
 10
0.0000001377104581
 20
1.744181521824755
 30
0.0
 40
0.9913121336814832
  1
Prawo
  7
Solbet_1
100
AcDbAttributeDefinition
  3

  2
WIDOK
 70
    11
1001
AcDbAttr
1070
     0
1070
     1
  0
LINE
  5
28EA
330
28E4
100
AcDbEntity
  8
SOLBET_Bloczki
100
AcDbLine
 10
6.000000284205952
 20
12.00000009473342
 30
0.0
 11
6.000000284205952
 21
0.0000000947327408
 31
0.0
  0
LINE
  5
28EB
330
28E4
100
AcDbEntity
  8
SOLBET_Bloczki
100
AcDbLine
 10
6.000000284205952
 20
0.0000000947327408
 30
0.0
 11
0.000000284205953
 21
0.0000000947327408
 31
0.0
  0
LINE
  5
28EC
330
28E4
100
AcDbEntity
  8
SOLBET_Bloczki
100
AcDbLine
 10
0.000000284205953
 20
0.0000000947327408
 30
0.0
 11
0.000000284205953
 21
12.00000009473342
 31
0.0
  0
LINE
  5
28ED
330
28E4
100
AcDbEntity
  8
SOLBET_Bloczki
100
AcDbLine
 10
0.000000284205953
 20
12.00000009473342
 30
0.0
 11
6.000000284205952
 21
12.00000009473342
 31
0.0
  0
LWPOLYLINE
  5
28EE
330
28E4
100
AcDbEntity
  8
SOLBET_Zbrojenie_Konstrukcja
  6
Continuous
100
AcDbPolyline
 90
        4
 70
     0
 43
0.0
 10
5.249999608857251
 20
10.75000009473285
 10
5.249999608857251
 20
0.7500000947327408
 10
0.7499996088572516
 20
0.7500000947327408
 10
0.7499996088572516
 20
10.75000009473285
  0
LWPOLYLINE
  5
28EF
330
28E4
100
AcDbEntity
  8
SOLBET_Zbrojenie_Konstrukcja
  6
Continuous
100
AcDbPolyline
 90
        2
 70
     1
 43
0.3
 10
5.104413140198403
 20
10.42241408716734
 42
-1.0
 10
4.804413140198221
 20
10.42241408716734
 42
-1.0
  0
LWPOLYLINE
  5
28F0
330
28E4
100
AcDbEntity
  8
SOLBET_Zbrojenie_Konstrukcja
  6
Continuous
100
AcDbPolyline
 90
        2
 70
     1
 43
0.3
 10
0.8955860775163273
 20
10.42241408716734
 42
1.0
 10
1.195586077516281
 20
10.42241408716734
 42
1.0
  0
LWPOLYLINE
  5
28F1
330
28E4
100
AcDbEntity
  8
SOLBET_Zbrojenie_Konstrukcja
  6
Continuous
100
AcDbPolyline
 90
        2
 70
     1
 43
0.3
 10
5.104413140198403
 20
2.418619297104669
 42
-1.0
 10
4.804413140198221
 20
2.418619297104669
 42
-1.0
  0
LWPOLYLINE
  5
28F2
330
28E4
100
AcDbEntity
  8
SOLBET_Zbrojenie_Konstrukcja
  6
Continuous
100
AcDbPolyline
 90
        2
 70
     1
 43
0.3
 10
0.8955860775163273
 20
2.418619297104669
 42
1.0
 10
1.195586077516281
 20
2.418619297104669
 42
1.0
  0
LWPOLYLINE
  5
28F3
330
28E4
100
AcDbEntity
  8
SOLBET_Zbrojenie_Konstrukcja
  6
Continuous
100
AcDbPolyline
 90
        2
 70
     1
 43
0.3
 10
4.185084465133513
 20
1.061575342116157
 42
-1.0
 10
3.885084465133559
 20
1.061575342116157
 42
-1.0
  0
LWPOLYLINE
  5
28F4
330
28E4
100
AcDbEntity
  8
SOLBET_Zbrojenie_Konstrukcja
  6
Continuous
100
AcDbPolyline
 90
        2
 70
     1
 43
0.3
 10
1.814914752580762
 20
1.061575342116157
 42
1.0
 10
2.114914752580943
 20
1.061575342116157
 42
1.0
  0
ENDBLK
  5
28F8
330
28E4
100
AcDbEntity
  8
0
100
AcDbBlockEnd
  0
ENDSEC
  0
SECTION
  2
ENTITIES
  0
LINE
  5
26CE
330
1F
100
AcDbEntity
  8
SOLBET_Wymiary_Opisy
 62
     1
100
AcDbLine
 10
118.4696136858023
 20
139.1158909399632
 30
0.0
 11
126.8402924611581
 21
139.1158909399632
 31
0.0
  0
LINE
  5
26CF
330
1F
100
AcDbEntity
  8
SOLBET_Tynki_Posadzki
100
AcDbLine
 10
126.1947446454199
 20
139.1158909399632
 30
0.0
 11
126.1947446454199
 21
177.387079463732
 31
0.0
  0
LINE
  5
26D2
330
1F
100
AcDbEntity
  8
SOLBET_Wymiary_Opisy
 62
     1
100
AcDbLine
 10
118.4696136858023
 20
177.387079463732
 30
0.0
 11
126.8402924611581
 21
177.387079463732
 31
0.0
  0
LINE
  5
26D8
330
1F
100
AcDbEntity
  8
SOLBET_Tynki_Posadzki
100
AcDbLine
 10
119.1947446454199
 20
139.1158909399632
 30
0.0
 11
119.1947446454199
 21
177.387079463732
 31
0.0
  0
LWPOLYLINE
  5
26F2
330
1F
100
AcDbEntity
  8
SOLBET_Ramka_05
100
AcDbPolyline
 90
        4
 70
     1
 43
0.0
 10
0.0
 20
0.0
 10
210.0
 20
0.0
 10
210.0
 20
297.0
 10
0.0
 20
297.0
  0
MTEXT
  5
26F3
102
{ACAD_XDICTIONARY
360
26F4
102
}
330
1F
100
AcDbEntity
  8
SOLBET_Wymiary_Opisy @ 1
100
AcDbMText
 10
13.20605258407704
 20
289.8967110907779
 30
0.0
 40
5.0
 41
124.2624847080697
 71
     1
 72
     5
  1
{\LDETAL 45\P}Uk\U+0142ad nadpro\U+017Cy SOLBET\Pw \U+015Bcianie 12cm
  7
Solbet_5
 73
     1
 44
1.0
1001
AcadAnnotative
1000
AnnotativeData
1002
{
1070
     1
1070
     0
1002
}
1001
ACAD
1000
MTEXTBEGIN
1070
    73
1070
     1
1070
    44
1040
1.0
1070
    74
1070
     0
1000
MTEXTEND
  0
LINE
  5
2722
330
1F
100
AcDbEntity
  8
SOLBET_Bloczki
100
AcDbLine
 10
125.6947446454198
 20
139.1158909399632
 30
0.0
 11
125.69474464542
 21
146.2514852018476
 31
0.0
  0
LINE
  5
2723
330
1F
100
AcDbEntity
  8
SOLBET_Bloczki
100
AcDbLine
 10
125.69474464542
 20
146.2514852018476
 30
0.0
 11
119.69474464542
 21
146.2514852018476
 31
0.0
  0
LINE
  5
2724
330
1F
100
AcDbEntity
  8
SOLBET_Bloczki
100
AcDbLine
 10
119.69474464542
 20
146.2514852018476
 30
0.0
 11
119.69474464542
 21
139.1158909399632
 31
0.0
  0
LINE
  5
272C
330
1F
100
AcDbEntity
  8
SOLBET_Bloczki
100
AcDbLine
 10
125.6947444953165
 20
170.2514852132111
 30
0.0
 11
125.6947444953166
 21
177.387079463732
 31
0.0
  0
LINE
  5
272E
330
1F
100
AcDbEntity
  8
SOLBET_Bloczki
100
AcDbLine
 10
119.6947444953167
 20
177.387079463732
 30
0.0
 11
119.6947444953167
 21
170.2514852132113
 31
0.0
  0
LINE
  5
272F
330
1F
100
AcDbEntity
  8
SOLBET_Bloczki
100
AcDbLine
 10
119.6947444953167
 20
170.2514852132113
 30
0.0
 11
125.6947444953165
 21
170.2514852132112
 31
0.0
  0
TEXT
  5
279D
330
1F
100
AcDbEntity
  8
SOLBET_Wymiary_Opisy
100
AcDbText
 10
64.23372033429178
 20
188.5257564462367
 30
0.0
 40
2.5
  1
   Bloczki SOLBET Optimal 12cm
  7
Solbet_2_5
100
AcDbText
  0
TEXT
  5
279E
330
1F
100
AcDbEntity
  8
SOLBET_Wymiary_Opisy
100
AcDbText
 10
64.1722135268551
 20
184.35908977957
 30
0.0
 40
2.5
  1
   na zaprawie SOLBET
  7
Solbet_2_5
100
AcDbText
  0
INSERT
  5
279F
330
1F
100
AcDbEntity
  8
SOLBET_Wymiary_Opisy
100
AcDbBlockReference
  2
_DotSmall
 10
124.3376637045643
 20
174.3081898617182
 30
0.0
 41
2.500000000000011
 42
2.5
 43
2.5
 50
319.0455010984251
1001
ACAD
1000
DSTYLE
1002
{
1070
   147
1040
0.625
1070
    77
1070
     1
1002
}
  0
LWPOLYLINE
  5
27A0
330
1F
100
AcDbEntity
  8
SOLBET_Wymiary_Opisy
100
AcDbPolyline
 90
        3
 70
     0
 43
0.0
 10
124.3376637045643
 20
174.3081898617182
 10
115.5408145585272
 20
181.9429176425156
 10
68.99138235725377
 20
181.9429176425156
1001
ACAD
1000
DSTYLE
1002
{
1070
   147
1040
0.625
1070
    77
1070
     1
1002
}
  0
TEXT
  5
27A1
330
1F
100
AcDbEntity
  8
SOLBET_Wymiary_Opisy
100
AcDbText
 10
85.59738822282815
 20
164.8127308850089
 30
0.0
 40
2.5
  1
  Nadproża SOLBET
  7
Solbet_2_5
100
AcDbText
  0
INSERT
  5
27A2
330
1F
100
AcDbEntity
  8
SOLBET_Wymiary_Opisy
100
AcDbBlockReference
  2
_DotSmall
 10
121.0377611462305
 20
157.686179245027
 30
0.0
 41
2.500000000000013
 42
2.5
 43
2.5
 50
329.8250848426779
1001
ACAD
1000
DSTYLE
1002
{
1070
   147
1040
0.625
1070
    77
1070
     1
1002
}
  0
LWPOLYLINE
  5
27A3
330
1F
100
AcDbEntity
  8
SOLBET_Wymiary_Opisy
100
AcDbPolyline
 90
        3
 70
     0
 43
0.0
 10
121.0377611462305
 20
157.686179245027
 10
115.5408145585272
 20
163.2624063638995
 10
89.16703152265961
 20
163.2624063638995
1001
ACAD
1000
DSTYLE
1002
{
1070
   147
1040
0.625
1070
    77
1070
     1
1002
}
  0
TEXT
  5
27A4
330
1F
100
AcDbEntity
  8
SOLBET_Wymiary_Opisy
100
AcDbText
 10
91.3672090003688
 20
155.8395659436647
 30
0.0
 40
2.5
  1
  Tynk SOLBET 
  7
Solbet_2_5
100
AcDbText
  0
INSERT
  5
27A5
330
1F
100
AcDbEntity
  8
SOLBET_Wymiary_Opisy
100
AcDbBlockReference
  2
_DotSmall
 10
126.1947446454199
 20
146.9522602590604
 30
0.0
 41
2.499999999999997
 42
2.5
 43
2.5
 50
325.1242428948846
1001
ACAD
1000
DSTYLE
1002
{
1070
   147
1040
0.625
1070
    77
1070
     1
1002
}
  0
LWPOLYLINE
  5
27A6
330
1F
100
AcDbEntity
  8
SOLBET_Wymiary_Opisy
100
AcDbPolyline
 90
        3
 70
     0
 43
0.0
 10
126.1947446454199
 20
146.9522602590604
 10
115.5408145585272
 20
154.3778451386668
 10
95.21183233832415
 20
154.3778451386668
1001
ACAD
1000
DSTYLE
1002
{
1070
   147
1040
0.625
1070
    77
1070
     1
1002
}
  0
TEXT
  5
27A7
330
1F
100
AcDbEntity
  8
SOLBET_Wymiary_Opisy
100
AcDbText
 10
86.65176190079591
 20
173.8275212161384
 30
0.0
 40
2.5
  1
     Tynk SOLBET 
  7
Solbet_2_5
100
AcDbText
  0
INSERT
  5
27A8
330
1F
100
AcDbEntity
  8
SOLBET_Wymiary_Opisy
100
AcDbBlockReference
  2
_DotSmall
 10
119.1947446454199
 20
168.3179613008683
 30
0.0
 41
2.49999999999998
 42
2.5
 43
2.5
 50
312.7035390291739
1001
ACAD
1000
DSTYLE
1002
{
1070
   147
1040
0.625
1070
    77
1070
     1
1002
}
  0
LWPOLYLINE
  5
27A9
330
1F
100
AcDbEntity
  8
SOLBET_Wymiary_Opisy
100
AcDbPolyline
 90
        3
 70
     0
 43
0.0
 10
119.1947446454199
 20
168.3179613008683
 10
115.5408145585272
 20
172.277196695029
 10
94.95674392462991
 20
172.277196695029
1001
ACAD
1000
DSTYLE
1002
{
1070
   147
1040
0.625
1070
    77
1070
     1
1002
}
  0
LINE
  5
27C4
330
1F
100
AcDbEntity
  8
SOLBET_Wymiary_Opisy
100
AcDbLine
 10
119.8697446454156
 20
133.6158909399759
 30
0.0
 11
125.519744645417
 21
133.6158909399759
 31
0.0
  0
INSERT
  5
27C5
330
1F
100
AcDbEntity
  8
SOLBET_Wymiary_Opisy
100
AcDbBlockReference
  2
SOFI-VERRE
 10
119.69474464542
 20
133.6158909399777
 30
0.0
 41
0.1750000000029104
 42
0.1749999999992724
 43
0.175
 50
180.0
  0
INSERT
  5
27C6
330
1F
100
AcDbEntity
  8
SOLBET_Wymiary_Opisy
100
AcDbBlockReference
  2
SOFI-VERLI
 10
125.6947446454127
 20
133.6158909399759
 30
0.0
 41
0.1750000000029104
 42
0.1749999999992724
 43
0.175
  0
TEXT
  5
27C7
330
1F
100
AcDbEntity
  8
SOLBET_Wymiary_Opisy
100
AcDbText
 10
121.1947446454163
 20
134.1158909399777
 30
0.0
 40
2.5
  1
12
  7
Solbet_2_5
 72
     1
 11
122.6947446454163
 21
135.3658909399777
 31
0.0
100
AcDbText
 73
     2
  0
POINT
  5
2827
330
1F
100
AcDbEntity
  8
SOLBET_Bloczki
100
AcDbPoint
 10
0.0
 20
0.0
 30
0.0
  0
INSERT
  5
28CE
330
1F
100
AcDbEntity
  8
SOLBET_Bloczki
100
AcDbBlockReference
  2
SOLBET_Bloczek_Optimal_120x240x590_G_KG700_PRA
 10
119.6947449296259
 20
158.251485296581
 30
0.0
  0
INSERT
  5
28F9
330
1F
100
AcDbEntity
  8
SOLBET_Bloczki
100
AcDbBlockReference
  2
SOLBET_Nadproze_120x240x2000_zz_PRA
 10
119.69474464542
 20
146.2514852018476
 30
0.0
  0
MTEXT
  5
292A
102
{ACAD_XDICTIONARY
360
292B
102
}
330
1F
100
AcDbEntity
  8
SOLBET_Wymiary_Opisy
100
AcDbMText
 10
176.9024892334916
 20
7.273150535415538
 30
0.0
 40
5.0
 41
0.0
 71
     1
 72
     5
  1
Skala 1:20
  7
Solbet_5
 73
     1
 44
1.0
1001
ACAD
1000
MTEXTBEGIN
1070
    73
1070
     1
1070
    44
1040
1.0
1070
    74
1070
     0
1000
MTEXTEND
1000
ACAD_MTEXT_DEFINED_HEIGHT_BEGIN
1070
    46
1040
5.395147572682731
1000
ACAD_MTEXT_DEFINED_HEIGHT_END
  0
LWPOLYLINE
  5
292D
330
1F
100
AcDbEntity
  8
SOLBET_Ramka_05
100
AcDbPolyline
 90
        4
 70
     1
 43
0.0
 10
173.8838231125778
 20
9.804221198935465
 10
210.0
 20
9.804221198935465
 10
210.0
 20
0.0
 10
173.8838231125779
 20
0.0
  0
ENDSEC
  0
SECTION
  2
OBJECTS
  0
DICTIONARY
  5
C
330
0
100
AcDbDictionary
281
     1
  3
ACAD_COLOR
350
6B
  3
ACAD_GROUP
350
D
  3
ACAD_LAYOUT
350
1A
  3
ACAD_MATERIAL
350
6A
  3
ACAD_MLEADERSTYLE
350
12D
  3
ACAD_MLINESTYLE
350
17
  3
ACAD_PLOTSETTINGS
350
19
  3
ACAD_PLOTSTYLENAME
350
E
  3
ACAD_SCALELIST
350
10C
  3
ACAD_TABLESTYLE
350
7E
  3
ACAD_VISUALSTYLE
350
EF
  3
ACDB_RECOMPOSE_DATA
350
15D
  3
AcDbVariableDictionary
350
5E
  3
DWGPROPS
350
294B
  0
DICTIONARY
  5
443
330
8
100
AcDbDictionary
280
     1
281
     1
  0
DICTIONARY
  5
3E5
330
2
100
AcDbDictionary
280
     1
281
     1
  3
ACAD_LAYERFILTERS
360
1883
  3
ACLYDICTIONARY
360
1882
  0
DICTIONARY
  5
13C
330
10
100
AcDbDictionary
280
     1
281
     1
  3
ADSK_XREC_LAYER_RECONCILED
360
3F4
  0
DICTIONARY
  5
403
330
3DD
100
AcDbDictionary
280
     1
281
     1
  3
ADSK_XREC_LAYER_RECONCILED
360
404
  0
DICTIONARY
  5
405
330
3DF
100
AcDbDictionary
280
     1
281
     1
  3
ADSK_XREC_LAYER_RECONCILED
360
406
  0
DICTIONARY
  5
40F
330
3E4
100
AcDbDictionary
280
     1
281
     1
  3
ADSK_XREC_LAYER_RECONCILED
360
410
  0
DICTIONARY
  5
411
330
3E8
100
AcDbDictionary
280
     1
281
     1
  3
ADSK_XREC_LAYER_RECONCILED
360
412
  0
DICTIONARY
  5
289D
330
289C
100
AcDbDictionary
280
     1
281
     1
  3
ASDK_XREC_ANNO_SCALE_INFO
360
289E
  0
DICTIONARY
  5
4A3
330
1F
100
AcDbDictionary
280
     1
281
     1
  3
ACAD_SORTENTS
360
4A4
  0
DICTIONARY
  5
270F
330
2704
100
AcDbDictionary
280
     1
281
     1
  3
ACAD_SORTENTS
360
2710
  0
DICTIONARY
  5
273A
330
2730
100
AcDbDictionary
280
     1
281
     1
  3
ACAD_SORTENTS
360
273B
  0
DICTIONARY
  5
28CA
330
28BF
100
AcDbDictionary
280
     1
281
     1
  3
ACAD_SORTENTS
360
28CB
  0
DICTIONARY
  5
28F5
330
28E4
100
AcDbDictionary
280
     1
281
     1
  3
ACAD_SORTENTS
360
28F6
  0
DICTIONARY
  5
26F4
330
26F3
100
AcDbDictionary
280
     1
281
     1
  3
ACAD_MTEXT_RT
360
2958
  3
AcDbContextDataManager
360
26F5
  0
DICTIONARY
  5
292B
330
292A
100
AcDbDictionary
280
     1
281
     1
  3
ACAD_MTEXT_2008_RT
360
292C
  0
DICTIONARY
  5
6B
102
{ACAD_REACTORS
330
C
102
}
330
C
100
AcDbDictionary
281
     1
  0
DICTIONARY
  5
D
102
{ACAD_REACTORS
330
C
102
}
330
C
100
AcDbDictionary
281
     1
  0
DICTIONARY
  5
1A
102
{ACAD_REACTORS
330
C
102
}
330
C
100
AcDbDictionary
281
     1
  3
Arkusz1
350
D3
  3
Arkusz2
350
D7
  3
Model
350
22
  0
DICTIONARY
  5
6A
102
{ACAD_REACTORS
330
C
102
}
330
C
100
AcDbDictionary
281
     1
  3
ByBlock
350
ED
  3
ByLayer
350
EC
  3
Global
350
EE
  0
DICTIONARY
  5
12D
102
{ACAD_REACTORS
330
C
102
}
330
C
100
AcDbDictionary
281
     1
  3
Standard
350
23DB
  0
DICTIONARY
  5
17
102
{ACAD_REACTORS
330
C
102
}
330
C
100
AcDbDictionary
281
     1
  3
SOLBET_IZOLACJA
350
7E9
  3
Standard
350
18
  0
DICTIONARY
  5
19
102
{ACAD_REACTORS
330
C
102
}
330
C
100
AcDbDictionary
281
     1
  0
ACDBDICTIONARYWDFLT
  5
E
102
{ACAD_REACTORS
330
C
102
}
330
C
100
AcDbDictionary
281
     1
  3
Normal
350
F
100
AcDbDictionaryWithDefault
340
F
  0
DICTIONARY
  5
10C
102
{ACAD_REACTORS
330
C
102
}
330
C
100
AcDbDictionary
281
     1
  3
A0
350
10D
  3
A1
350
188
  3
A2
350
189
  3
A3
350
18A
  3
A4
350
18B
  3
A5
350
18C
  3
A6
350
18D
  3
A7
350
18E
  3
A8
350
18F
  3
A9
350
190
  3
B0
350
191
  3
B1
350
192
  3
B2
350
193
  3
B3
350
194
  3
B4
350
195
  3
B5
350
196
  3
B6
350
197
  3
B7
350
198
  3
B8
350
199
  3
B9
350
19A
  3
C0
350
19B
  3
C1
350
19C
  3
C2
350
19D
  3
C3
350
19E
  3
C4
350
19F
  3
C5
350
1A0
  3
C6
350
1A1
  3
C7
350
1A2
  3
C8
350
1A3
  3
C9
350
1A4
  3
D0
350
1A5
  3
D1
350
1A6
  3
D2
350
1A7
  0
DICTIONARY
  5
7E
102
{ACAD_REACTORS
330
C
102
}
330
C
100
AcDbDictionary
281
     1
  3
Standard
350
7F
  0
DICTIONARY
  5
EF
102
{ACAD_REACTORS
330
C
102
}
330
C
100
AcDbDictionary
281
     1
  3
2dWireframe
350
F5
  3
3D Hidden
350
F7
  3
3dWireframe
350
F6
  3
Basic
350
F4
  3
Brighten
350
FB
  3
ColorChange
350
FF
  3
Conceptual
350
F8
  3
Dim
350
FA
  3
Facepattern
350
FE
  3
Flat
350
F0
  3
FlatWithEdges
350
F1
  3
Gouraud
350
F2
  3
GouraudWithEdges
350
F3
  3
Linepattern
350
FD
  3
Realistic
350
F9
  3
Thicken
350
FC
  0
XRECORD
  5
15D
102
{ACAD_REACTORS
330
C
102
}
330
C
100
AcDbXrecord
280
     1
 90
        1
330
7F
330
26F3
  0
DICTIONARY
  5
5E
102
{ACAD_REACTORS
330
C
102
}
330
C
100
AcDbDictionary
281
     1
  3
CANNOSCALE
350
146
  3
CMLEADERSTYLE
350
145
  3
CTABLESTYLE
350
84
  3
DIMASSOC
350
5F
  3
HIDETEXT
350
63
  3
INDEXCTL
350
466
  3
LIGHTINGUNITS
350
464
  3
MSLTSCALE
350
463
  3
PSOLHEIGHT
350
294A
  3
PSOLWIDTH
350
2949
  3
SORTENTS
350
465
  0
XRECORD
  5
294B
102
{ACAD_REACTORS
330
C
102
}
330
C
100
AcDbXrecord
280
     1
  1
DWGPROPS COOKIE
  2

  3

  4

  6

  7

  8
Olus
  9

300
=
301
=
302
=
303
=
304
=
305
=
306
=
307
=
308
=
309
=
 40
0.4801286805555556
 41
2454690.075573148
 42
2454848.873057454
  1

 90
        0
  0
DICTIONARY
  5
1883
102
{ACAD_REACTORS
330
3E5
102
}
330
3E5
100
AcDbDictionary
281
     1
  0
DICTIONARY
  5
1882
102
{ACAD_REACTORS
330
3E5
102
}
330
3E5
100
AcDbDictionary
281
     1
1001
ACAD
1000
<All
  0
XRECORD
  5
3F4
102
{ACAD_REACTORS
330
13C
102
}
330
13C
100
AcDbXrecord
280
     1
290
     1
  0
XRECORD
  5
404
102
{ACAD_REACTORS
330
403
102
}
330
403
100
AcDbXrecord
280
     1
290
     1
  0
XRECORD
  5
406
102
{ACAD_REACTORS
330
405
102
}
330
405
100
AcDbXrecord
280
     1
290
     1
  0
XRECORD
  5
410
102
{ACAD_REACTORS
330
40F
102
}
330
40F
100
AcDbXrecord
280
     1
290
     1
  0
XRECORD
  5
412
102
{ACAD_REACTORS
330
411
102
}
330
411
100
AcDbXrecord
280
     1
290
     1
  0
XRECORD
  5
289E
102
{ACAD_REACTORS
330
289D
102
}
330
289D
100
AcDbXrecord
280
     1
 70
     1
340
10D
340
3DF
 70
    -1
  0
SORTENTSTABLE
  5
4A4
102
{ACAD_REACTORS
330
4A3
102
}
330
4A3
100
AcDbSortentsTable
330
1F
331
26F2
  5
26FE
331
2722
  5
272C
331
2723
  5
272D
331
279D
  5
27A7
331
272C
  5
2722
331
279E
  5
27A8
331
272E
  5
2724
331
279F
  5
27A5
331
27A0
  5
27A6
331
26D2
  5
26D2
331
27A4
  5
27A1
331
27A6
  5
27A0
331
27A8
  5
279C
331
26D8
  5
26D8
331
27A7
  5
279E
331
27A5
  5
279F
331
27A1
  5
27A4
331
272F
  5
2725
331
26CF
  5
26CF
331
26CE
  5
26CE
331
2724
  5
272E
331
26F3
  5
26FF
331
27A9
  5
279D
  0
SORTENTSTABLE
  5
2710
102
{ACAD_REACTORS
330
270F
102
}
330
270F
100
AcDbSortentsTable
330
2704
  0
SORTENTSTABLE
  5
273B
102
{ACAD_REACTORS
330
273A
102
}
330
273A
100
AcDbSortentsTable
330
2730
  0
SORTENTSTABLE
  5
28CB
102
{ACAD_REACTORS
330
28CA
102
}
330
28CA
100
AcDbSortentsTable
330
28BF
  0
SORTENTSTABLE
  5
28F6
102
{ACAD_REACTORS
330
28F5
102
}
330
28F5
100
AcDbSortentsTable
330
28E4
  0
XRECORD
  5
2958
102
{ACAD_REACTORS
330
26F4
102
}
330
26F4
100
AcDbXrecord
280
     1
 40
186659.0
  1
{\LDETAL 45\P}Układ nadproży SOLBET\Pw ścianie 12cm
  0
DICTIONARY
  5
26F5
102
{ACAD_REACTORS
330
26F4
102
}
330
26F4
100
AcDbDictionary
281
     1
  3
ACDB_ANNOTATIONSCALES
350
26F6
  0
XRECORD
  5
292C
102
{ACAD_REACTORS
330
292B
102
}
330
292B
100
AcDbXrecord
280
     1
 40
24748.0
  1
\pxqc;C\P(5 : 1)
  0
LAYOUT
  5
D3
102
{ACAD_XDICTIONARY
360
294F
102
}
102
{ACAD_REACTORS
330
1A
102
}
330
1A
100
AcDbPlotSettings
  1

  2
C:\Documents and Settings\basas\Application Data\Autodesk\AutoCAD 2005\R16.1\enu\plotters\Default Windows System Printer.pc3
  4

  6

 40
0.0
 41
0.0
 42
0.0
 43
0.0
 44
0.0
 45
0.0
 46
0.0
 47
0.0
 48
0.0
 49
0.0
140
0.0
141
0.0
142
1.0
143
1.0
 70
   688
 72
     0
 73
     0
 74
     5
  7

 75
    16
147
1.0
148
0.0
149
0.0
100
AcDbLayout
  1
Arkusz1
 70
     1
 71
     1
 10
0.0
 20
0.0
 11
12.0
 21
9.0
 12
0.0
 22
0.0
 32
0.0
 14
0.0
 24
0.0
 34
0.0
 15
0.0
 25
0.0
 35
0.0
146
0.0
 13
0.0
 23
0.0
 33
0.0
 16
1.0
 26
0.0
 36
0.0
 17
0.0
 27
1.0
 37
0.0
 76
     0
330
D2
  0
LAYOUT
  5
D7
102
{ACAD_XDICTIONARY
360
2951
102
}
102
{ACAD_REACTORS
330
1A
102
}
330
1A
100
AcDbPlotSettings
  1

  2
C:\Documents and Settings\basas\Application Data\Autodesk\AutoCAD 2005\R16.1\enu\plotters\Default Windows System Printer.pc3
  4

  6

 40
0.0
 41
0.0
 42
0.0
 43
0.0
 44
0.0
 45
0.0
 46
0.0
 47
0.0
 48
0.0
 49
0.0
140
0.0
141
0.0
142
1.0
143
1.0
 70
   688
 72
     0
 73
     0
 74
     5
  7

 75
    16
147
1.0
148
0.0
149
0.0
100
AcDbLayout
  1
Arkusz2
 70
     1
 71
     2
 10
0.0
 20
0.0
 11
12.0
 21
9.0
 12
0.0
 22
0.0
 32
0.0
 14
0.0
 24
0.0
 34
0.0
 15
0.0
 25
0.0
 35
0.0
146
0.0
 13
0.0
 23
0.0
 33
0.0
 16
1.0
 26
0.0
 36
0.0
 17
0.0
 27
1.0
 37
0.0
 76
     0
330
D6
  0
LAYOUT
  5
22
102
{ACAD_XDICTIONARY
360
294C
102
}
102
{ACAD_REACTORS
330
1A
102
}
330
1A
100
AcDbPlotSettings
  1

  2
none_device
  4
Letter_(8.50_x_11.00_Inches)
  6

 40
6.349999904632568
 41
6.349999904632568
 42
6.350006103515625
 43
6.350006103515625
 44
215.8999938964844
 45
279.3999938964844
 46
11.54999923706054
 47
-13.65000009536743
 48
0.0
 49
0.0
140
210.0
141
297.0
142
1.0
143
1.0
 70
 11936
 72
     1
 73
     0
 74
     4
  7

 75
     0
147
0.9999999999999998
148
0.0
149
0.0
100
AcDbLayout
  1
Model
 70
     1
 71
     0
 10
0.0
 20
0.0
 11
12.0
 21
9.0
 12
0.0
 22
0.0
 32
0.0
 14
0.0
 24
0.0
 34
0.0
 15
0.0
 25
0.0
 35
0.0
146
0.0
 13
0.0
 23
0.0
 33
0.0
 16
1.0
 26
0.0
 36
0.0
 17
0.0
 27
1.0
 37
0.0
 76
     0
330
1F
331
EA
1001
ACAD_PSEXT
1000
Brak
1000
Brak
1000
Nie można zastosować.
1000
Arkusz nie zostanie wydrukowany dopóki nie wybrano konfiguracji plotera.
1070
     0
  0
MATERIAL
  5
ED
102
{ACAD_XDICTIONARY
360
2955
102
}
102
{ACAD_REACTORS
330
6A
102
}
330
6A
100
AcDbMaterial
  1
ByBlock
 73
     2
 78
     2
172
     2
176
     2
270
     2
274
     2
  0
MATERIAL
  5
EC
102
{ACAD_XDICTIONARY
360
2953
102
}
102
{ACAD_REACTORS
330
6A
102
}
330
6A
100
AcDbMaterial
  1
ByLayer
 73
     2
 78
     2
172
     2
176
     2
270
     2
274
     2
  0
MATERIAL
  5
EE
102
{ACAD_XDICTIONARY
360
173
102
}
102
{ACAD_REACTORS
330
6A
102
}
330
6A
100
AcDbMaterial
  1
Global
 73
     2
 43
0.0007999999797903
 43
0.0
 43
0.0
 43
0.0
 43
0.0
 43
0.0007999999797903
 43
0.0
 43
0.0
 43
0.0
 43
0.0
 43
1.0
 43
0.0
 43
0.0
 43
0.0
 43
0.0
 43
1.0
 78
     2
172
     2
 49
0.0007999999797903
 49
0.0
 49
0.0
 49
0.0
 49
0.0
 49
0.0007999999797903
 49
0.0
 49
0.0
 49
0.0
 49
0.0
 49
1.0
 49
0.0
 49
0.0
 49
0.0
 49
0.0
 49
1.0
176
     2
142
0.0007999999797903
142
0.0
142
0.0
142
0.0
142
0.0
142
0.0007999999797903
142
0.0
142
0.0
142
0.0
142
0.0
142
1.0
142
0.0
142
0.0
142
0.0
142
0.0
142
1.0
270
     2
144
0.0007999999797903
144
0.0
144
0.0
144
0.0
144
0.0
144
0.0007999999797903
144
0.0
144
0.0
144
0.0
144
0.0
144
1.0
144
0.0
144
0.0
144
0.0
144
0.0
144
1.0
274
     2
1001
ACAD
1070
    -1
1070
     3
1070
     0
1000

1071
        0
1070
     0
  0
ACAD_PROXY_OBJECT
  5
23DB
102
{ACAD_REACTORS
330
12D
102
}
330
12D
100
AcDbProxyObject
 90
      499
 91
      508
 95
       23
 70
     0
 93
      618
310
40901902A4063FBFFFFFE000000000000002040AD7A3703D0AD73F4254DD185B99185C99000000000000000104090141901A00000000000004100000000000000041025764000000000000300FFF
340
14
340
0
340
11
340
0
 94
        0
1001
ACAD_MLEADERVER
1070
     2
1001
ACAD
1000
AcRTDxfName
1000
MLEADERSTYLE
1000
AcRTDxfName
1000
MLEADERSTYLE
  0
MLINESTYLE
  5
7E9
102
{ACAD_REACTORS
330
17
102
}
330
17
100
AcDbMlineStyle
  2
SOLBET_IZOLACJA
 70
   272
  3

 62
   256
 51
90.0
 52
90.0
 71
     2
 49
0.008
 62
   256
  6
BYLAYER
 49
-0.008
 62
   256
  6
BYLAYER
  0
MLINESTYLE
  5
18
102
{ACAD_REACTORS
330
17
102
}
330
17
100
AcDbMlineStyle
  2
STANDARD
 70
     0
  3

 62
   256
 51
90.0
 52
90.0
 71
     2
 49
0.5
 62
   256
  6
BYLAYER
 49
-0.5
 62
   256
  6
BYLAYER
  0
ACDBPLACEHOLDER
  5
F
102
{ACAD_REACTORS
330
E
102
}
330
E
  0
ACAD_PROXY_OBJECT
  5
10D
102
{ACAD_REACTORS
330
10C
102
}
330
10C
100
AcDbProxyObject
 90
      499
 91
      507
 95
       23
 70
     0
 93
       49
310
904313A31005FF
 94
        0
1001
ACAD
1000
AcRTDxfName
1000
SCALE
1000
AcRTDxfName
1000
SCALE
  0
ACAD_PROXY_OBJECT
  5
188
102
{ACAD_REACTORS
330
10C
102
}
330
10C
100
AcDbProxyObject
 90
      499
 91
      507
 95
       23
 70
     0
 93
      113
310
904313A3200400000000000000407F
 94
        0
1001
ACAD
1000
AcRTDxfName
1000
SCALE
1000
AcRTDxfName
1000
SCALE
  0
ACAD_PROXY_OBJECT
  5
189
102
{ACAD_REACTORS
330
10C
102
}
330
10C
100
AcDbProxyObject
 90
      499
 91
      507
 95
       23
 70
     0
 93
      113
310
904313A3400400000000000010407F
 94
        0
1001
ACAD
1000
AcRTDxfName
1000
SCALE
1000
AcRTDxfName
1000
SCALE
  0
ACAD_PROXY_OBJECT
  5
18A
102
{ACAD_REACTORS
330
10C
102
}
330
10C
100
AcDbProxyObject
 90
      499
 91
      507
 95
       23
 70
     0
 93
      113
310
904313A3500400000000000014407F
 94
        0
1001
ACAD
1000
AcRTDxfName
1000
SCALE
1000
AcRTDxfName
1000
SCALE
  0
ACAD_PROXY_OBJECT
  5
18B
102
{ACAD_REACTORS
330
10C
102
}
330
10C
100
AcDbProxyObject
 90
      499
 91
      507
 95
       23
 70
     0
 93
      113
310
904313A3800400000000000020407F
 94
        0
1001
ACAD
1000
AcRTDxfName
1000
SCALE
1000
AcRTDxfName
1000
SCALE
  0
ACAD_PROXY_OBJECT
  5
18C
102
{ACAD_REACTORS
330
10C
102
}
330
10C
100
AcDbProxyObject
 90
      499
 91
      507
 95
       23
 70
     0
 93
      121
310
905313A313000400000000000024407F
 94
        0
1001
ACAD
1000
AcRTDxfName
1000
SCALE
1000
AcRTDxfName
1000
SCALE
  0
ACAD_PROXY_OBJECT
  5
18D
102
{ACAD_REACTORS
330
10C
102
}
330
10C
100
AcDbProxyObject
 90
      499
 91
      507
 95
       23
 70
     0
 93
      121
310
905313A313600400000000000030407F
 94
        0
1001
ACAD
1000
AcRTDxfName
1000
SCALE
1000
AcRTDxfName
1000
SCALE
  0
ACAD_PROXY_OBJECT
  5
18E
102
{ACAD_REACTORS
330
10C
102
}
330
10C
100
AcDbProxyObject
 90
      499
 91
      507
 95
       23
 70
     0
 93
      121
310
905313A323000400000000000034407F
 94
        0
1001
ACAD
1000
AcRTDxfName
1000
SCALE
1000
AcRTDxfName
1000
SCALE
  0
ACAD_PROXY_OBJECT
  5
18F
102
{ACAD_REACTORS
330
10C
102
}
330
10C
100
AcDbProxyObject
 90
      499
 91
      507
 95
       23
 70
     0
 93
      121
310
905313A33300040000000000003E407F
 94
        0
1001
ACAD
1000
AcRTDxfName
1000
SCALE
1000
AcRTDxfName
1000
SCALE
  0
ACAD_PROXY_OBJECT
  5
190
102
{ACAD_REACTORS
330
10C
102
}
330
10C
100
AcDbProxyObject
 90
      499
 91
      507
 95
       23
 70
     0
 93
      121
310
905313A343000400000000000044407F
 94
        0
1001
ACAD
1000
AcRTDxfName
1000
SCALE
1000
AcRTDxfName
1000
SCALE
  0
ACAD_PROXY_OBJECT
  5
191
102
{ACAD_REACTORS
330
10C
102
}
330
10C
100
AcDbProxyObject
 90
      499
 91
      507
 95
       23
 70
     0
 93
      121
310
905313A353000400000000000049407F
 94
        0
1001
ACAD
1000
AcRTDxfName
1000
SCALE
1000
AcRTDxfName
1000
SCALE
  0
ACAD_PROXY_OBJECT
  5
192
102
{ACAD_REACTORS
330
10C
102
}
330
10C
100
AcDbProxyObject
 90
      499
 91
      507
 95
       23
 70
     0
 93
      129
310
906313A31303000400000000000059407F
 94
        0
1001
ACAD
1000
AcRTDxfName
1000
SCALE
1000
AcRTDxfName
1000
SCALE
  0
ACAD_PROXY_OBJECT
  5
193
102
{ACAD_REACTORS
330
10C
102
}
330
10C
100
AcDbProxyObject
 90
      499
 91
      507
 95
       23
 70
     0
 93
      113
310
904323A3100000000000000001017F
 94
        0
1001
ACAD
1000
AcRTDxfName
1000
SCALE
1000
AcRTDxfName
1000
SCALE
  0
ACAD_PROXY_OBJECT
  5
194
102
{ACAD_REACTORS
330
10C
102
}
330
10C
100
AcDbProxyObject
 90
      499
 91
      507
 95
       23
 70
     0
 93
      113
310
904343A3100000000000000041017F
 94
        0
1001
ACAD
1000
AcRTDxfName
1000
SCALE
1000
AcRTDxfName
1000
SCALE
  0
ACAD_PROXY_OBJECT
  5
195
102
{ACAD_REACTORS
330
10C
102
}
330
10C
100
AcDbProxyObject
 90
      499
 91
      507
 95
       23
 70
     0
 93
      113
310
904383A3100000000000000081017F
 94
        0
1001
ACAD
1000
AcRTDxfName
1000
SCALE
1000
AcRTDxfName
1000
SCALE
  0
ACAD_PROXY_OBJECT
  5
196
102
{ACAD_REACTORS
330
10C
102
}
330
10C
100
AcDbProxyObject
 90
      499
 91
      507
 95
       23
 70
     0
 93
      121
310
90531303A3100000000000000091017F
 94
        0
1001
ACAD
1000
AcRTDxfName
1000
SCALE
1000
AcRTDxfName
1000
SCALE
  0
ACAD_PROXY_OBJECT
  5
197
102
{ACAD_REACTORS
330
10C
102
}
330
10C
100
AcDbProxyObject
 90
      499
 91
      507
 95
       23
 70
     0
 93
      129
310
9063130303A3100000000000000165017F
 94
        0
1001
ACAD
1000
AcRTDxfName
1000
SCALE
1000
AcRTDxfName
1000
SCALE
  0
ACAD_PROXY_OBJECT
  5
198
102
{ACAD_REACTORS
330
10C
102
}
330
10C
100
AcDbProxyObject
 90
      499
 91
      507
 95
       23
 70
     0
 93
      265
310
90F312F31323822203D2031272D302200000000000000200FC00000000000028407F
 94
        0
1001
ACAD
1000
AcRTDxfName
1000
SCALE
1000
AcRTDxfName
1000
SCALE
  0
ACAD_PROXY_OBJECT
  5
199
102
{ACAD_REACTORS
330
10C
102
}
330
10C
100
AcDbProxyObject
 90
      499
 91
      507
 95
       23
 70
     0
 93
      257
310
90E312F363422203D2031272D302200000000000000240FC00000000000028407F
 94
        0
1001
ACAD
1000
AcRTDxfName
1000
SCALE
1000
AcRTDxfName
1000
SCALE
  0
ACAD_PROXY_OBJECT
  5
19A
102
{ACAD_REACTORS
330
10C
102
}
330
10C
100
AcDbProxyObject
 90
      499
 91
      507
 95
       23
 70
     0
 93
      257
310
90E312F333222203D2031272D302200000000000000280FC00000000000028407F
 94
        0
1001
ACAD
1000
AcRTDxfName
1000
SCALE
1000
AcRTDxfName
1000
SCALE
  0
ACAD_PROXY_OBJECT
  5
19B
102
{ACAD_REACTORS
330
10C
102
}
330
10C
100
AcDbProxyObject
 90
      499
 91
      507
 95
       23
 70
     0
 93
      257
310
90E312F313622203D2031272D3022000000000000002C0FC00000000000028407F
 94
        0
1001
ACAD
1000
AcRTDxfName
1000
SCALE
1000
AcRTDxfName
1000
SCALE
  0
ACAD_PROXY_OBJECT
  5
19C
102
{ACAD_REACTORS
330
10C
102
}
330
10C
100
AcDbProxyObject
 90
      499
 91
      507
 95
       23
 70
     0
 93
      257
310
90E332F333222203D2031272D3022000000000000002E0FC00000000000028407F
 94
        0
1001
ACAD
1000
AcRTDxfName
1000
SCALE
1000
AcRTDxfName
1000
SCALE
  0
ACAD_PROXY_OBJECT
  5
19D
102
{ACAD_REACTORS
330
10C
102
}
330
10C
100
AcDbProxyObject
 90
      499
 91
      507
 95
       23
 70
     0
 93
      249
310
90D312F3822203D2031272D302200000000000000300FC00000000000028407F
 94
        0
1001
ACAD
1000
AcRTDxfName
1000
SCALE
1000
AcRTDxfName
1000
SCALE
  0
ACAD_PROXY_OBJECT
  5
19E
102
{ACAD_REACTORS
330
10C
102
}
330
10C
100
AcDbProxyObject
 90
      499
 91
      507
 95
       23
 70
     0
 93
      257
310
90E332F313622203D2031272D302200000000000000320FC00000000000028407F
 94
        0
1001
ACAD
1000
AcRTDxfName
1000
SCALE
1000
AcRTDxfName
1000
SCALE
  0
ACAD_PROXY_OBJECT
  5
19F
102
{ACAD_REACTORS
330
10C
102
}
330
10C
100
AcDbProxyObject
 90
      499
 91
      507
 95
       23
 70
     0
 93
      249
310
90D312F3422203D2031272D302200000000000000340FC00000000000028407F
 94
        0
1001
ACAD
1000
AcRTDxfName
1000
SCALE
1000
AcRTDxfName
1000
SCALE
  0
ACAD_PROXY_OBJECT
  5
1A0
102
{ACAD_REACTORS
330
10C
102
}
330
10C
100
AcDbProxyObject
 90
      499
 91
      507
 95
       23
 70
     0
 93
      249
310
90D332F3822203D2031272D302200000000000000360FC00000000000028407F
 94
        0
1001
ACAD
1000
AcRTDxfName
1000
SCALE
1000
AcRTDxfName
1000
SCALE
  0
ACAD_PROXY_OBJECT
  5
1A1
102
{ACAD_REACTORS
330
10C
102
}
330
10C
100
AcDbProxyObject
 90
      499
 91
      507
 95
       23
 70
     0
 93
      249
310
90D312F3222203D2031272D302200000000000000380FC00000000000028407F
 94
        0
1001
ACAD
1000
AcRTDxfName
1000
SCALE
1000
AcRTDxfName
1000
SCALE
  0
ACAD_PROXY_OBJECT
  5
1A2
102
{ACAD_REACTORS
330
10C
102
}
330
10C
100
AcDbProxyObject
 90
      499
 91
      507
 95
       23
 70
     0
 93
      249
310
90D332F3422203D2031272D3022000000000000003A0FC00000000000028407F
 94
        0
1001
ACAD
1000
AcRTDxfName
1000
SCALE
1000
AcRTDxfName
1000
SCALE
  0
ACAD_PROXY_OBJECT
  5
1A3
102
{ACAD_REACTORS
330
10C
102
}
330
10C
100
AcDbProxyObject
 90
      499
 91
      507
 95
       23
 70
     0
 93
      169
310
90B3122203D2031272D302200400000000000028407F
 94
        0
1001
ACAD
1000
AcRTDxfName
1000
SCALE
1000
AcRTDxfName
1000
SCALE
  0
ACAD_PROXY_OBJECT
  5
1A4
102
{ACAD_REACTORS
330
10C
102
}
330
10C
100
AcDbProxyObject
 90
      499
 91
      507
 95
       23
 70
     0
 93
      265
310
90F312D312F3222203D2031272D3022000000000000003E0FC00000000000028407F
 94
        0
1001
ACAD
1000
AcRTDxfName
1000
SCALE
1000
AcRTDxfName
1000
SCALE
  0
ACAD_PROXY_OBJECT
  5
1A5
102
{ACAD_REACTORS
330
10C
102
}
330
10C
100
AcDbProxyObject
 90
      499
 91
      507
 95
       23
 70
     0
 93
      233
310
90B3322203D2031272D3022000000000000000210000000000000028407F
 94
        0
1001
ACAD
1000
AcRTDxfName
1000
SCALE
1000
AcRTDxfName
1000
SCALE
  0
ACAD_PROXY_OBJECT
  5
1A6
102
{ACAD_REACTORS
330
10C
102
}
330
10C
100
AcDbProxyObject
 90
      499
 91
      507
 95
       23
 70
     0
 93
      233
310
90B3622203D2031272D3022000000000000000610000000000000028407F
 94
        0
1001
ACAD
1000
AcRTDxfName
1000
SCALE
1000
AcRTDxfName
1000
SCALE
  0
ACAD_PROXY_OBJECT
  5
1A7
102
{ACAD_REACTORS
330
10C
102
}
330
10C
100
AcDbProxyObject
 90
      499
 91
      507
 95
       23
 70
     0
 93
      257
310
90E31272D3022203D2031272D3022000000000000000A10000000000000028407F
 94
        0
1001
ACAD
1000
AcRTDxfName
1000
SCALE
1000
AcRTDxfName
1000
SCALE
  0
TABLESTYLE
  5
7F
102
{ACAD_XDICTIONARY
360
162
102
}
102
{ACAD_REACTORS
330
7E
102
}
330
7E
100
AcDbTableStyle
  3
Standard
 70
     0
 71
     0
 40
1.5
 41
1.5
280
     0
281
     0
  7
Standard
140
4.5
170
     2
 62
     0
 63
     7
283
     0
274
    -2
284
     1
 64
     0
275
    -2
285
     1
 65
     0
276
    -2
286
     1
 66
     0
277
    -2
287
     1
 67
     0
278
    -2
288
     1
 68
     0
279
    -2
289
     1
 69
     0
  7
Standard
140
6.0
170
     5
 62
     0
 63
     7
283
     0
274
    -2
284
     1
 64
     0
275
    -2
285
     1
 65
     0
276
    -2
286
     1
 66
     0
277
    -2
287
     1
 67
     0
278
    -2
288
     1
 68
     0
279
    -2
289
     1
 69
     0
  7
Standard
140
4.5
170
     5
 62
     0
 63
     7
283
     0
274
    -2
284
     1
 64
     0
275
    -2
285
     1
 65
     0
276
    -2
286
     1
 66
     0
277
    -2
287
     1
 67
     0
278
    -2
288
     1
 68
     0
279
    -2
289
     1
 69
     0
  0
VISUALSTYLE
  5
F5
102
{ACAD_REACTORS
330
EF
102
}
330
EF
100
AcDbVisualStyle
  2
2dWireframe
 70
     4
 71
     0
 72
     2
 73
     1
 90
        0
 40
-0.6
 41
-30.0
 62
     5
 63
     7
 74
     1
 91
        4
 64
     7
 65
   257
 75
     1
175
     1
 42
1.0
 92
        0
 66
   257
 43
1.0
 76
     1
 77
     6
 78
     2
 67
     7
 79
     5
170
     0
171
     0
290
     0
174
     0
 93
        1
 44
0.0
173
     0
291
     0
 45
0.0
1001
ACAD
1000
AcDbSavedByObjectVersion
1070
     0
  0
VISUALSTYLE
  5
F7
102
{ACAD_REACTORS
330
EF
102
}
330
EF
100
AcDbVisualStyle
  2
3D Hidden
 70
     6
 71
     1
 72
     2
 73
     2
 90
        0
 40
-0.6
 41
-30.0
 62
     5
 63
     7
 74
     2
 91
        2
 64
     7
 65
   257
 75
     2
175
     1
 42
40.0
 92
        0
 66
   257
 43
1.0
 76
     1
 77
     6
 78
     2
 67
     7
 79
     3
170
     0
171
     0
290
     0
174
     0
 93
        1
 44
0.0
173
     0
291
     0
 45
0.0
1001
ACAD
1000
AcDbSavedByObjectVersion
1070
     0
  0
VISUALSTYLE
  5
F6
102
{ACAD_REACTORS
330
EF
102
}
330
EF
100
AcDbVisualStyle
  2
3dWireframe
 70
     5
 71
     0
 72
     2
 73
     1
 90
        0
 40
-0.6
 41
-30.0
 62
     5
 63
     7
 74
     1
 91
        4
 64
     7
 65
   257
 75
     1
175
     1
 42
1.0
 92
        0
 66
   257
 43
1.0
 76
     1
 77
     6
 78
     2
 67
     7
 79
     5
170
     0
171
     0
290
     0
174
     0
 93
        1
 44
0.0
173
     0
291
     0
 45
0.0
1001
ACAD
1000
AcDbSavedByObjectVersion
1070
     0
  0
VISUALSTYLE
  5
F4
102
{ACAD_REACTORS
330
EF
102
}
330
EF
100
AcDbVisualStyle
  2
Basic
 70
     7
 71
     1
 72
     0
 73
     1
 90
        0
 40
-0.6
 41
-30.0
 62
     5
 63
     7
 74
     0
 91
        4
 64
     7
 65
   257
 75
     1
175
     1
 42
1.0
 92
        8
 66
     7
 43
1.0
 76
     1
 77
     6
 78
     2
 67
     7
 79
     5
170
     0
171
     0
290
     0
174
     0
 93
        1
 44
0.0
173
     0
291
     1
 45
0.0
1001
ACAD
1000
AcDbSavedByObjectVersion
1070
     0
  0
VISUALSTYLE
  5
FB
102
{ACAD_REACTORS
330
EF
102
}
330
EF
100
AcDbVisualStyle
  2
Brighten
 70
    12
 71
     2
 72
     2
 73
     1
 90
        0
 40
-0.6
 41
-30.0
 62
     5
 63
     7
 74
     1
 91
        4
 64
     7
 65
   257
 75
     1
175
     1
 42
1.0
 92
        8
 66
     7
 43
1.0
 76
     1
 77
     6
 78
     2
 67
     7
 79
     5
170
     0
171
     0
290
     0
174
     0
 93
        1
 44
50.0
173
     0
291
     1
 45
0.0
1001
ACAD
1000
AcDbSavedByObjectVersion
1070
     0
  0
VISUALSTYLE
  5
FF
102
{ACAD_REACTORS
330
EF
102
}
330
EF
100
AcDbVisualStyle
  2
ColorChange
 70
    16
 71
     2
 72
     2
 73
     3
 90
        0
 40
-0.6
 41
-30.0
 62
     5
 63
     8
 74
     1
 91
        4
 64
     7
 65
   257
 75
     1
175
     1
 42
1.0
 92
        8
 66
     8
 43
1.0
 76
     1
 77
     6
 78
     2
 67
     7
 79
     5
170
     0
171
     0
290
     0
174
     0
 93
        1
 44
0.0
173
     0
291
     1
 45
0.0
1001
ACAD
1000
AcDbSavedByObjectVersion
1070
     0
  0
VISUALSTYLE
  5
F8
102
{ACAD_REACTORS
330
EF
102
}
330
EF
100
AcDbVisualStyle
  2
Conceptual
 70
     9
 71
     3
 72
     2
 73
     1
 90
        0
 40
-0.6
 41
-30.0
 62
     5
 63
     7
 74
     2
 91
        2
 64
     7
 65
   257
 75
     1
175
     1
 42
40.0
 92
        8
 66
     7
 43
1.0
 76
     1
 77
     6
 78
     2
 67
     7
 79
     3
170
     0
171
     0
290
     0
174
     0
 93
        1
 44
0.0
173
     0
291
     0
 45
0.0
1001
ACAD
1000
AcDbSavedByObjectVersion
1070
     0
  0
VISUALSTYLE
  5
FA
102
{ACAD_REACTORS
330
EF
102
}
330
EF
100
AcDbVisualStyle
  2
Dim
 70
    11
 71
     2
 72
     2
 73
     1
 90
        0
 40
-0.6
 41
-30.0
 62
     5
 63
     7
 74
     1
 91
        4
 64
     7
 65
   257
 75
     1
175
     1
 42
1.0
 92
        8
 66
     7
 43
1.0
 76
     1
 77
     6
 78
     2
 67
     7
 79
     5
170
     0
171
     0
290
     0
174
     0
 93
        1
 44
-50.0
173
     0
291
     1
 45
0.0
1001
ACAD
1000
AcDbSavedByObjectVersion
1070
     0
  0
VISUALSTYLE
  5
FE
102
{ACAD_REACTORS
330
EF
102
}
330
EF
100
AcDbVisualStyle
  2
Facepattern
 70
    15
 71
     2
 72
     2
 73
     1
 90
        0
 40
-0.6
 41
-30.0
 62
     5
 63
     7
 74
     1
 91
        4
 64
     7
 65
   257
 75
     1
175
     1
 42
1.0
 92
        8
 66
     7
 43
1.0
 76
     1
 77
     6
 78
     2
 67
     7
 79
     5
170
     0
171
     0
290
     0
174
     0
 93
        1
 44
0.0
173
     0
291
     1
 45
0.0
1001
ACAD
1000
AcDbSavedByObjectVersion
1070
     0
  0
VISUALSTYLE
  5
F0
102
{ACAD_REACTORS
330
EF
102
}
330
EF
100
AcDbVisualStyle
  2
Flat
 70
     0
 71
     2
 72
     1
 73
     1
 90
        2
 40
-0.6
 41
30.0
 62
     5
 63
     7
 74
     0
 91
        4
 64
     7
 65
   257
 75
     1
175
     1
 42
1.0
 92
        8
 66
     7
 43
1.0
 76
     1
 77
     6
 78
     2
 67
     7
 79
     5
170
     0
171
     0
290
     0
174
     0
 93
        1
 44
0.0
173
     0
291
     1
 45
0.0
1001
ACAD
1000
AcDbSavedByObjectVersion
1070
     0
  0
VISUALSTYLE
  5
F1
102
{ACAD_REACTORS
330
EF
102
}
330
EF
100
AcDbVisualStyle
  2
FlatWithEdges
 70
     1
 71
     2
 72
     1
 73
     1
 90
        2
 40
-0.6
 41
30.0
 62
     5
 63
     7
 74
     1
 91
        4
 64
     7
 65
   257
 75
     1
175
     1
 42
1.0
 92
        0
 66
   257
 43
1.0
 76
     1
 77
     6
 78
     2
 67
     7
 79
     5
170
     0
171
     0
290
     0
174
     0
 93
        1
 44
0.0
173
     0
291
     1
 45
0.0
1001
ACAD
1000
AcDbSavedByObjectVersion
1070
     0
  0
VISUALSTYLE
  5
F2
102
{ACAD_REACTORS
330
EF
102
}
330
EF
100
AcDbVisualStyle
  2
Gouraud
 70
     2
 71
     2
 72
     2
 73
     1
 90
        2
 40
-0.6
 41
30.0
 62
     5
 63
     7
 74
     0
 91
        4
 64
     7
 65
   257
 75
     1
175
     1
 42
1.0
 92
        0
 66
     7
 43
1.0
 76
     1
 77
     6
 78
     2
 67
     7
 79
     5
170
     0
171
     0
290
     0
174
     0
 93
        1
 44
0.0
173
     0
291
     1
 45
0.0
1001
ACAD
1000
AcDbSavedByObjectVersion
1070
     0
  0
VISUALSTYLE
  5
F3
102
{ACAD_REACTORS
330
EF
102
}
330
EF
100
AcDbVisualStyle
  2
GouraudWithEdges
 70
     3
 71
     2
 72
     2
 73
     1
 90
        2
 40
-0.6
 41
30.0
 62
     5
 63
     7
 74
     1
 91
        4
 64
     7
 65
   257
 75
     1
175
     1
 42
1.0
 92
        0
 66
   257
 43
1.0
 76
     1
 77
     6
 78
     2
 67
     7
 79
     5
170
     0
171
     0
290
     0
174
     0
 93
        1
 44
0.0
173
     0
291
     1
 45
0.0
1001
ACAD
1000
AcDbSavedByObjectVersion
1070
     0
  0
VISUALSTYLE
  5
FD
102
{ACAD_REACTORS
330
EF
102
}
330
EF
100
AcDbVisualStyle
  2
Linepattern
 70
    14
 71
     2
 72
     2
 73
     1
 90
        0
 40
-0.6
 41
-30.0
 62
     5
 63
     7
 74
     1
 91
        4
 64
     7
 65
   257
 75
     7
175
     7
 42
1.0
 92
        8
 66
     7
 43
1.0
 76
     1
 77
     6
 78
     2
 67
     7
 79
     5
170
     0
171
     0
290
     0
174
     0
 93
        1
 44
0.0
173
     0
291
     1
 45
0.0
1001
ACAD
1000
AcDbSavedByObjectVersion
1070
     0
  0
VISUALSTYLE
  5
F9
102
{ACAD_REACTORS
330
EF
102
}
330
EF
100
AcDbVisualStyle
  2
Realistic
 70
     8
 71
     2
 72
     2
 73
     1
 90
        0
 40
-0.6
 41
-30.0
 62
     5
 63
     7
 74
     1
 91
        0
 64
     7
 65
   257
 75
     1
175
     1
 42
1.0
 92
        8
 66
     8
 43
1.0
 76
     1
 77
     6
 78
     2
 67
     7
 79
     5
170
     0
171
     0
290
     0
174
     0
 93
       13
 44
0.0
173
     0
291
     0
 45
0.0
1001
ACAD
1000
AcDbSavedByObjectVersion
1070
     0
  0
VISUALSTYLE
  5
FC
102
{ACAD_REACTORS
330
EF
102
}
330
EF
100
AcDbVisualStyle
  2
Thicken
 70
    13
 71
     2
 72
     2
 73
     1
 90
        0
 40
-0.6
 41
-30.0
 62
     5
 63
     7
 74
     1
 91
        4
 64
     7
 65
   257
 75
     1
175
     1
 42
1.0
 92
       12
 66
     7
 43
1.0
 76
     1
 77
     6
 78
     2
 67
     7
 79
     5
170
     0
171
     0
290
     0
174
     0
 93
        1
 44
0.0
173
     0
291
     1
 45
0.0
1001
ACAD
1000
AcDbSavedByObjectVersion
1070
     0
  0
DICTIONARYVAR
  5
146
102
{ACAD_REACTORS
330
5E
102
}
330
5E
100
DictionaryVariables
280
     0
  1
1:1
  0
DICTIONARYVAR
  5
145
102
{ACAD_REACTORS
330
5E
102
}
330
5E
100
DictionaryVariables
280
     0
  1
STANDARD
  0
DICTIONARYVAR
  5
84
102
{ACAD_REACTORS
330
5E
102
}
330
5E
100
DictionaryVariables
280
     0
  1
STANDARD
  0
DICTIONARYVAR
  5
5F
102
{ACAD_REACTORS
330
5E
102
}
330
5E
100
DictionaryVariables
280
     0
  1
2
  0
DICTIONARYVAR
  5
63
102
{ACAD_REACTORS
330
5E
102
}
330
5E
100
DictionaryVariables
280
     0
  1
1
  0
DICTIONARYVAR
  5
466
102
{ACAD_REACTORS
330
5E
102
}
330
5E
100
DictionaryVariables
280
     0
  1
0
  0
DICTIONARYVAR
  5
464
102
{ACAD_REACTORS
330
5E
102
}
330
5E
100
DictionaryVariables
280
     0
  1
2
  0
DICTIONARYVAR
  5
463
102
{ACAD_REACTORS
330
5E
102
}
330
5E
100
DictionaryVariables
280
     0
  1
1
  0
DICTIONARYVAR
  5
294A
102
{ACAD_REACTORS
330
5E
102
}
330
5E
100
DictionaryVariables
280
     0
  1
80.000000
  0
DICTIONARYVAR
  5
2949
102
{ACAD_REACTORS
330
5E
102
}
330
5E
100
DictionaryVariables
280
     0
  1
5.000000
  0
DICTIONARYVAR
  5
465
102
{ACAD_REACTORS
330
5E
102
}
330
5E
100
DictionaryVariables
280
     0
  1
127
  0
DICTIONARY
  5
26F6
102
{ACAD_REACTORS
330
26F5
102
}
330
26F5
100
AcDbDictionary
281
     1
  0
DICTIONARY
  5
294F
330
D3
100
AcDbDictionary
280
     1
281
     1
  3
ACAD_XREC_ROUNDTRIP
360
2950
  0
DICTIONARY
  5
2951
330
D7
100
AcDbDictionary
280
     1
281
     1
  3
ACAD_XREC_ROUNDTRIP
360
2952
  0
DICTIONARY
  5
294C
330
22
100
AcDbDictionary
280
     1
281
     1
  3
ACAD_XREC_ROUNDTRIP
360
294D
  0
DICTIONARY
  5
2955
330
ED
100
AcDbDictionary
280
     1
281
     1
  3
ACAD_XREC_ROUNDTRIP
360
2956
  0
DICTIONARY
  5
2953
330
EC
100
AcDbDictionary
280
     1
281
     1
  3
ACAD_XREC_ROUNDTRIP
360
2954
  0
DICTIONARY
  5
173
330
EE
100
AcDbDictionary
280
     1
281
     1
  3
ACAD_XREC_ROUNDTRIP
360
2957
  3
BUMPTILE
360
175
  3
DIFFUSETILE
360
174
  3
OPACITYTILE
360
176
  3
REFLECTIONTILE
360
177
  0
DICTIONARY
  5
162
330
7F
100
AcDbDictionary
280
     1
281
     1
  3
ACAD_ROUNDTRIP_2008_TABLESTYLE_CELLSTYLEMAP
360
289B
  3
ACAD_XREC_ROUNDTRIP
360
294E
  0
XRECORD
  5
2950
102
{ACAD_REACTORS
330
294F
102
}
330
294F
100
AcDbXrecord
280
     1
102
SHADEPLOT
 70
     0
102
SHADEPLOTRESLEVEL
 70
     2
102
SHADEPLOTCUSTOMDPI
 70
   300
  0
XRECORD
  5
2952
102
{ACAD_REACTORS
330
2951
102
}
330
2951
100
AcDbXrecord
280
     1
102
SHADEPLOT
 70
     0
102
SHADEPLOTRESLEVEL
 70
     2
102
SHADEPLOTCUSTOMDPI
 70
   300
  0
XRECORD
  5
294D
102
{ACAD_REACTORS
330
294C
102
}
330
294C
100
AcDbXrecord
280
     1
102
SHADEPLOT
 70
     0
102
SHADEPLOTRESLEVEL
 70
     2
102
SHADEPLOTCUSTOMDPI
 70
   300
  0
XRECORD
  5
2956
102
{ACAD_REACTORS
330
2955
102
}
330
2955
100
AcDbXrecord
280
     1
102
MATERIAL
148
0.0
149
0.0
149
0.0
 93
        0
 94
       63
282
     0
 72
     1
 77
     1
171
     1
175
     1
179
     1
273
     0
  0
XRECORD
  5
2954
102
{ACAD_REACTORS
330
2953
102
}
330
2953
100
AcDbXrecord
280
     1
102
MATERIAL
148
0.0
149
0.0
149
0.0
 93
        0
 94
       63
282
     0
 72
     1
 77
     1
171
     1
175
     1
179
     1
273
     0
  0
XRECORD
  5
2957
102
{ACAD_REACTORS
330
173
102
}
330
173
100
AcDbXrecord
280
     1
102
MATERIAL
148
0.0
149
0.0
149
0.0
 93
        0
 94
       63
282
     0
 72
     1
 77
     1
171
     1
175
     1
179
     1
273
     0
  0
XRECORD
  5
175
102
{ACAD_REACTORS
330
173
102
}
330
173
100
AcDbXrecord
280
     1
270
     1
271
     1
  0
XRECORD
  5
174
102
{ACAD_REACTORS
330
173
102
}
330
173
100
AcDbXrecord
280
     1
270
     1
271
     1
  0
XRECORD
  5
176
102
{ACAD_REACTORS
330
173
102
}
330
173
100
AcDbXrecord
280
     1
270
     1
271
     1
  0
XRECORD
  5
177
102
{ACAD_REACTORS
330
173
102
}
330
173
100
AcDbXrecord
280
     1
270
     1
271
     1
  0
ACAD_PROXY_OBJECT
  5
289B
102
{ACAD_REACTORS
330
162
102
}
330
162
100
AcDbProxyObject
 90
      499
 91
      509
 95
       23
 70
     0
 93
     5304
310
40D054060020000020000003200101A000080002A5058000000C10000000000000006101010000000000003E0FC000000000000F83F0000000000003E0FC000000000000F83F02B5E8DC0F42B1CFC0AD7A3703D0AC73F419019018000000C1003FBFFFFFE0000000000003C8FD029018000000C1003FBFFFFFE00000000000
310
03C8FD049018000000C1003FBFFFFFE0000000000003C8FD089018000000C1003FBFFFFFE0000000000003C8FD109018000000C1003FBFFFFFE0000000000003C8FD209018000000C1003FBFFFFFE0000000000003C8FD01405075F5449544C450041501A8000000C800406800020000A94160000003040000000000000012
310
40404000000000000F83F0000000000003E0FC000000000000F83F0000000000003E0FC0AD7A3703D0AC73F02B5E8DC0F42B1CFD0640640600000030400FEFFFFFF8000000000000F23F40A40600000030400FEFFFFFF8000000000000F23F41240600000030400FEFFFFFF8000000000000F23F42240600000030400FEFFF
310
FFF8000000000000F23F44240600000030400FEFFFFFF8000000000000F23F48240600000030400FEFFFFFF8000000000000F23F409014217D2115051115480105406A0000003200101A000080002A5028000000C10000000000000004901010000000000003E0FC000000000000F83F0000000000003E0FC000000000000F
310
83F02B5E8DC0F42B1CFC0AD7A3703D0AC73F419019018000000C1003FBFFFFFE0000000000003C8FD029018000000C1003FBFFFFFE0000000000003C8FD049018000000C1003FBFFFFFE0000000000003C8FD089018000000C1003FBFFFFFE0000000000003C8FD109018000000C1003FBFFFFFE0000000000003C8FD20901
310
8000000C1003FBFFFFFE0000000000003C8FD03409065F444154410000
340
11
340
14
340
14
340
14
340
14
340
14
340
14
340
11
340
14
340
14
340
14
340
14
340
14
340
14
340
11
340
14
340
14
340
14
340
14
340
14
340
14
 94
        0
1001
ACAD
1000
AcRTDxfName
1000
CELLSTYLEMAP
1000
AcRTDxfName
1000
CELLSTYLEMAP
  0
XRECORD
  5
294E
102
{ACAD_REACTORS
330
162
102
}
330
162
100
AcDbXrecord
280
     1
102
ACAD_ROUNDTRIP_PRE2007_TABLESTYLE
 90
      512
 91
        0
  1

 92
      512
 93
        0
  2

 94
      512
 95
        0
  3

  0
ENDSEC
  0
EOF
