  0
SECTION
  2
HEADER
  9
$ACADVER
  1
AC1015
  9
$ACADMAINTVER
 70
    20
  9
$DWGCODEPAGE
  3
ANSI_1250
  9
$INSBASE
 10
0.0
 20
0.0
 30
0.0
  9
$EXTMIN
 10
-0.0050982220222977
 20
-0.004528679247187
 30
-0.0000000000112498
  9
$EXTMAX
 10
334.3568769852378
 20
297.0045328285427
 30
0.0000000000002956
  9
$LIMMIN
 10
0.0
 20
0.0
  9
$LIMMAX
 10
334.35177409209
 20
297.0
  9
$ORTHOMODE
 70
     0
  9
$REGENMODE
 70
     1
  9
$FILLMODE
 70
     1
  9
$QTEXTMODE
 70
     0
  9
$MIRRTEXT
 70
     0
  9
$LTSCALE
 40
1.0
  9
$ATTMODE
 70
     2
  9
$TEXTSIZE
 40
5.0
  9
$TRACEWID
 40
1.0
  9
$TEXTSTYLE
  7
Solbet_5
  9
$CLAYER
  8
SOLBET_Bloczki
  9
$CELTYPE
  6
ByLayer
  9
$CECOLOR
 62
   256
  9
$CELTSCALE
 40
1.0
  9
$DISPSILH
 70
     0
  9
$DIMSCALE
 40
1.0
  9
$DIMASZ
 40
2.5
  9
$DIMEXO
 40
0.0
  9
$DIMDLI
 40
3.75
  9
$DIMRND
 40
0.0
  9
$DIMDLE
 40
0.0
  9
$DIMEXE
 40
1.25
  9
$DIMTP
 40
0.0
  9
$DIMTM
 40
0.0
  9
$DIMTXT
 40
2.5
  9
$DIMCEN
 40
2.5
  9
$DIMTSZ
 40
0.0
  9
$DIMTOL
 70
     0
  9
$DIMLIM
 70
     0
  9
$DIMTIH
 70
     0
  9
$DIMTOH
 70
     0
  9
$DIMSE1
 70
     0
  9
$DIMSE2
 70
     0
  9
$DIMTAD
 70
     1
  9
$DIMZIN
 70
     8
  9
$DIMBLK
  1

  9
$DIMASO
 70
     1
  9
$DIMSHO
 70
     1
  9
$DIMPOST
  1

  9
$DIMAPOST
  1

  9
$DIMALT
 70
     0
  9
$DIMALTD
 70
     3
  9
$DIMALTF
 40
0.03937007874016
  9
$DIMLFAC
 40
1.0
  9
$DIMTOFL
 70
     1
  9
$DIMTVP
 40
0.0
  9
$DIMTIX
 70
     0
  9
$DIMSOXD
 70
     0
  9
$DIMSAH
 70
     0
  9
$DIMBLK1
  1

  9
$DIMBLK2
  1

  9
$DIMSTYLE
  2
Solbet
  9
$DIMCLRD
 70
     0
  9
$DIMCLRE
 70
     0
  9
$DIMCLRT
 70
     0
  9
$DIMTFAC
 40
1.0
  9
$DIMGAP
 40
0.625
  9
$DIMJUST
 70
     0
  9
$DIMSD1
 70
     0
  9
$DIMSD2
 70
     0
  9
$DIMTOLJ
 70
     0
  9
$DIMTZIN
 70
     8
  9
$DIMALTZ
 70
     0
  9
$DIMALTTZ
 70
     0
  9
$DIMUPT
 70
     0
  9
$DIMDEC
 70
     2
  9
$DIMTDEC
 70
     2
  9
$DIMALTU
 70
     2
  9
$DIMALTTD
 70
     3
  9
$DIMTXSTY
  7
Solbet_2_5
  9
$DIMAUNIT
 70
     0
  9
$DIMADEC
 70
     0
  9
$DIMALTRND
 40
0.0
  9
$DIMAZIN
 70
     0
  9
$DIMDSEP
 70
    44
  9
$DIMATFIT
 70
     3
  9
$DIMFRAC
 70
     0
  9
$DIMLDRBLK
  1

  9
$DIMLUNIT
 70
     2
  9
$DIMLWD
 70
    -2
  9
$DIMLWE
 70
    -2
  9
$DIMTMOVE
 70
     0
  9
$LUNITS
 70
     2
  9
$LUPREC
 70
     4
  9
$SKETCHINC
 40
1.0
  9
$FILLETRAD
 40
0.0
  9
$AUNITS
 70
     0
  9
$AUPREC
 70
     0
  9
$MENU
  1
.
  9
$ELEVATION
 40
0.0
  9
$PELEVATION
 40
0.0
  9
$THICKNESS
 40
0.0
  9
$LIMCHECK
 70
     0
  9
$CHAMFERA
 40
0.0
  9
$CHAMFERB
 40
0.0
  9
$CHAMFERC
 40
0.0
  9
$CHAMFERD
 40
0.0
  9
$SKPOLY
 70
     0
  9
$TDCREATE
 40
2454690.075573148
  9
$TDUCREATE
 40
2454690.033906482
  9
$TDUPDATE
 40
2454848.875945185
  9
$TDUUPDATE
 40
2454848.834278518
  9
$TDINDWG
 40
0.6374414005
  9
$TDUSRTIMER
 40
0.6374368750
  9
$USRTIMER
 70
     1
  9
$ANGBASE
 50
0.0
  9
$ANGDIR
 70
     0
  9
$PDMODE
 70
     0
  9
$PDSIZE
 40
0.0
  9
$PLINEWID
 40
0.0
  9
$SPLFRAME
 70
     0
  9
$SPLINETYPE
 70
     6
  9
$SPLINESEGS
 70
     8
  9
$HANDSEED
  5
3C67
  9
$SURFTAB1
 70
     6
  9
$SURFTAB2
 70
     6
  9
$SURFTYPE
 70
     6
  9
$SURFU
 70
     6
  9
$SURFV
 70
     6
  9
$UCSBASE
  2

  9
$UCSNAME
  2

  9
$UCSORG
 10
0.0
 20
0.0
 30
0.0
  9
$UCSXDIR
 10
1.0
 20
0.0
 30
0.0
  9
$UCSYDIR
 10
0.0
 20
1.0
 30
0.0
  9
$UCSORTHOREF
  2

  9
$UCSORTHOVIEW
 70
     0
  9
$UCSORGTOP
 10
0.0
 20
0.0
 30
0.0
  9
$UCSORGBOTTOM
 10
0.0
 20
0.0
 30
0.0
  9
$UCSORGLEFT
 10
0.0
 20
0.0
 30
0.0
  9
$UCSORGRIGHT
 10
0.0
 20
0.0
 30
0.0
  9
$UCSORGFRONT
 10
0.0
 20
0.0
 30
0.0
  9
$UCSORGBACK
 10
0.0
 20
0.0
 30
0.0
  9
$PUCSBASE
  2

  9
$PUCSNAME
  2

  9
$PUCSORG
 10
0.0
 20
0.0
 30
0.0
  9
$PUCSXDIR
 10
1.0
 20
0.0
 30
0.0
  9
$PUCSYDIR
 10
0.0
 20
1.0
 30
0.0
  9
$PUCSORTHOREF
  2

  9
$PUCSORTHOVIEW
 70
     0
  9
$PUCSORGTOP
 10
0.0
 20
0.0
 30
0.0
  9
$PUCSORGBOTTOM
 10
0.0
 20
0.0
 30
0.0
  9
$PUCSORGLEFT
 10
0.0
 20
0.0
 30
0.0
  9
$PUCSORGRIGHT
 10
0.0
 20
0.0
 30
0.0
  9
$PUCSORGFRONT
 10
0.0
 20
0.0
 30
0.0
  9
$PUCSORGBACK
 10
0.0
 20
0.0
 30
0.0
  9
$USERI1
 70
     0
  9
$USERI2
 70
     0
  9
$USERI3
 70
     0
  9
$USERI4
 70
     0
  9
$USERI5
 70
     0
  9
$USERR1
 40
0.0
  9
$USERR2
 40
0.0
  9
$USERR3
 40
0.0
  9
$USERR4
 40
0.0
  9
$USERR5
 40
0.0
  9
$WORLDVIEW
 70
     1
  9
$SHADEDGE
 70
     3
  9
$SHADEDIF
 70
    70
  9
$TILEMODE
 70
     1
  9
$MAXACTVP
 70
    64
  9
$PINSBASE
 10
0.0
 20
0.0
 30
0.0
  9
$PLIMCHECK
 70
     0
  9
$PEXTMIN
 10
0.0
 20
0.0
 30
0.0
  9
$PEXTMAX
 10
0.0
 20
0.0
 30
0.0
  9
$PLIMMIN
 10
0.0
 20
0.0
  9
$PLIMMAX
 10
12.0
 20
9.0
  9
$UNITMODE
 70
     0
  9
$VISRETAIN
 70
     1
  9
$PLINEGEN
 70
     0
  9
$PSLTSCALE
 70
     1
  9
$TREEDEPTH
 70
  3020
  9
$CMLSTYLE
  2
SOLBET_IZOLACJA
  9
$CMLJUST
 70
     0
  9
$CMLSCALE
 40
20.0
  9
$PROXYGRAPHICS
 70
     1
  9
$MEASUREMENT
 70
     1
  9
$CELWEIGHT
370
    -1
  9
$ENDCAPS
280
     0
  9
$JOINSTYLE
280
     0
  9
$LWDISPLAY
290
     1
  9
$INSUNITS
 70
     4
  9
$HYPERLINKBASE
  1

  9
$STYLESHEET
  1

  9
$XEDIT
290
     1
  9
$CEPSNTYPE
380
     0
  9
$PSTYLEMODE
290
     1
  9
$FINGERPRINTGUID
  2
{6B12AB33-8E39-428E-8E85-461C8D99A3CB}
  9
$VERSIONGUID
  2
{FCB7C1FE-33C5-4756-95FD-BDF19EBCF3D6}
  9
$EXTNAMES
290
     1
  9
$PSVPSCALE
 40
0.0
  9
$OLESTARTUP
290
     0
  0
ENDSEC
  0
SECTION
  2
CLASSES
  0
CLASS
  1
ACDBDICTIONARYWDFLT
  2
AcDbDictionaryWithDefault
  3
ObjectDBX Classes
 90
        0
280
     0
281
     0
  0
CLASS
  1
ACDBPLACEHOLDER
  2
AcDbPlaceHolder
  3
ObjectDBX Classes
 90
        0
280
     0
281
     0
  0
CLASS
  1
LAYOUT
  2
AcDbLayout
  3
ObjectDBX Classes
 90
        0
280
     0
281
     0
  0
CLASS
  1
DICTIONARYVAR
  2
AcDbDictionaryVar
  3
ObjectDBX Classes
 90
        0
280
     0
281
     0
  0
CLASS
  1
TABLESTYLE
  2
AcDbTableStyle
  3
ObjectDBX Classes
 90
     4095
280
     0
281
     0
  0
CLASS
  1
MATERIAL
  2
AcDbMaterial
  3
ObjectDBX Classes
 90
     1024
280
     0
281
     0
  0
CLASS
  1
VISUALSTYLE
  2
AcDbVisualStyle
  3
ObjectDBX Classes
 90
     4095
280
     0
281
     0
  0
CLASS
  1
SCALE
  2
AcDbScale
  3
ObjectDBX Classes
 90
     1153
280
     0
281
     0
  0
CLASS
  1
MLEADERSTYLE
  2
AcDbMLeaderStyle
  3
ACDB_MLEADERSTYLE_CLASS
 90
     4095
280
     0
281
     0
  0
CLASS
  1
CELLSTYLEMAP
  2
AcDbCellStyleMap
  3
ObjectDBX Classes
 90
     1152
280
     0
281
     0
  0
CLASS
  1
DIMASSOC
  2
AcDbDimAssoc
  3
"AcDbDimAssoc|Product Desc:     AcDim ARX App For Dimension|Company:          Autodesk, Inc.|WEB Address:      www.autodesk.com"
 90
    32768
280
     0
281
     0
  0
CLASS
  1
SORTENTSTABLE
  2
AcDbSortentsTable
  3
ObjectDBX Classes
 90
        0
280
     0
281
     0
  0
CLASS
  1
MULTILEADER
  2
AcDbMLeader
  3
ACDB_MLEADER_CLASS
 90
    33793
280
     0
281
     1
  0
CLASS
  1
ACDB_MTEXTOBJECTCONTEXTDATA_CLASS
  2
AcDbMTextObjectContextData
  3
ObjectDBX Classes
 90
    33921
280
     0
281
     0
  0
CLASS
  1
ACAD_EVALUATION_GRAPH
  2
AcDbEvalGraph
  3
ObjectDBX Classes
 90
    33921
280
     0
281
     0
  0
CLASS
  1
ACAECUSTOBJ
  2
AcAeEditorObj
  3
AcAeEditorObj
 90
    33792
280
     0
281
     0
  0
ENDSEC
  0
SECTION
  2
TABLES
  0
TABLE
  2
VPORT
  5
8
102
{ACAD_XDICTIONARY
360
443
102
}
330
0
100
AcDbSymbolTable
 70
     1
  0
VPORT
  5
EA
330
8
100
AcDbSymbolTableRecord
100
AcDbViewportTableRecord
  2
*Active
 70
     0
 10
0.0
 20
0.0
 11
1.0
 21
1.0
 12
167.1758893816077
 22
148.5000020746477
 13
0.0
 23
0.0
 14
10.0
 24
10.0
 15
10.0
 25
10.0
 16
0.0
 26
0.0
 36
1.0
 17
0.0
 27
0.0
 37
0.0
 40
300.3091621912098
 41
1.74582560296846
 42
50.0
 43
0.0
 44
0.0
 50
0.0
 51
0.0
 71
     0
 72
  1000
 73
     1
 74
     3
 75
     0
 76
     0
 77
     0
 78
     0
281
     0
 65
     1
110
0.0
120
0.0
130
0.0
111
1.0
121
0.0
131
0.0
112
0.0
122
1.0
132
0.0
 79
     0
146
0.0
  0
ENDTAB
  0
TABLE
  2
LTYPE
  5
5
330
0
100
AcDbSymbolTable
 70
     2
  0
LTYPE
  5
14
330
5
100
AcDbSymbolTableRecord
100
AcDbLinetypeTableRecord
  2
ByBlock
 70
     0
  3

 72
    65
 73
     0
 40
0.0
  0
LTYPE
  5
15
330
5
100
AcDbSymbolTableRecord
100
AcDbLinetypeTableRecord
  2
ByLayer
 70
     0
  3

 72
    65
 73
     0
 40
0.0
  0
LTYPE
  5
16
330
5
100
AcDbSymbolTableRecord
100
AcDbLinetypeTableRecord
  2
Continuous
 70
     0
  3
Solid line
 72
    65
 73
     0
 40
0.0
  0
LTYPE
  5
982
330
5
100
AcDbSymbolTableRecord
100
AcDbLinetypeTableRecord
  2
BATTING
 70
     0
  3
Batting SSSSSSSSSSSSSSSSSSSSSSSSSSSSSSSSSSSSSSSSSSSSSSS
 72
    65
 73
     4
 40
10.16254
 49
0.00254
 74
     0
 49
-2.54
 74
     4
 75
   134
340
7E7
 46
2.54
 50
0.0
 44
-2.54
 45
0.0
 49
-5.08
 74
     4
 75
   134
340
7E7
 46
2.54
 50
180.0
 44
2.54
 45
0.0
 49
-2.54
 74
     0
  0
ENDTAB
  0
TABLE
  2
LAYER
  5
2
102
{ACAD_XDICTIONARY
360
3E5
102
}
330
0
100
AcDbSymbolTable
 70
     8
  0
LAYER
  5
10
102
{ACAD_XDICTIONARY
360
13C
102
}
330
2
100
AcDbSymbolTableRecord
100
AcDbLayerTableRecord
  2
0
 70
     0
 62
     7
  6
Continuous
370
    -3
390
F
  0
LAYER
  5
2BB
330
2
100
AcDbSymbolTableRecord
100
AcDbLayerTableRecord
  2
DEFPOINTS
 70
     0
 62
     7
  6
Continuous
290
     0
370
    -3
390
F
  0
LAYER
  5
3DD
102
{ACAD_XDICTIONARY
360
403
102
}
330
2
100
AcDbSymbolTableRecord
100
AcDbLayerTableRecord
  2
SOLBET_Bloczki
 70
     0
 62
   140
  6
Continuous
370
    -3
390
F
1001
AcAecLayerStandard
1000

1000

  0
LAYER
  5
3DF
102
{ACAD_XDICTIONARY
360
405
102
}
330
2
100
AcDbSymbolTableRecord
100
AcDbLayerTableRecord
  2
SOLBET_Wymiary_Opisy
 70
     0
 62
     1
  6
Continuous
370
    -3
390
F
1001
AcAecLayerStandard
1000

1000

  0
LAYER
  5
3E1
102
{ACAD_XDICTIONARY
360
409
102
}
330
2
100
AcDbSymbolTableRecord
100
AcDbLayerTableRecord
  2
SOLBET_Izolacja
 70
     0
 62
    40
  6
Continuous
370
    -3
390
F
1001
AcAecLayerStandard
1000

1000

  0
LAYER
  5
3E2
102
{ACAD_XDICTIONARY
360
40B
102
}
330
2
100
AcDbSymbolTableRecord
100
AcDbLayerTableRecord
  2
SOLBET_Zbrojenie_Konstrukcja
 70
     0
 62
     7
  6
Continuous
370
    -3
390
F
1001
AcAecLayerStandard
1000

1000

  0
LAYER
  5
3E8
102
{ACAD_XDICTIONARY
360
411
102
}
330
2
100
AcDbSymbolTableRecord
100
AcDbLayerTableRecord
  2
SOLBET_Ramka_05
 70
     0
 62
     2
  6
Continuous
370
    -3
390
F
1001
AcAecLayerStandard
1000

1000

  0
LAYER
  5
3B57
102
{ACAD_XDICTIONARY
360
3B58
102
}
330
2
100
AcDbSymbolTableRecord
100
AcDbLayerTableRecord
  2
SOLBET_Wymiary_Opisy @ 1
 70
     0
 62
     1
  6
Continuous
370
    -3
390
F
1001
AcAecLayerStandard
1000

1000

1001
AcadAnnotativeDecomposition
1000
AnnotativeData
1002
{
1070
     1
1070
     1
1002
}
  0
ENDTAB
  0
TABLE
  2
STYLE
  5
3
330
0
100
AcDbSymbolTable
 70
     5
  0
STYLE
  5
11
330
3
100
AcDbSymbolTableRecord
100
AcDbTextStyleTableRecord
  2
Standard
 70
     0
 40
0.0
 41
1.0
 50
0.0
 71
     0
 42
2.5
  3
txt.shx
  4

  0
STYLE
  5
7D7
330
3
100
AcDbSymbolTableRecord
100
AcDbTextStyleTableRecord
  2
Solbet_5
 70
     0
 40
5.0
 41
1.0
 50
0.0
 71
     0
 42
5.0
  3
isocpeur.ttf
  4

1001
ACAD
1000
ISOCPEUR
1071
       34
  0
STYLE
  5
7D9
330
3
100
AcDbSymbolTableRecord
100
AcDbTextStyleTableRecord
  2
Solbet_2_5
 70
     0
 40
2.5
 41
1.0
 50
0.0
 71
     0
 42
2.5
  3
isocpeur.ttf
  4

1001
ACAD
1000
ISOCPEUR
1071
       34
  0
STYLE
  5
7E7
330
3
100
AcDbSymbolTableRecord
100
AcDbTextStyleTableRecord
  2

 70
     1
 40
0.0
 41
1.0
 50
0.0
 71
     0
 42
2.5
  3
ltypeshp.shx
  4

  0
STYLE
  5
21E1
330
3
100
AcDbSymbolTableRecord
100
AcDbTextStyleTableRecord
  2
Solbet_1
 70
     0
 40
1.0
 41
1.0
 50
0.0
 71
     0
 42
2.5
  3
isocpeur.ttf
  4

1001
ACAD
1000
ISOCPEUR
1071
       34
  0
ENDTAB
  0
TABLE
  2
VIEW
  5
6
330
0
100
AcDbSymbolTable
 70
     0
  0
ENDTAB
  0
TABLE
  2
UCS
  5
7
330
0
100
AcDbSymbolTable
 70
     0
  0
ENDTAB
  0
TABLE
  2
APPID
  5
9
330
0
100
AcDbSymbolTable
 70
    15
  0
APPID
  5
12
330
9
100
AcDbSymbolTableRecord
100
AcDbRegAppTableRecord
  2
ACAD
 70
     0
  0
APPID
  5
9E
330
9
100
AcDbSymbolTableRecord
100
AcDbRegAppTableRecord
  2
ACAD_PSEXT
 70
     0
  0
APPID
  5
133
330
9
100
AcDbSymbolTableRecord
100
AcDbRegAppTableRecord
  2
AcadAnnoPO
 70
     0
  0
APPID
  5
134
330
9
100
AcDbSymbolTableRecord
100
AcDbRegAppTableRecord
  2
AcadAnnotative
 70
     0
  0
APPID
  5
135
330
9
100
AcDbSymbolTableRecord
100
AcDbRegAppTableRecord
  2
ACAD_DSTYLE_DIMJAG
 70
     0
  0
APPID
  5
136
330
9
100
AcDbSymbolTableRecord
100
AcDbRegAppTableRecord
  2
ACAD_DSTYLE_DIMTALN
 70
     0
  0
APPID
  5
165
330
9
100
AcDbSymbolTableRecord
100
AcDbRegAppTableRecord
  2
ACAD_MLEADERVER
 70
     0
  0
APPID
  5
2C4
330
9
100
AcDbSymbolTableRecord
100
AcDbRegAppTableRecord
  2
ASO_SCHRAFF
 70
     0
  0
APPID
  5
3DE
330
9
100
AcDbSymbolTableRecord
100
AcDbRegAppTableRecord
  2
AcAecLayerStandard
 70
     0
  0
APPID
  5
7DE
330
9
100
AcDbSymbolTableRecord
100
AcDbRegAppTableRecord
  2
ACAD_EXEMPT_FROM_CAD_STANDARDS
 70
     0
  0
APPID
  5
948
330
9
100
AcDbSymbolTableRecord
100
AcDbRegAppTableRecord
  2
ACAD_DSTYLE_DIMBREAK
 70
     0
  0
APPID
  5
1D0A
330
9
100
AcDbSymbolTableRecord
100
AcDbRegAppTableRecord
  2
AcadAnnotativeDecomposition
 70
     0
  0
APPID
  5
21E2
330
9
100
AcDbSymbolTableRecord
100
AcDbRegAppTableRecord
  2
AcDbAttr
 70
     0
  0
APPID
  5
3466
330
9
100
AcDbSymbolTableRecord
100
AcDbRegAppTableRecord
  2
ACAUTHENVIRON
 70
     0
  0
APPID
  5
3ADF
330
9
100
AcDbSymbolTableRecord
100
AcDbRegAppTableRecord
  2
DCO15
 70
     0
  0
ENDTAB
  0
TABLE
  2
DIMSTYLE
  5
A
330
0
100
AcDbSymbolTable
 70
     2
100
AcDbDimStyleTable
 71
     1
340
949
  0
DIMSTYLE
105
949
330
A
100
AcDbSymbolTableRecord
100
AcDbDimStyleTableRecord
  2
Solbet
 70
     0
 41
2.5
 42
0.0
 43
3.75
 44
1.25
 73
     0
 74
     0
 77
     1
 78
     8
140
2.5
141
2.5
143
0.03937007874016
147
0.625
171
     3
172
     1
271
     2
272
     2
274
     3
278
    44
283
     0
284
     8
340
7D9
1001
ACAD_DSTYLE_DIMBREAK
1070
   391
1040
3.75
1001
ACAD_DSTYLE_DIMJAG
1070
   388
1040
1.5
1001
ACAD_DSTYLE_DIMTALN
1070
   392
1070
     0
  0
DIMSTYLE
105
954
330
A
100
AcDbSymbolTableRecord
100
AcDbDimStyleTableRecord
  2
Solbet$7
 70
     0
 41
2.5
 42
0.0
 43
3.75
 44
1.25
 73
     0
 74
     0
 77
     1
 78
     8
140
2.5
141
2.5
143
0.03937007874016
147
0.625
171
     3
172
     1
271
     2
272
     2
274
     3
278
    44
283
     0
284
     8
340
7D9
341
958
1001
ACAD_DSTYLE_DIMBREAK
1070
   391
1040
3.75
1001
ACAD_DSTYLE_DIMJAG
1070
   388
1040
1.5
1001
ACAD_DSTYLE_DIMTALN
1070
   392
1070
     0
  0
ENDTAB
  0
TABLE
  2
BLOCK_RECORD
  5
1
330
0
100
AcDbSymbolTable
 70
    14
  0
BLOCK_RECORD
  5
1F
102
{ACAD_XDICTIONARY
360
4A3
102
}
330
1
100
AcDbSymbolTableRecord
100
AcDbBlockTableRecord
  2
*Model_Space
340
22
  0
BLOCK_RECORD
  5
D2
330
1
100
AcDbSymbolTableRecord
100
AcDbBlockTableRecord
  2
*Paper_Space
340
D3
  0
BLOCK_RECORD
  5
D6
330
1
100
AcDbSymbolTableRecord
100
AcDbBlockTableRecord
  2
*Paper_Space0
340
D7
  0
BLOCK_RECORD
  5
958
330
1
100
AcDbSymbolTableRecord
100
AcDbBlockTableRecord
  2
_DotSmall
340
0
102
{BLKREFS
331
3765
102
}
  0
BLOCK_RECORD
  5
2FD7
102
{ACAD_XDICTIONARY
360
2FE3
102
}
330
1
100
AcDbSymbolTableRecord
100
AcDbBlockTableRecord
  2
SOLBET_Bloczek_Optimal_420x240x590_P+W_GOR
340
0
1001
ACAD
1000
DesignCenter Data
1002
{
1070
     1
1070
     4
1002
}
  0
BLOCK_RECORD
  5
3025
102
{ACAD_XDICTIONARY
360
3031
102
}
330
1
100
AcDbSymbolTableRecord
100
AcDbBlockTableRecord
  2
SOLBET_Bloczek_Optimal_420x240x590_P+W_PRZ
340
0
1001
ACAD
1000
DesignCenter Data
1002
{
1070
     1
1070
     4
1002
}
  0
BLOCK_RECORD
  5
3449
102
{ACAD_XDICTIONARY
360
3453
102
}
330
1
100
AcDbSymbolTableRecord
100
AcDbBlockTableRecord
  2
SOLBET_Ksztaltka_U_420x240x500_PRZ
340
0
1001
ACAD
1000
DesignCenter Data
1002
{
1070
     1
1070
     4
1002
}
  0
BLOCK_RECORD
  5
36CC
102
{ACAD_XDICTIONARY
360
36DA
102
}
330
1
100
AcDbSymbolTableRecord
100
AcDbBlockTableRecord
  2
SOLBET_Ksztaltka_U_420x240x500_PRA
340
0
102
{BLKREFS
331
383D
331
383E
102
}
1001
ACAD
1000
DesignCenter Data
1002
{
1070
     1
1070
     4
1002
}
  0
BLOCK_RECORD
  5
384C
330
1
100
AcDbSymbolTableRecord
100
AcDbBlockTableRecord
  2
_None
340
0
  0
BLOCK_RECORD
  5
3973
102
{ACAD_XDICTIONARY
360
397F
102
}
330
1
100
AcDbSymbolTableRecord
100
AcDbBlockTableRecord
  2
SOLBET_Bloczek_Ideal_420x240x590_P+W_PRA
340
0
1001
ACAD
1000
DesignCenter Data
1002
{
1070
     1
1070
     4
1002
}
  0
BLOCK_RECORD
  5
3983
102
{ACAD_XDICTIONARY
360
398F
102
}
330
1
100
AcDbSymbolTableRecord
100
AcDbBlockTableRecord
  2
SOLBET_Bloczek_Ideal_420x240x590_P+W_PRZ
340
0
1001
ACAD
1000
DesignCenter Data
1002
{
1070
     1
1070
     4
1002
}
  0
BLOCK_RECORD
  5
3A05
102
{ACAD_XDICTIONARY
360
3A11
102
}
330
1
100
AcDbSymbolTableRecord
100
AcDbBlockTableRecord
  2
SOLBET_Bloczek_Ideal_420x240x590_P+W_GOR
340
0
1001
ACAD
1000
DesignCenter Data
1002
{
1070
     1
1070
     4
1002
}
  0
BLOCK_RECORD
  5
3B95
102
{ACAD_XDICTIONARY
360
3BA1
102
}
330
1
100
AcDbSymbolTableRecord
100
AcDbBlockTableRecord
  2
SOLBET_Bloczek_Ideal_420x240x590_P+W_KG400_PRZ
340
0
102
{BLKREFS
331
3BA5
331
3BA6
331
3BA7
331
3BA8
331
3BA9
331
3BAA
331
3BAB
331
3BAC
331
3BAD
331
3BAE
331
3BAF
331
3BB0
331
3BB1
331
3BB2
331
3BB3
331
3BB4
331
3BB5
331
3BB6
331
3BB7
331
3BB8
331
3BB9
331
3BBA
331
3BBB
331
3BBC
331
3BBD
331
3BBE
331
3BBF
331
3BC0
331
3BC4
331
3BC5
331
3BC6
331
3BC7
331
3BC8
331
3BC9
331
3BCA
331
3BCB
102
}
1001
ACAD
1000
DesignCenter Data
1002
{
1070
     1
1070
     4
1002
}
  0
BLOCK_RECORD
  5
3BCC
102
{ACAD_XDICTIONARY
360
3BD6
102
}
330
1
100
AcDbSymbolTableRecord
100
AcDbBlockTableRecord
  2
SOLBET_Ksztaltka_U_420x240x500_KG400_PRZ
340
0
102
{BLKREFS
331
3BDA
331
3BDB
331
3BDC
331
3BDD
331
3BDE
331
3BDF
331
3BE0
331
3BE1
331
3BE2
331
3BE3
102
}
1001
ACAD
1000
DesignCenter Data
1002
{
1070
     1
1070
     4
1002
}
  0
BLOCK_RECORD
  5
3BE4
102
{ACAD_XDICTIONARY
360
3BF0
102
}
330
1
100
AcDbSymbolTableRecord
100
AcDbBlockTableRecord
  2
SOLBET_Bloczek_Ideal_420x240x590_P+W_KG400_GOR
340
0
102
{BLKREFS
331
3BF4
331
3BF5
331
3BF6
102
}
1001
ACAD
1000
DesignCenter Data
1002
{
1070
     1
1070
     4
1002
}
  0
ENDTAB
  0
ENDSEC
  0
SECTION
  2
BLOCKS
  0
BLOCK
  5
20
330
1F
100
AcDbEntity
  8
0
100
AcDbBlockBegin
  2
*Model_Space
 70
     0
 10
0.0
 20
0.0
 30
0.0
  3
*Model_Space
  1

  0
ENDBLK
  5
21
330
1F
100
AcDbEntity
  8
0
100
AcDbBlockEnd
  0
BLOCK
  5
D4
330
D2
100
AcDbEntity
 67
     1
  8
0
100
AcDbBlockBegin
  2
*Paper_Space
 70
     0
 10
0.0
 20
0.0
 30
0.0
  3
*Paper_Space
  1

  0
ENDBLK
  5
D5
330
D2
100
AcDbEntity
 67
     1
  8
0
100
AcDbBlockEnd
  0
BLOCK
  5
D8
330
D6
100
AcDbEntity
 67
     1
  8
0
100
AcDbBlockBegin
  2
*Paper_Space0
 70
     0
 10
0.0
 20
0.0
 30
0.0
  3
*Paper_Space0
  1

  0
ENDBLK
  5
D9
330
D6
100
AcDbEntity
 67
     1
  8
0
100
AcDbBlockEnd
  0
BLOCK
  5
95A
330
958
100
AcDbEntity
  8
0
100
AcDbBlockBegin
  2
_DotSmall
 70
     0
 10
0.0
 20
0.0
 30
0.0
  3
_DotSmall
  1

  0
LWPOLYLINE
  5
959
330
958
100
AcDbEntity
  8
0
  6
ByBlock
 62
     0
100
AcDbPolyline
 90
        2
 70
     1
 43
0.5
 10
-0.0625
 20
0.0
 42
1.0
 10
0.0625
 20
0.0
 42
1.0
  0
ENDBLK
  5
95B
330
958
100
AcDbEntity
  8
0
100
AcDbBlockEnd
  0
BLOCK
  5
2FE5
330
2FD7
100
AcDbEntity
  8
0
100
AcDbBlockBegin
  2
SOLBET_Bloczek_Optimal_420x240x590_P+W_GOR
 70
     2
 10
0.0
 20
0.0
 30
0.0
  3
SOLBET_Bloczek_Optimal_420x240x590_P+W_GOR
  1

  0
ATTDEF
  5
36E6
330
2FD7
100
AcDbEntity
  8
SOLBET_Wymiary_Opisy
100
AcDbText
 10
0.0000000363686468
 20
6.303237337433069
 30
0.0
 40
0.9913121336814832
  1
420x240x590
  7
Solbet_1
100
AcDbAttributeDefinition
  3

  2
WYMIARY
 70
     3
1001
AcDbAttr
1070
     0
1070
     1
  0
ATTDEF
  5
36E7
330
2FD7
100
AcDbEntity
  8
SOLBET_Wymiary_Opisy
100
AcDbText
 10
0.0000000363686468
 20
4.790717929716971
 30
0.0
 40
0.9913121336814832
  1
400
  7
Solbet_1
100
AcDbAttributeDefinition
  3

  2
KLASA_GĘSTOŚCI
 70
     9
1001
AcDbAttr
1070
     0
1070
     1
  0
ATTDEF
  5
36E8
330
2FD7
100
AcDbEntity
  8
SOLBET_Wymiary_Opisy
100
AcDbText
 10
0.0000000363686468
 20
3.269569094504745
 30
0.0
 40
0.9913121336814832
  1
Pióra+Wpusty
  7
Solbet_1
100
AcDbAttributeDefinition
  3

  2
PROFILOWANIE
 70
     3
1001
AcDbAttr
1070
     0
1070
     1
  0
ATTDEF
  5
36E9
330
2FD7
100
AcDbEntity
  8
SOLBET_Wymiary_Opisy
100
AcDbText
 10
0.0000000363686468
 20
0.2448646851639659
 30
0.0
 40
0.9913121336814832
  1
SOLBET
  7
Solbet_1
100
AcDbAttributeDefinition
  3

  2
FIRMA
 70
     3
1001
AcDbAttr
1070
     0
1070
     1
  0
ATTDEF
  5
36EA
330
2FD7
100
AcDbEntity
  8
SOLBET_Wymiary_Opisy
100
AcDbText
 10
0.0000000363686468
 20
9.333547335780901
 30
0.0
 40
0.9913121336814832
  1
Bloczek
  7
Solbet_1
100
AcDbAttributeDefinition
  3
Nazwa
  2
NAZWA
 70
     3
1001
AcDbAttr
1070
     0
1070
     1
  0
ATTDEF
  5
36EB
330
2FD7
100
AcDbEntity
  8
SOLBET_Wymiary_Opisy
100
AcDbText
 10
0.0000000363686468
 20
7.794499155546696
 30
0.0
 40
0.9913121336814832
  1
OPTIMAL
  7
Solbet_1
100
AcDbAttributeDefinition
  3

  2
SYSTEM
 70
     3
1001
AcDbAttr
1070
     0
1070
     1
  0
ATTDEF
  5
36EC
330
2FD7
100
AcDbEntity
  8
SOLBET_Wymiary_Opisy
100
AcDbText
 10
0.0000000363686468
 20
1.744181444691078
 30
0.0
 40
0.9913121336814832
  1
Góra
  7
Solbet_1
100
AcDbAttributeDefinition
  3

  2
WIDOK
 70
    11
1001
AcDbAttr
1070
     0
1070
     1
  0
LINE
  5
36ED
330
2FD7
100
AcDbEntity
  8
SOLBET_Bloczki
100
AcDbLine
 10
-0.0000001473426892
 20
0.0000000920231287
 30
0.0
 11
29.49999992726271
 21
0.0000000585339421
 31
0.0
  0
LINE
  5
36EE
330
2FD7
100
AcDbEntity
  8
SOLBET_Bloczki
100
AcDbLine
 10
29.49999992726271
 20
0.0000000585339421
 30
0.0
 11
29.49999985265754
 21
21.00000009202324
 31
0.0
  0
LINE
  5
36EF
330
2FD7
100
AcDbEntity
  8
SOLBET_Bloczki
100
AcDbLine
 10
29.49999985265754
 20
21.00000009202324
 30
0.0
 11
-0.0000001473426892
 21
21.00000009202324
 31
0.0
  0
LINE
  5
36F0
330
2FD7
100
AcDbEntity
  8
SOLBET_Bloczki
100
AcDbLine
 10
-0.0000001473426892
 20
21.00000009202324
 30
0.0
 11
-0.0000000727372935
 21
0.0000000585339421
 31
0.0
  0
ENDBLK
  5
2FE6
330
2FD7
100
AcDbEntity
  8
0
100
AcDbBlockEnd
  0
BLOCK
  5
3033
330
3025
100
AcDbEntity
  8
0
100
AcDbBlockBegin
  2
SOLBET_Bloczek_Optimal_420x240x590_P+W_PRZ
 70
     2
 10
0.0
 20
0.0
 30
0.0
  3
SOLBET_Bloczek_Optimal_420x240x590_P+W_PRZ
  1

  0
ATTDEF
  5
34C3
330
3025
100
AcDbEntity
  8
SOLBET_Wymiary_Opisy
100
AcDbText
 10
0.0000000363686468
 20
6.303237354177662
 30
0.0
 40
0.9913121336814832
  1
420x240x590
  7
Solbet_1
100
AcDbAttributeDefinition
  3

  2
WYMIARY
 70
     3
1001
AcDbAttr
1070
     0
1070
     1
  0
ATTDEF
  5
34C4
330
3025
100
AcDbEntity
  8
SOLBET_Wymiary_Opisy
100
AcDbText
 10
0.0000000363686468
 20
4.790717946461565
 30
0.0
 40
0.9913121336814832
  1
400
  7
Solbet_1
100
AcDbAttributeDefinition
  3

  2
KLASA_GĘSTOŚCI
 70
     9
1001
AcDbAttr
1070
     0
1070
     1
  0
ATTDEF
  5
34C5
330
3025
100
AcDbEntity
  8
SOLBET_Wymiary_Opisy
100
AcDbText
 10
0.0000000363686468
 20
3.269569111249338
 30
0.0
 40
0.9913121336814832
  1
Pióra+Wpusty
  7
Solbet_1
100
AcDbAttributeDefinition
  3

  2
PROFILOWANIE
 70
     3
1001
AcDbAttr
1070
     0
1070
     1
  0
ATTDEF
  5
34C6
330
3025
100
AcDbEntity
  8
SOLBET_Wymiary_Opisy
100
AcDbText
 10
0.0000000363686468
 20
0.2448647019085592
 30
0.0
 40
0.9913121336814832
  1
SOLBET
  7
Solbet_1
100
AcDbAttributeDefinition
  3

  2
FIRMA
 70
     3
1001
AcDbAttr
1070
     0
1070
     1
  0
ATTDEF
  5
34C7
330
3025
100
AcDbEntity
  8
SOLBET_Wymiary_Opisy
100
AcDbText
 10
0.0000000363686468
 20
9.333547352525494
 30
0.0
 40
0.9913121336814832
  1
Bloczek
  7
Solbet_1
100
AcDbAttributeDefinition
  3
Nazwa
  2
NAZWA
 70
     3
1001
AcDbAttr
1070
     0
1070
     1
  0
ATTDEF
  5
34C8
330
3025
100
AcDbEntity
  8
SOLBET_Wymiary_Opisy
100
AcDbText
 10
0.0000000363686468
 20
7.794499172291289
 30
0.0
 40
0.9913121336814832
  1
OPTIMAL
  7
Solbet_1
100
AcDbAttributeDefinition
  3

  2
SYSTEM
 70
     3
1001
AcDbAttr
1070
     0
1070
     1
  0
ATTDEF
  5
34C9
330
3025
100
AcDbEntity
  8
SOLBET_Wymiary_Opisy
100
AcDbText
 10
0.0000000363686468
 20
1.744181461435671
 30
0.0
 40
0.9913121336814832
  1
Przód
  7
Solbet_1
100
AcDbAttributeDefinition
  3

  2
WIDOK
 70
    11
1001
AcDbAttr
1070
     0
1070
     1
  0
LINE
  5
34CA
330
3025
100
AcDbEntity
  8
SOLBET_Bloczki
100
AcDbLine
 10
-0.0000000727372935
 20
0.0000000585339421
 30
0.0
 11
29.49999992726271
 21
0.0000000585339421
 31
0.0
  0
LINE
  5
34CB
330
3025
100
AcDbEntity
  8
SOLBET_Bloczki
100
AcDbLine
 10
29.49999992726271
 20
0.0000000585339421
 30
0.0
 11
29.49999992726271
 21
12.00000005853394
 31
0.0
  0
LINE
  5
34CC
330
3025
100
AcDbEntity
  8
SOLBET_Bloczki
100
AcDbLine
 10
29.49999992726271
 20
12.00000005853394
 30
0.0
 11
-0.0000000727372935
 21
12.00000005853394
 31
0.0
  0
LINE
  5
34CD
330
3025
100
AcDbEntity
  8
SOLBET_Bloczki
100
AcDbLine
 10
-0.0000000727372935
 20
12.00000005853394
 30
0.0
 11
-0.0000000727372935
 21
0.0000000585339421
 31
0.0
  0
ENDBLK
  5
3034
330
3025
100
AcDbEntity
  8
0
100
AcDbBlockEnd
  0
BLOCK
  5
3455
330
3449
100
AcDbEntity
  8
0
100
AcDbBlockBegin
  2
SOLBET_Ksztaltka_U_420x240x500_PRZ
 70
     2
 10
0.0
 20
0.0
 30
0.0
  3
SOLBET_Ksztaltka_U_420x240x500_PRZ
  1

  0
ATTDEF
  5
36AB
330
3449
100
AcDbEntity
  8
SOLBET_Wymiary_Opisy
100
AcDbText
 10
-0.0000000476806008
 20
4.790718044940628
 30
0.0
 40
0.9913121336814832
  1
420x240x500
  7
Solbet_1
100
AcDbAttributeDefinition
  3

  2
WYMIARY
 70
     3
1001
AcDbAttr
1070
     0
1070
     1
  0
ATTDEF
  5
36AC
330
3449
100
AcDbEntity
  8
SOLBET_Wymiary_Opisy
100
AcDbText
 10
-0.0000000476806008
 20
3.27819863722453
 30
0.0
 40
0.9913121336814832
  1
400
  7
Solbet_1
100
AcDbAttributeDefinition
  3

  2
KLASA_GĘSTOŚCI
 70
     3
1001
AcDbAttr
1070
     0
1070
     1
  0
ATTDEF
  5
36AD
330
3449
100
AcDbEntity
  8
SOLBET_Wymiary_Opisy
100
AcDbText
 10
-0.0000000476806008
 20
0.2448648003876223
 30
0.0
 40
0.9913121336814832
  1
SOLBET
  7
Solbet_1
100
AcDbAttributeDefinition
  3

  2
FIRMA
 70
     3
1001
AcDbAttr
1070
     0
1070
     1
  0
ATTDEF
  5
36AE
330
3449
100
AcDbEntity
  8
SOLBET_Wymiary_Opisy
100
AcDbText
 10
-0.0000000476806008
 20
6.347422594011662
 30
0.0
 40
0.9913121336814832
  1
Kształtka U
  7
Solbet_1
100
AcDbAttributeDefinition
  3
Nazwa
  2
NAZWA
 70
     3
1001
AcDbAttr
1070
     0
1070
     1
  0
ATTDEF
  5
36AF
330
3449
100
AcDbEntity
  8
SOLBET_Wymiary_Opisy
100
AcDbText
 10
-0.0000000476806008
 20
1.744181559914735
 30
0.0
 40
0.9913121336814832
  1
Przód
  7
Solbet_1
100
AcDbAttributeDefinition
  3

  2
WIDOK
 70
    11
1001
AcDbAttr
1070
     0
1070
     1
  0
LINE
  5
36B0
330
3449
100
AcDbEntity
  8
SOLBET_Bloczki
100
AcDbLine
 10
0.0000011061968053
 20
11.99999990104152
 30
0.0
 11
25.00000110619658
 21
11.99999990104152
 31
0.0
  0
LINE
  5
36B1
330
3449
100
AcDbEntity
  8
SOLBET_Bloczki
100
AcDbLine
 10
25.00000110619658
 20
11.99999990104152
 30
0.0
 11
25.00000110619658
 21
-0.0000000989584821
 31
0.0
  0
LINE
  5
36B2
330
3449
100
AcDbEntity
  8
SOLBET_Bloczki
100
AcDbLine
 10
25.00000110619658
 20
-0.0000000989584821
 30
0.0
 11
0.0000011061965779
 21
-0.0000000989584805
 31
0.0
  0
LINE
  5
36B3
330
3449
100
AcDbEntity
  8
SOLBET_Bloczki
100
AcDbLine
 10
0.0000011061965779
 20
-0.0000000989584805
 30
0.0
 11
0.0000011061968053
 21
11.99999990104152
 31
0.0
  0
ENDBLK
  5
3456
330
3449
100
AcDbEntity
  8
0
100
AcDbBlockEnd
  0
BLOCK
  5
36DC
330
36CC
100
AcDbEntity
  8
0
100
AcDbBlockBegin
  2
SOLBET_Ksztaltka_U_420x240x500_PRA
 70
     2
 10
0.0
 20
0.0
 30
0.0
  3
SOLBET_Ksztaltka_U_420x240x500_PRA
  1

  0
ATTDEF
  5
36CD
330
36CC
100
AcDbEntity
  8
SOLBET_Wymiary_Opisy
100
AcDbText
 10
-0.0000000476806008
 20
4.790718044940628
 30
0.0
 40
0.9913121336814832
  1
420x240x500
  7
Solbet_1
100
AcDbAttributeDefinition
  3

  2
WYMIARY
 70
     3
1001
AcDbAttr
1070
     0
1070
     1
  0
ATTDEF
  5
36CE
330
36CC
100
AcDbEntity
  8
SOLBET_Wymiary_Opisy
100
AcDbText
 10
-0.0000000476806008
 20
3.27819863722453
 30
0.0
 40
0.9913121336814832
  1
400
  7
Solbet_1
100
AcDbAttributeDefinition
  3

  2
KLASA_GĘSTOŚCI
 70
     3
1001
AcDbAttr
1070
     0
1070
     1
  0
ATTDEF
  5
36CF
330
36CC
100
AcDbEntity
  8
SOLBET_Wymiary_Opisy
100
AcDbText
 10
-0.0000000476806008
 20
0.2448648003876223
 30
0.0
 40
0.9913121336814832
  1
SOLBET
  7
Solbet_1
100
AcDbAttributeDefinition
  3

  2
FIRMA
 70
     3
1001
AcDbAttr
1070
     0
1070
     1
  0
ATTDEF
  5
36D0
330
36CC
100
AcDbEntity
  8
SOLBET_Wymiary_Opisy
100
AcDbText
 10
-0.0000000476806008
 20
6.347422594011662
 30
0.0
 40
0.9913121336814832
  1
Kształtka U
  7
Solbet_1
100
AcDbAttributeDefinition
  3
Nazwa
  2
NAZWA
 70
     3
1001
AcDbAttr
1070
     0
1070
     1
  0
ATTDEF
  5
36D1
330
36CC
100
AcDbEntity
  8
SOLBET_Wymiary_Opisy
100
AcDbText
 10
-0.0000000476806008
 20
1.744181559914735
 30
0.0
 40
0.9913121336814832
  1
Prawo
  7
Solbet_1
100
AcDbAttributeDefinition
  3

  2
WIDOK
 70
    11
1001
AcDbAttr
1070
     0
1070
     1
  0
LINE
  5
36D2
330
36CC
100
AcDbEntity
  8
SOLBET_Bloczki
100
AcDbLine
 10
0.0000011705760737
 20
20.99999992050084
 30
0.0
 11
12.00000117057607
 21
20.99999992050084
 31
0.0
  0
LINE
  5
36D3
330
36CC
100
AcDbEntity
  8
SOLBET_Bloczki
100
AcDbLine
 10
12.00000117057607
 20
20.99999992050084
 30
0.0
 11
12.00000117057607
 21
-0.0000000794991628
 31
0.0
  0
LINE
  5
36D4
330
36CC
100
AcDbEntity
  8
SOLBET_Bloczki
100
AcDbLine
 10
12.00000117057607
 20
-0.0000000794991628
 30
0.0
 11
0.0000011705760699
 21
-0.0000000794991593
 31
0.0
  0
LINE
  5
36D5
330
36CC
100
AcDbEntity
  8
SOLBET_Bloczki
100
AcDbLine
 10
0.0000011705760699
 20
-0.0000000794991593
 30
0.0
 11
0.0000011705760706
 21
3.99999992050084
 31
0.0
  0
LINE
  5
36D6
330
36CC
100
AcDbEntity
  8
SOLBET_Bloczki
100
AcDbLine
 10
0.0000011705760737
 20
20.99999992050084
 30
0.0
 11
0.000001170576073
 21
16.99999992050084
 31
0.0
  0
LINE
  5
36D7
330
36CC
100
AcDbEntity
  8
SOLBET_Bloczki
100
AcDbLine
 10
8.000001170576073
 20
16.99999992050084
 30
0.0
 11
8.000001170576069
 21
3.99999992050084
 31
0.0
  0
LINE
  5
36D8
330
36CC
100
AcDbEntity
  8
SOLBET_Bloczki
100
AcDbLine
 10
0.000001170576073
 20
16.99999992050084
 30
0.0
 11
8.000001170576073
 21
16.99999992050084
 31
0.0
  0
LINE
  5
36D9
330
36CC
100
AcDbEntity
  8
SOLBET_Bloczki
100
AcDbLine
 10
0.0000011705760706
 20
3.99999992050084
 30
0.0
 11
8.000001170576069
 21
3.99999992050084
 31
0.0
  0
ENDBLK
  5
36DD
330
36CC
100
AcDbEntity
  8
0
100
AcDbBlockEnd
  0
BLOCK
  5
384D
330
384C
100
AcDbEntity
  8
0
100
AcDbBlockBegin
  2
_None
 70
     0
 10
0.0
 20
0.0
 30
0.0
  3
_None
  1

  0
ENDBLK
  5
384E
330
384C
100
AcDbEntity
  8
0
100
AcDbBlockEnd
  0
BLOCK
  5
3981
330
3973
100
AcDbEntity
  8
0
100
AcDbBlockBegin
  2
SOLBET_Bloczek_Ideal_420x240x590_P+W_PRA
 70
     2
 10
0.0
 20
0.0
 30
0.0
  3
SOLBET_Bloczek_Ideal_420x240x590_P+W_PRA
  1

  0
ATTDEF
  5
3974
330
3973
100
AcDbEntity
  8
SOLBET_Wymiary_Opisy
100
AcDbText
 10
-0.0000000703746536
 20
6.303237281370451
 30
0.0
 40
0.9913121336814832
  1
420x240x590
  7
Solbet_1
100
AcDbAttributeDefinition
  3

  2
WYMIARY
 70
     3
1001
AcDbAttr
1070
     0
1070
     1
  0
ATTDEF
  5
3975
330
3973
100
AcDbEntity
  8
SOLBET_Wymiary_Opisy
100
AcDbText
 10
-0.0000000703746536
 20
4.790717873654354
 30
0.0
 40
0.9913121336814832
  1
400
  7
Solbet_1
100
AcDbAttributeDefinition
  3

  2
KLASA_GĘSTOŚCI
 70
     9
1001
AcDbAttr
1070
     0
1070
     1
  0
ATTDEF
  5
3976
330
3973
100
AcDbEntity
  8
SOLBET_Wymiary_Opisy
100
AcDbText
 10
-0.0000000703746536
 20
3.269569038442127
 30
0.0
 40
0.9913121336814832
  1
Pióra+Wpusty
  7
Solbet_1
100
AcDbAttributeDefinition
  3

  2
PROFILOWANIE
 70
     3
1001
AcDbAttr
1070
     0
1070
     1
  0
ATTDEF
  5
3977
330
3973
100
AcDbEntity
  8
SOLBET_Wymiary_Opisy
100
AcDbText
 10
-0.0000000703746536
 20
0.2448646291013483
 30
0.0
 40
0.9913121336814832
  1
SOLBET
  7
Solbet_1
100
AcDbAttributeDefinition
  3

  2
FIRMA
 70
     3
1001
AcDbAttr
1070
     0
1070
     1
  0
ATTDEF
  5
3978
330
3973
100
AcDbEntity
  8
SOLBET_Wymiary_Opisy
100
AcDbText
 10
-0.0000000703746536
 20
9.333547279718283
 30
0.0
 40
0.9913121336814832
  1
Bloczek
  7
Solbet_1
100
AcDbAttributeDefinition
  3
Nazwa
  2
NAZWA
 70
     3
1001
AcDbAttr
1070
     0
1070
     1
  0
ATTDEF
  5
3979
330
3973
100
AcDbEntity
  8
SOLBET_Wymiary_Opisy
100
AcDbText
 10
-0.0000000703746536
 20
7.794499099484078
 30
0.0
 40
0.9913121336814832
  1
SOLBET IDEAL
  7
Solbet_1
100
AcDbAttributeDefinition
  3

  2
SYSTEM
 70
     3
1001
AcDbAttr
1070
     0
1070
     1
  0
ATTDEF
  5
397A
330
3973
100
AcDbEntity
  8
SOLBET_Wymiary_Opisy
100
AcDbText
 10
-0.0000000703746536
 20
1.74418138862846
 30
0.0
 40
0.9913121336814832
  1
Prawo
  7
Solbet_1
100
AcDbAttributeDefinition
  3

  2
WIDOK
 70
    11
1001
AcDbAttr
1070
     0
1070
     1
  0
LINE
  5
397B
330
3973
100
AcDbEntity
  8
SOLBET_Bloczki
100
AcDbLine
 10
21.00000014074931
 20
12.00000020414847
 30
0.0
 11
21.00000014074931
 21
0.000000204148364
 31
0.0
  0
LINE
  5
397C
330
3973
100
AcDbEntity
  8
SOLBET_Bloczki
100
AcDbLine
 10
21.00000014074931
 20
12.00000020414847
 30
0.0
 11
0.0000001407493072
 21
12.00000020414847
 31
0.0
  0
LINE
  5
397D
330
3973
100
AcDbEntity
  8
SOLBET_Bloczki
100
AcDbLine
 10
0.0000001407493072
 20
12.00000020414847
 30
0.0
 11
0.0000001407493072
 21
0.000000204148364
 31
0.0
  0
LINE
  5
397E
330
3973
100
AcDbEntity
  8
SOLBET_Bloczki
100
AcDbLine
 10
0.0000001407493072
 20
0.000000204148364
 30
0.0
 11
21.00000014074931
 21
0.000000204148364
 31
0.0
  0
ENDBLK
  5
3982
330
3973
100
AcDbEntity
  8
0
100
AcDbBlockEnd
  0
BLOCK
  5
3991
330
3983
100
AcDbEntity
  8
0
100
AcDbBlockBegin
  2
SOLBET_Bloczek_Ideal_420x240x590_P+W_PRZ
 70
     2
 10
0.0
 20
0.0
 30
0.0
  3
SOLBET_Bloczek_Ideal_420x240x590_P+W_PRZ
  1

  0
ATTDEF
  5
3984
330
3983
100
AcDbEntity
  8
SOLBET_Wymiary_Opisy
100
AcDbText
 10
0.0
 20
6.303237354177662
 30
0.0
 40
0.9913121336814832
  1
420x240x590
  7
Solbet_1
100
AcDbAttributeDefinition
  3

  2
WYMIARY
 70
     3
1001
AcDbAttr
1070
     0
1070
     1
  0
ATTDEF
  5
3985
330
3983
100
AcDbEntity
  8
SOLBET_Wymiary_Opisy
100
AcDbText
 10
0.0
 20
4.790717946461565
 30
0.0
 40
0.9913121336814832
  1
400
  7
Solbet_1
100
AcDbAttributeDefinition
  3

  2
KLASA_GĘSTOŚCI
 70
     9
1001
AcDbAttr
1070
     0
1070
     1
  0
ATTDEF
  5
3986
330
3983
100
AcDbEntity
  8
SOLBET_Wymiary_Opisy
100
AcDbText
 10
0.0
 20
3.269569111249338
 30
0.0
 40
0.9913121336814832
  1
Pióra+Wpusty
  7
Solbet_1
100
AcDbAttributeDefinition
  3

  2
PROFILOWANIE
 70
     3
1001
AcDbAttr
1070
     0
1070
     1
  0
ATTDEF
  5
3987
330
3983
100
AcDbEntity
  8
SOLBET_Wymiary_Opisy
100
AcDbText
 10
0.0
 20
0.2448647019085592
 30
0.0
 40
0.9913121336814832
  1
SOLBET
  7
Solbet_1
100
AcDbAttributeDefinition
  3

  2
FIRMA
 70
     3
1001
AcDbAttr
1070
     0
1070
     1
  0
ATTDEF
  5
3988
330
3983
100
AcDbEntity
  8
SOLBET_Wymiary_Opisy
100
AcDbText
 10
0.0
 20
9.333547352525494
 30
0.0
 40
0.9913121336814832
  1
Bloczek
  7
Solbet_1
100
AcDbAttributeDefinition
  3
Nazwa
  2
NAZWA
 70
     3
1001
AcDbAttr
1070
     0
1070
     1
  0
ATTDEF
  5
3989
330
3983
100
AcDbEntity
  8
SOLBET_Wymiary_Opisy
100
AcDbText
 10
0.0
 20
7.794499172291289
 30
0.0
 40
0.9913121336814832
  1
SOLBET IDEAL
  7
Solbet_1
100
AcDbAttributeDefinition
  3

  2
SYSTEM
 70
     3
1001
AcDbAttr
1070
     0
1070
     1
  0
ATTDEF
  5
398A
330
3983
100
AcDbEntity
  8
SOLBET_Wymiary_Opisy
100
AcDbText
 10
0.0
 20
1.744181461435671
 30
0.0
 40
0.9913121336814832
  1
Przód
  7
Solbet_1
100
AcDbAttributeDefinition
  3

  2
WIDOK
 70
    11
1001
AcDbAttr
1070
     0
1070
     1
  0
LINE
  5
398B
330
3983
100
AcDbEntity
  8
SOLBET_Bloczki
100
AcDbLine
 10
-0.0000000727372935
 20
0.0000000585339421
 30
0.0
 11
29.49999992726271
 21
0.0000000585339421
 31
0.0
  0
LINE
  5
398C
330
3983
100
AcDbEntity
  8
SOLBET_Bloczki
100
AcDbLine
 10
29.49999992726271
 20
0.0000000585339421
 30
0.0
 11
29.49999992726271
 21
12.00000005853394
 31
0.0
  0
LINE
  5
398D
330
3983
100
AcDbEntity
  8
SOLBET_Bloczki
100
AcDbLine
 10
29.49999992726271
 20
12.00000005853394
 30
0.0
 11
-0.0000000727372935
 21
12.00000005853394
 31
0.0
  0
LINE
  5
398E
330
3983
100
AcDbEntity
  8
SOLBET_Bloczki
100
AcDbLine
 10
-0.0000000727372935
 20
12.00000005853394
 30
0.0
 11
-0.0000000727372935
 21
0.0000000585339421
 31
0.0
  0
ENDBLK
  5
3992
330
3983
100
AcDbEntity
  8
0
100
AcDbBlockEnd
  0
BLOCK
  5
3A13
330
3A05
100
AcDbEntity
  8
0
100
AcDbBlockBegin
  2
SOLBET_Bloczek_Ideal_420x240x590_P+W_GOR
 70
     2
 10
0.0
 20
0.0
 30
0.0
  3
SOLBET_Bloczek_Ideal_420x240x590_P+W_GOR
  1

  0
ATTDEF
  5
3A06
330
3A05
100
AcDbEntity
  8
SOLBET_Wymiary_Opisy
100
AcDbText
 10
0.0000000363686468
 20
6.303237354177662
 30
0.0
 40
0.9913121336814832
  1
420x240x590
  7
Solbet_1
100
AcDbAttributeDefinition
  3

  2
WYMIARY
 70
     3
1001
AcDbAttr
1070
     0
1070
     1
  0
ATTDEF
  5
3A07
330
3A05
100
AcDbEntity
  8
SOLBET_Wymiary_Opisy
100
AcDbText
 10
0.0000000363686468
 20
4.790717946461565
 30
0.0
 40
0.9913121336814832
  1
400
  7
Solbet_1
100
AcDbAttributeDefinition
  3

  2
KLASA_GĘSTOŚCI
 70
     9
1001
AcDbAttr
1070
     0
1070
     1
  0
ATTDEF
  5
3A08
330
3A05
100
AcDbEntity
  8
SOLBET_Wymiary_Opisy
100
AcDbText
 10
0.0000000363686468
 20
3.269569111249338
 30
0.0
 40
0.9913121336814832
  1
Pióra+Wpusty
  7
Solbet_1
100
AcDbAttributeDefinition
  3

  2
PROFILOWANIE
 70
     3
1001
AcDbAttr
1070
     0
1070
     1
  0
ATTDEF
  5
3A09
330
3A05
100
AcDbEntity
  8
SOLBET_Wymiary_Opisy
100
AcDbText
 10
0.0000000363686468
 20
0.2448647019085592
 30
0.0
 40
0.9913121336814832
  1
SOLBET
  7
Solbet_1
100
AcDbAttributeDefinition
  3

  2
FIRMA
 70
     3
1001
AcDbAttr
1070
     0
1070
     1
  0
ATTDEF
  5
3A0A
330
3A05
100
AcDbEntity
  8
SOLBET_Wymiary_Opisy
100
AcDbText
 10
0.0000000363686468
 20
9.333547352525494
 30
0.0
 40
0.9913121336814832
  1
Bloczek
  7
Solbet_1
100
AcDbAttributeDefinition
  3
Nazwa
  2
NAZWA
 70
     3
1001
AcDbAttr
1070
     0
1070
     1
  0
ATTDEF
  5
3A0B
330
3A05
100
AcDbEntity
  8
SOLBET_Wymiary_Opisy
100
AcDbText
 10
0.0000000363686468
 20
7.794499172291289
 30
0.0
 40
0.9913121336814832
  1
SOLBET IDEAL
  7
Solbet_1
100
AcDbAttributeDefinition
  3

  2
SYSTEM
 70
     3
1001
AcDbAttr
1070
     0
1070
     1
  0
ATTDEF
  5
3A0C
330
3A05
100
AcDbEntity
  8
SOLBET_Wymiary_Opisy
100
AcDbText
 10
0.0000000363686468
 20
1.744181461435671
 30
0.0
 40
0.9913121336814832
  1
Góra
  7
Solbet_1
100
AcDbAttributeDefinition
  3

  2
WIDOK
 70
    11
1001
AcDbAttr
1070
     0
1070
     1
  0
LINE
  5
3A0D
330
3A05
100
AcDbEntity
  8
SOLBET_Bloczki
100
AcDbLine
 10
-0.0000001473426892
 20
0.0000000920231287
 30
0.0
 11
29.49999992726271
 21
0.0000000585339421
 31
0.0
  0
LINE
  5
3A0E
330
3A05
100
AcDbEntity
  8
SOLBET_Bloczki
100
AcDbLine
 10
29.49999992726271
 20
0.0000000585339421
 30
0.0
 11
29.49999985265754
 21
21.00000009202324
 31
0.0
  0
LINE
  5
3A0F
330
3A05
100
AcDbEntity
  8
SOLBET_Bloczki
100
AcDbLine
 10
29.49999985265754
 20
21.00000009202324
 30
0.0
 11
-0.0000001473426892
 21
21.00000009202324
 31
0.0
  0
LINE
  5
3A10
330
3A05
100
AcDbEntity
  8
SOLBET_Bloczki
100
AcDbLine
 10
-0.0000001473426892
 20
21.00000009202324
 30
0.0
 11
-0.0000000727372935
 21
0.0000000585339421
 31
0.0
  0
ENDBLK
  5
3A14
330
3A05
100
AcDbEntity
  8
0
100
AcDbBlockEnd
  0
BLOCK
  5
3BA3
330
3B95
100
AcDbEntity
  8
0
100
AcDbBlockBegin
  2
SOLBET_Bloczek_Ideal_420x240x590_P+W_KG400_PRZ
 70
     2
 10
0.0
 20
0.0
 30
0.0
  3
SOLBET_Bloczek_Ideal_420x240x590_P+W_KG400_PRZ
  1

  0
ATTDEF
  5
3B96
330
3B95
100
AcDbEntity
  8
SOLBET_Wymiary_Opisy
100
AcDbText
 10
0.0
 20
6.303237354177662
 30
0.0
 40
0.9913121336814832
  1
420x240x590
  7
Solbet_1
100
AcDbAttributeDefinition
  3

  2
WYMIARY
 70
    11
1001
AcDbAttr
1070
     0
1070
     1
  0
ATTDEF
  5
3B97
330
3B95
100
AcDbEntity
  8
SOLBET_Wymiary_Opisy
100
AcDbText
 10
0.0
 20
4.790717946461565
 30
0.0
 40
0.9913121336814832
  1
400
  7
Solbet_1
100
AcDbAttributeDefinition
  3

  2
KLASA_GĘSTOŚCI
 70
    11
1001
AcDbAttr
1070
     0
1070
     1
  0
ATTDEF
  5
3B98
330
3B95
100
AcDbEntity
  8
SOLBET_Wymiary_Opisy
100
AcDbText
 10
0.0
 20
3.269569111249338
 30
0.0
 40
0.9913121336814832
  1
Pióra+Wpusty
  7
Solbet_1
100
AcDbAttributeDefinition
  3

  2
PROFILOWANIE
 70
    11
1001
AcDbAttr
1070
     0
1070
     1
  0
ATTDEF
  5
3B99
330
3B95
100
AcDbEntity
  8
SOLBET_Wymiary_Opisy
100
AcDbText
 10
0.0
 20
0.2448647019085592
 30
0.0
 40
0.9913121336814832
  1
SOLBET
  7
Solbet_1
100
AcDbAttributeDefinition
  3

  2
FIRMA
 70
    11
1001
AcDbAttr
1070
     0
1070
     1
  0
ATTDEF
  5
3B9A
330
3B95
100
AcDbEntity
  8
SOLBET_Wymiary_Opisy
100
AcDbText
 10
0.0
 20
9.333547352525494
 30
0.0
 40
0.9913121336814832
  1
Bloczek
  7
Solbet_1
100
AcDbAttributeDefinition
  3
Nazwa
  2
NAZWA
 70
    11
1001
AcDbAttr
1070
     0
1070
     1
  0
ATTDEF
  5
3B9B
330
3B95
100
AcDbEntity
  8
SOLBET_Wymiary_Opisy
100
AcDbText
 10
0.0
 20
7.794499172291289
 30
0.0
 40
0.9913121336814832
  1
SOLBET Ideal
  7
Solbet_1
100
AcDbAttributeDefinition
  3

  2
SYSTEM
 70
    11
1001
AcDbAttr
1070
     0
1070
     1
  0
ATTDEF
  5
3B9C
330
3B95
100
AcDbEntity
  8
SOLBET_Wymiary_Opisy
100
AcDbText
 10
0.0
 20
1.744181461435671
 30
0.0
 40
0.9913121336814832
  1
Przód
  7
Solbet_1
100
AcDbAttributeDefinition
  3

  2
WIDOK
 70
    11
1001
AcDbAttr
1070
     0
1070
     1
  0
LINE
  5
3B9D
330
3B95
100
AcDbEntity
  8
SOLBET_Bloczki
100
AcDbLine
 10
-0.0000000727372935
 20
0.0000000585339421
 30
0.0
 11
29.49999992726271
 21
0.0000000585339421
 31
0.0
  0
LINE
  5
3B9E
330
3B95
100
AcDbEntity
  8
SOLBET_Bloczki
100
AcDbLine
 10
29.49999992726271
 20
0.0000000585339421
 30
0.0
 11
29.49999992726271
 21
12.00000005853394
 31
0.0
  0
LINE
  5
3B9F
330
3B95
100
AcDbEntity
  8
SOLBET_Bloczki
100
AcDbLine
 10
29.49999992726271
 20
12.00000005853394
 30
0.0
 11
-0.0000000727372935
 21
12.00000005853394
 31
0.0
  0
LINE
  5
3BA0
330
3B95
100
AcDbEntity
  8
SOLBET_Bloczki
100
AcDbLine
 10
-0.0000000727372935
 20
12.00000005853394
 30
0.0
 11
-0.0000000727372935
 21
0.0000000585339421
 31
0.0
  0
ENDBLK
  5
3BA4
330
3B95
100
AcDbEntity
  8
0
100
AcDbBlockEnd
  0
BLOCK
  5
3BD8
330
3BCC
100
AcDbEntity
  8
0
100
AcDbBlockBegin
  2
SOLBET_Ksztaltka_U_420x240x500_KG400_PRZ
 70
     2
 10
0.0
 20
0.0
 30
0.0
  3
SOLBET_Ksztaltka_U_420x240x500_KG400_PRZ
  1

  0
ATTDEF
  5
3BCD
330
3BCC
100
AcDbEntity
  8
SOLBET_Wymiary_Opisy
100
AcDbText
 10
-0.0000000476806008
 20
4.790718044940628
 30
0.0
 40
0.9913121336814832
  1
420x240x500
  7
Solbet_1
100
AcDbAttributeDefinition
  3

  2
WYMIARY
 70
    11
1001
AcDbAttr
1070
     0
1070
     1
  0
ATTDEF
  5
3BCE
330
3BCC
100
AcDbEntity
  8
SOLBET_Wymiary_Opisy
100
AcDbText
 10
-0.0000000476806008
 20
3.27819863722453
 30
0.0
 40
0.9913121336814832
  1
400
  7
Solbet_1
100
AcDbAttributeDefinition
  3

  2
KLASA_GĘSTOŚCI
 70
    11
1001
AcDbAttr
1070
     0
1070
     1
  0
ATTDEF
  5
3BCF
330
3BCC
100
AcDbEntity
  8
SOLBET_Wymiary_Opisy
100
AcDbText
 10
-0.0000000476806008
 20
0.2448648003876223
 30
0.0
 40
0.9913121336814832
  1
SOLBET
  7
Solbet_1
100
AcDbAttributeDefinition
  3

  2
FIRMA
 70
    11
1001
AcDbAttr
1070
     0
1070
     1
  0
ATTDEF
  5
3BD0
330
3BCC
100
AcDbEntity
  8
SOLBET_Wymiary_Opisy
100
AcDbText
 10
-0.0000000476806008
 20
6.347422594011662
 30
0.0
 40
0.9913121336814832
  1
Kształtka U
  7
Solbet_1
100
AcDbAttributeDefinition
  3
Nazwa
  2
NAZWA
 70
    11
1001
AcDbAttr
1070
     0
1070
     1
  0
ATTDEF
  5
3BD1
330
3BCC
100
AcDbEntity
  8
SOLBET_Wymiary_Opisy
100
AcDbText
 10
-0.0000000476806008
 20
1.744181559914735
 30
0.0
 40
0.9913121336814832
  1
Przód
  7
Solbet_1
100
AcDbAttributeDefinition
  3

  2
WIDOK
 70
    11
1001
AcDbAttr
1070
     0
1070
     1
  0
LINE
  5
3BD2
330
3BCC
100
AcDbEntity
  8
SOLBET_Bloczki
100
AcDbLine
 10
0.0000011061968053
 20
11.99999990104152
 30
0.0
 11
25.00000110619658
 21
11.99999990104152
 31
0.0
  0
LINE
  5
3BD3
330
3BCC
100
AcDbEntity
  8
SOLBET_Bloczki
100
AcDbLine
 10
25.00000110619658
 20
11.99999990104152
 30
0.0
 11
25.00000110619658
 21
-0.0000000989584821
 31
0.0
  0
LINE
  5
3BD4
330
3BCC
100
AcDbEntity
  8
SOLBET_Bloczki
100
AcDbLine
 10
25.00000110619658
 20
-0.0000000989584821
 30
0.0
 11
0.0000011061965779
 21
-0.0000000989584805
 31
0.0
  0
LINE
  5
3BD5
330
3BCC
100
AcDbEntity
  8
SOLBET_Bloczki
100
AcDbLine
 10
0.0000011061965779
 20
-0.0000000989584805
 30
0.0
 11
0.0000011061968053
 21
11.99999990104152
 31
0.0
  0
ENDBLK
  5
3BD9
330
3BCC
100
AcDbEntity
  8
0
100
AcDbBlockEnd
  0
BLOCK
  5
3BF2
330
3BE4
100
AcDbEntity
  8
0
100
AcDbBlockBegin
  2
SOLBET_Bloczek_Ideal_420x240x590_P+W_KG400_GOR
 70
     2
 10
0.0
 20
0.0
 30
0.0
  3
SOLBET_Bloczek_Ideal_420x240x590_P+W_KG400_GOR
  1

  0
ATTDEF
  5
3BE5
330
3BE4
100
AcDbEntity
  8
SOLBET_Wymiary_Opisy
100
AcDbText
 10
0.0000000363686468
 20
6.303237354177662
 30
0.0
 40
0.9913121336814832
  1
420x240x590
  7
Solbet_1
100
AcDbAttributeDefinition
  3

  2
WYMIARY
 70
    11
1001
AcDbAttr
1070
     0
1070
     1
  0
ATTDEF
  5
3BE6
330
3BE4
100
AcDbEntity
  8
SOLBET_Wymiary_Opisy
100
AcDbText
 10
0.0000000363686468
 20
4.790717946461565
 30
0.0
 40
0.9913121336814832
  1
400
  7
Solbet_1
100
AcDbAttributeDefinition
  3

  2
KLASA_GĘSTOŚCI
 70
    11
1001
AcDbAttr
1070
     0
1070
     1
  0
ATTDEF
  5
3BE7
330
3BE4
100
AcDbEntity
  8
SOLBET_Wymiary_Opisy
100
AcDbText
 10
0.0000000363686468
 20
3.269569111249338
 30
0.0
 40
0.9913121336814832
  1
Pióra+Wpusty
  7
Solbet_1
100
AcDbAttributeDefinition
  3

  2
PROFILOWANIE
 70
    11
1001
AcDbAttr
1070
     0
1070
     1
  0
ATTDEF
  5
3BE8
330
3BE4
100
AcDbEntity
  8
SOLBET_Wymiary_Opisy
100
AcDbText
 10
0.0000000363686468
 20
0.2448647019085592
 30
0.0
 40
0.9913121336814832
  1
SOLBET
  7
Solbet_1
100
AcDbAttributeDefinition
  3

  2
FIRMA
 70
    11
1001
AcDbAttr
1070
     0
1070
     1
  0
ATTDEF
  5
3BE9
330
3BE4
100
AcDbEntity
  8
SOLBET_Wymiary_Opisy
100
AcDbText
 10
0.0000000363686468
 20
9.333547352525494
 30
0.0
 40
0.9913121336814832
  1
Bloczek
  7
Solbet_1
100
AcDbAttributeDefinition
  3
Nazwa
  2
NAZWA
 70
    11
1001
AcDbAttr
1070
     0
1070
     1
  0
ATTDEF
  5
3BEA
330
3BE4
100
AcDbEntity
  8
SOLBET_Wymiary_Opisy
100
AcDbText
 10
0.0000000363686468
 20
7.794499172291289
 30
0.0
 40
0.9913121336814832
  1
SOLBET Ideal
  7
Solbet_1
100
AcDbAttributeDefinition
  3

  2
SYSTEM
 70
    11
1001
AcDbAttr
1070
     0
1070
     1
  0
ATTDEF
  5
3BEB
330
3BE4
100
AcDbEntity
  8
SOLBET_Wymiary_Opisy
100
AcDbText
 10
0.0000000363686468
 20
1.744181461435671
 30
0.0
 40
0.9913121336814832
  1
Góra
  7
Solbet_1
100
AcDbAttributeDefinition
  3

  2
WIDOK
 70
    11
1001
AcDbAttr
1070
     0
1070
     1
  0
LINE
  5
3BEC
330
3BE4
100
AcDbEntity
  8
SOLBET_Bloczki
100
AcDbLine
 10
-0.0000001473426892
 20
0.0000000920231287
 30
0.0
 11
29.49999992726271
 21
0.0000000585339421
 31
0.0
  0
LINE
  5
3BED
330
3BE4
100
AcDbEntity
  8
SOLBET_Bloczki
100
AcDbLine
 10
29.49999992726271
 20
0.0000000585339421
 30
0.0
 11
29.49999985265754
 21
21.00000009202324
 31
0.0
  0
LINE
  5
3BEE
330
3BE4
100
AcDbEntity
  8
SOLBET_Bloczki
100
AcDbLine
 10
29.49999985265754
 20
21.00000009202324
 30
0.0
 11
-0.0000001473426892
 21
21.00000009202324
 31
0.0
  0
LINE
  5
3BEF
330
3BE4
100
AcDbEntity
  8
SOLBET_Bloczki
100
AcDbLine
 10
-0.0000001473426892
 20
21.00000009202324
 30
0.0
 11
-0.0000000727372935
 21
0.0000000585339421
 31
0.0
  0
ENDBLK
  5
3BF3
330
3BE4
100
AcDbEntity
  8
0
100
AcDbBlockEnd
  0
ENDSEC
  0
SECTION
  2
ENTITIES
  0
LINE
  5
3724
330
1F
100
AcDbEntity
  8
SOLBET_Wymiary_Opisy
 62
     1
100
AcDbLine
 10
38.17942424878129
 20
73.48679817935149
 30
0.0
 11
204.8952942195756
 21
73.48679817935149
 31
0.0
  0
LINE
  5
3725
330
1F
100
AcDbEntity
  8
SOLBET_Wymiary_Opisy
 62
     1
100
AcDbLine
 10
42.53978520723172
 20
157.9048899493264
 30
0.0
 11
198.2553358028701
 21
157.9048899493264
 31
0.0
  0
LINE
  5
3726
330
1F
100
AcDbEntity
  8
SOLBET_Wymiary_Opisy
 62
     1
100
AcDbLine
 10
42.53978520723172
 20
155.4630143347607
 30
0.0
 11
198.2553358028701
 21
155.4630143347607
 31
0.0
  0
LINE
  5
3727
330
1F
100
AcDbEntity
  8
SOLBET_Wymiary_Opisy
100
AcDbLine
 10
198.2553358028701
 20
256.3784724445144
 30
0.0
 11
198.2553358028701
 21
157.9048899493264
 31
0.0
  0
LINE
  5
3728
330
1F
100
AcDbEntity
  8
SOLBET_Wymiary_Opisy
 62
     1
100
AcDbLine
 10
198.2553358028701
 20
155.4630143347607
 30
0.0
 11
198.2553358028701
 21
66.61997903266416
 31
0.0
  0
LINE
  5
3729
330
1F
100
AcDbEntity
  8
SOLBET_Wymiary_Opisy
 62
     1
100
AcDbLine
 10
38.17942424878129
 20
251.9586447290308
 30
0.0
 11
204.8952942195756
 21
251.9586447290308
 31
0.0
  0
LINE
  5
372A
330
1F
100
AcDbEntity
  8
SOLBET_Wymiary_Opisy
 62
     1
100
AcDbLine
 10
198.2553358028701
 20
44.82273646396146
 30
0.0
 11
198.2553358028701
 21
6.664760260591833
 31
0.0
  0
LWPOLYLINE
  5
372B
330
1F
100
AcDbEntity
  8
SOLBET_Bloczki
100
AcDbPolyline
 90
        4
 70
     0
 43
0.0
 10
120.3975605050509
 20
155.4630143347607
 10
120.3975605050509
 20
143.2429953407412
 10
132.3975605050509
 20
143.2429953407412
 10
132.3975605050509
 20
155.4630143347607
  0
LWPOLYLINE
  5
372C
330
1F
100
AcDbEntity
  8
SOLBET_Bloczki
100
AcDbPolyline
 90
        4
 70
     0
 43
0.0
 10
108.3975605050509
 20
155.4630143347607
 10
108.3975605050509
 20
143.242996446938
 10
120.3975605050509
 20
143.242996446938
 10
120.3975605050509
 20
155.4630143347607
  0
LWPOLYLINE
  5
372D
330
1F
100
AcDbEntity
  8
SOLBET_Bloczki
100
AcDbPolyline
 90
        3
 70
     0
 43
0.0
 10
132.3975605050509
 20
174.7787328599562
 10
120.3975605050509
 20
174.7787328599562
 10
120.3975605050509
 20
157.9048899493264
  0
LWPOLYLINE
  5
372E
330
1F
100
AcDbEntity
  8
SOLBET_Bloczki
100
AcDbPolyline
 90
        2
 70
     0
 43
0.0
 10
132.3975605050509
 20
157.9048899493264
 10
132.3975605050509
 20
174.7787328599562
  0
LWPOLYLINE
  5
372F
330
1F
100
AcDbEntity
  8
SOLBET_Bloczki
100
AcDbPolyline
 90
        3
 70
     0
 43
0.0
 10
120.3975605050509
 20
174.7787328599562
 10
108.3975605050509
 20
174.7787328599562
 10
108.3975605050509
 20
157.9048899493264
  0
LWPOLYLINE
  5
3730
330
1F
100
AcDbEntity
  8
SOLBET_Bloczki
100
AcDbPolyline
 90
        2
 70
     0
 43
0.0
 10
120.3975605050509
 20
157.9048899493264
 10
120.3975605050509
 20
174.7787328599562
  0
LINE
  5
3731
330
1F
100
AcDbEntity
  8
SOLBET_Bloczki
100
AcDbLine
 10
78.89756050505093
 20
155.4630143347607
 30
0.0
 11
78.89756050505093
 21
153.2429931283481
 31
0.0
  0
LINE
  5
3732
330
1F
100
AcDbEntity
  8
SOLBET_Bloczki
100
AcDbLine
 10
49.39756050505093
 20
155.4630143347607
 30
0.0
 11
49.39756050505093
 21
153.2429931283481
 31
0.0
  0
LINE
  5
3733
330
1F
100
AcDbEntity
  8
SOLBET_Bloczki
100
AcDbLine
 10
148.1878739478707
 20
155.4630143347607
 30
0.0
 11
148.1878739478707
 21
153.2429931283481
 31
0.0
  0
LINE
  5
3734
330
1F
100
AcDbEntity
  8
SOLBET_Bloczki
100
AcDbLine
 10
177.6878739478707
 20
155.4630143347607
 30
0.0
 11
177.6878739478707
 21
153.2429931283481
 31
0.0
  0
LINE
  5
3735
330
1F
100
AcDbEntity
  8
SOLBET_Wymiary_Opisy
 62
     1
100
AcDbLine
 10
42.53978520723172
 20
256.3784724445144
 30
0.0
 11
42.53978520723172
 21
157.9048899493264
 31
0.0
  0
LINE
  5
3736
330
1F
100
AcDbEntity
  8
SOLBET_Wymiary_Opisy
 62
     1
100
AcDbLine
 10
42.53978520723172
 20
44.82273646396146
 30
0.0
 11
42.53978520723172
 21
6.664760260591833
 31
0.0
  0
LINE
  5
3737
330
1F
100
AcDbEntity
  8
SOLBET_Wymiary_Opisy
 62
     1
100
AcDbLine
 10
42.53978520723172
 20
155.4630143347607
 30
0.0
 11
42.53978520723172
 21
66.61997903266416
 31
0.0
  0
LINE
  5
3738
330
1F
100
AcDbEntity
  8
SOLBET_Bloczki
100
AcDbLine
 10
59.39756050505093
 20
162.2429931283481
 30
0.0
 11
59.39756050505093
 21
157.9048899493264
 31
0.0
  0
LINE
  5
3739
330
1F
100
AcDbEntity
  8
SOLBET_Bloczki
100
AcDbLine
 10
88.89756050505093
 20
162.2429931283481
 30
0.0
 11
88.89756050505093
 21
157.9048899493264
 31
0.0
  0
LINE
  5
373A
330
1F
100
AcDbEntity
  8
SOLBET_Bloczki
100
AcDbLine
 10
161.8975605050509
 20
162.2429931283481
 30
0.0
 11
161.8975605050509
 21
157.9048899493264
 31
0.0
  0
LINE
  5
373B
330
1F
100
AcDbEntity
  8
SOLBET_Bloczki
100
AcDbLine
 10
191.3975604323136
 20
162.2429931283481
 30
0.0
 11
191.3975604323136
 21
157.9048899493264
 31
0.0
  0
LWPOLYLINE
  5
373C
330
1F
100
AcDbEntity
  8
SOLBET_Bloczki
100
AcDbPolyline
 90
        4
 70
     0
 43
0.0
 10
120.3975605050509
 20
251.9586447290308
 10
120.3975605050509
 20
249.7787361785459
 10
132.3975605050509
 20
249.7787361785459
 10
132.3975605050509
 20
251.9586447290308
  0
LWPOLYLINE
  5
373D
330
1F
100
AcDbEntity
  8
SOLBET_Bloczki
100
AcDbPolyline
 90
        4
 70
     0
 43
0.0
 10
108.3975605050509
 20
251.9586447290308
 10
108.3975605050509
 20
249.7787361785459
 10
120.3975605050509
 20
249.7787361785459
 10
120.3975605050509
 20
251.9586447290308
  0
LINE
  5
373E
330
1F
100
AcDbEntity
  8
SOLBET_Bloczki
100
AcDbLine
 10
59.39756050505093
 20
251.9586447290308
 30
0.0
 11
59.39756050505093
 21
246.2429931283481
 31
0.0
  0
LINE
  5
373F
330
1F
100
AcDbEntity
  8
SOLBET_Bloczki
100
AcDbLine
 10
88.89756050505093
 20
251.9586447290308
 30
0.0
 11
88.89756050505093
 21
246.2429931283481
 31
0.0
  0
LINE
  5
3740
330
1F
100
AcDbEntity
  8
SOLBET_Bloczki
100
AcDbLine
 10
161.8975605050509
 20
251.9586447290308
 30
0.0
 11
161.8975605050509
 21
246.2429931283481
 31
0.0
  0
LINE
  5
3741
330
1F
100
AcDbEntity
  8
SOLBET_Bloczki
100
AcDbLine
 10
191.3975604323136
 20
251.9586447290308
 30
0.0
 11
191.3975604323136
 21
246.242993128348
 31
0.0
  0
LINE
  5
3742
330
1F
100
AcDbEntity
  8
SOLBET_Zbrojenie_Konstrukcja
  6
Continuous
100
AcDbLine
 10
126.747560505051
 20
22.54453289767204
 30
0.0
 11
125.6869003332744
 21
23.60519306945224
 31
0.0
  0
LINE
  5
3743
330
1F
100
AcDbEntity
  8
SOLBET_Zbrojenie_Konstrukcja
  6
Continuous
100
AcDbLine
 10
127.6475605050509
 20
23.44453289767205
 30
0.0
 11
126.5869003332743
 21
24.50519306945222
 31
0.0
  0
LWPOLYLINE
  5
3744
330
1F
100
AcDbEntity
  8
SOLBET_Zbrojenie_Konstrukcja
  6
Continuous
100
AcDbPolyline
 90
        5
 70
     0
 43
0.0
 10
127.6475605050509
 20
22.54181030476187
 10
113.1475605050509
 20
22.54181030476187
 10
113.1475605050509
 20
31.54181030476258
 10
127.6475605050509
 20
31.54181030476258
 10
127.6475605050509
 20
22.54181030476187
  0
LINE
  5
3745
330
1F
100
AcDbEntity
  8
SOLBET_Izolacja
100
AcDbLine
 10
112.3975605050509
 20
19.29181030476186
 30
0.0
 11
128.3975605050509
 21
19.29181030476186
 31
0.0
  0
LINE
  5
3746
330
1F
100
AcDbEntity
  8
SOLBET_Izolacja
100
AcDbLine
 10
112.3975605050509
 20
21.79181030476187
 30
0.0
 11
128.3975605050509
 21
21.79181030476187
 31
0.0
  0
LWPOLYLINE
  5
3747
330
1F
100
AcDbEntity
  8
SOLBET_Zbrojenie_Konstrukcja
  6
Continuous
100
AcDbPolyline
 90
        2
 70
     1
 43
0.3
 10
113.3284636460885
 20
22.96375415200831
 42
1.0
 10
113.6284636460884
 20
22.96375415200831
 42
1.0
  0
LWPOLYLINE
  5
3748
330
1F
100
AcDbEntity
  8
SOLBET_Zbrojenie_Konstrukcja
  6
Continuous
100
AcDbPolyline
 90
        2
 70
     1
 43
0.3
 10
127.4666573640133
 20
22.96375415200831
 42
-1.0
 10
127.1666573640134
 20
22.96375415200831
 42
-1.0
  0
LWPOLYLINE
  5
3749
330
1F
100
AcDbEntity
  8
SOLBET_Zbrojenie_Konstrukcja
  6
Continuous
100
AcDbPolyline
 90
        2
 70
     1
 43
0.3
 10
113.3284636460885
 20
31.11986645751614
 42
-1.0
 10
113.6284636460884
 20
31.11986645751614
 42
-1.0
  0
LWPOLYLINE
  5
374A
330
1F
100
AcDbEntity
  8
SOLBET_Zbrojenie_Konstrukcja
  6
Continuous
100
AcDbPolyline
 90
        2
 70
     1
 43
0.3
 10
127.4666573640133
 20
31.11986645751614
 42
1.0
 10
127.1666573640134
 20
31.11986645751614
 42
1.0
  0
LWPOLYLINE
  5
374B
330
1F
100
AcDbEntity
  8
SOLBET_Zbrojenie_Konstrukcja
100
AcDbPolyline
 90
        4
 70
     1
 43
0.0
 10
114.802094523824
 20
34.62571927393884
 10
125.9930264862778
 20
34.62571927393884
 10
125.9930264862778
 20
33.54313472834196
 10
114.802094523824
 20
33.54313472834196
  0
LWPOLYLINE
  5
374C
330
1F
100
AcDbEntity
  8
SOLBET_Zbrojenie_Konstrukcja
100
AcDbPolyline
 90
        4
 70
     1
 43
0.0
 10
114.802094523824
 20
16.9579013355856
 10
125.9930264862778
 20
16.9579013355856
 10
125.9930264862778
 20
18.04048588118252
 10
114.802094523824
 20
18.04048588118252
  0
LINE
  5
374D
330
1F
100
AcDbEntity
  8
SOLBET_Zbrojenie_Konstrukcja
100
AcDbLine
 10
127.3992646311001
 20
111.4550849359063
 30
0.0
 11
127.3992646311001
 21
73.48679817935149
 31
0.0
  0
LINE
  5
374E
330
1F
100
AcDbEntity
  8
SOLBET_Zbrojenie_Konstrukcja
100
AcDbLine
 10
113.3958563789899
 20
111.4550849359063
 30
0.0
 11
113.3958563789899
 21
73.48679817935149
 31
0.0
  0
MTEXT
  5
374F
102
{ACAD_XDICTIONARY
360
3750
102
}
330
1F
100
AcDbEntity
  8
SOLBET_Wymiary_Opisy @ 1
100
AcDbMText
 10
22.97196988284213
 20
286.926016673141
 30
0.0
 40
5.0
 41
124.2624847080697
 71
     1
 72
     5
  1
{\LDETAL 52\P}Wzmocnienie \U+015Bciany s\U+0142upem \U+017Celbetowym\Pwykonanym w kszta\U+0142tkach U
  7
Solbet_5
 73
     1
 44
1.0
1001
AcadAnnotative
1000
AnnotativeData
1002
{
1070
     1
1070
     0
1002
}
1001
ACAD
1000
MTEXTBEGIN
1070
    73
1070
     1
1070
    44
1040
1.0
1070
    74
1070
     0
1000
MTEXTEND
  0
LWPOLYLINE
  5
3754
330
1F
100
AcDbEntity
  8
SOLBET_Ramka_05
100
AcDbPolyline
 90
        4
 70
     1
 43
0.0
 10
0.0
 20
0.0
 10
334.35177409209
 20
0.0
 10
334.35177409209
 20
297.0
 10
0.0
 20
297.0
  0
LINE
  5
3755
330
1F
100
AcDbEntity
  8
SOLBET_Izolacja
100
AcDbLine
 10
112.3975605050509
 20
21.79181030476187
 30
0.0
 11
112.3975605050509
 21
19.29181030476258
 31
0.0
  0
LINE
  5
3756
330
1F
100
AcDbEntity
  8
SOLBET_Izolacja
  6
BATTING
 48
0.12
100
AcDbLine
 10
112.3975605050509
 20
20.54181030476223
 30
0.0
 11
128.3975605050509
 21
20.54181030476222
 31
0.0
  0
LEADER
  5
3763
330
1F
100
AcDbEntity
  8
SOLBET_Wymiary_Opisy
100
AcDbLeader
  3
Solbet$7
 73
     0
 74
     0
 75
     1
 40
7.666666666666666
 41
51.0
 76
     3
 10
127.3992646311001
 20
79.73637978458675
 30
0.0
 10
137.9332584167771
 20
83.70922832918013
 30
0.0
 10
140.4332584167771
 20
83.70922832918013
 30
0.0
340
3764
213
-0.625
223
0.625
233
0.0
1001
ACAD
1000
DSTYLE
1002
{
1070
   147
1040
0.625
1070
    77
1070
     1
1002
}
  0
MTEXT
  5
3764
102
{ACAD_XDICTIONARY
360
3C5F
102
}
102
{ACAD_REACTORS
330
3763
102
}
330
1F
100
AcDbEntity
  8
SOLBET_Wymiary_Opisy
100
AcDbMText
 10
141.6832584167771
 20
91.37589499584681
 30
0.0
 40
2.5
 41
0.0
 71
     1
 72
     1
  1
Zbrojenie s\U+0142upa wychodz\U+0105ce \Pz fundamentu (stropu lub wie\U+0144ca)
  7
Solbet_2_5
 73
     1
 44
1.0
1001
ACAD
1000
MTEXTBEGIN
1070
    73
1070
     1
1070
    44
1040
1.0
1070
    74
1070
     0
1000
MTEXTEND
  0
INSERT
  5
3765
330
1F
100
AcDbEntity
  8
SOLBET_Wymiary_Opisy
100
AcDbBlockReference
  2
_DotSmall
 10
113.316735746735
 20
88.95924611232032
 30
0.0
 41
2.500000000000119
 42
2.5
 43
2.5
 50
338.6382633035007
1001
ACAD
1000
DSTYLE
1002
{
1070
   147
1040
0.625
1070
    77
1070
     1
1002
}
  0
LINE
  5
3766
330
1F
100
AcDbEntity
  8
SOLBET_Wymiary_Opisy
100
AcDbLine
 10
113.3958563789899
 20
88.82450937623252
 30
0.0
 11
137.9332584167771
 21
83.70922832918013
 31
0.0
1001
ACAD
1000
DSTYLE
1002
{
1070
   147
1040
0.625
1070
    77
1070
     1
1002
}
  0
LINE
  5
3770
330
1F
100
AcDbEntity
  8
SOLBET_Bloczki
100
AcDbLine
 10
88.89756043231363
 20
222.2429932454166
 30
0.0
 11
108.3975605050509
 21
222.2429932454166
 31
0.0
  0
LINE
  5
3771
330
1F
100
AcDbEntity
  8
SOLBET_Bloczki
100
AcDbLine
 10
108.3975605050509
 20
234.2429932454166
 30
0.0
 11
88.89756043231363
 21
234.2429932454166
 31
0.0
  0
LINE
  5
3772
330
1F
100
AcDbEntity
  8
SOLBET_Bloczki
100
AcDbLine
 10
88.89756043231363
 20
234.2429932454166
 30
0.0
 11
88.89756043231363
 21
222.2429932454166
 31
0.0
  0
LINE
  5
377C
330
1F
100
AcDbEntity
  8
SOLBET_Bloczki
100
AcDbLine
 10
88.89756043231363
 20
198.242993186882
 30
0.0
 11
108.3975605050509
 21
198.242993186882
 31
0.0
  0
LINE
  5
377D
330
1F
100
AcDbEntity
  8
SOLBET_Bloczki
100
AcDbLine
 10
108.3975605050509
 20
210.242993186882
 30
0.0
 11
88.89756043231363
 21
210.242993186882
 31
0.0
  0
LINE
  5
377E
330
1F
100
AcDbEntity
  8
SOLBET_Bloczki
100
AcDbLine
 10
88.89756043231363
 20
210.242993186882
 30
0.0
 11
88.89756043231363
 21
198.242993186882
 31
0.0
  0
LINE
  5
3788
330
1F
100
AcDbEntity
  8
SOLBET_Bloczki
100
AcDbLine
 10
88.89756043231363
 20
174.2429932454159
 30
0.0
 11
108.3975605050509
 21
174.2429932454159
 31
0.0
  0
LINE
  5
3789
330
1F
100
AcDbEntity
  8
SOLBET_Bloczki
100
AcDbLine
 10
108.3975605050509
 20
186.2429932454159
 30
0.0
 11
88.89756043231363
 21
186.2429932454159
 31
0.0
  0
LINE
  5
378A
330
1F
100
AcDbEntity
  8
SOLBET_Bloczki
100
AcDbLine
 10
88.89756043231363
 20
186.2429932454159
 30
0.0
 11
88.89756043231363
 21
174.2429932454159
 31
0.0
  0
LINE
  5
3794
330
1F
100
AcDbEntity
  8
SOLBET_Bloczki
100
AcDbLine
 10
177.6878738751334
 20
234.242993186882
 30
0.0
 11
198.2553358028701
 21
234.242993186882
 31
0.0
  0
LINE
  5
3795
330
1F
100
AcDbEntity
  8
SOLBET_Bloczki
100
AcDbLine
 10
198.2553358028701
 20
246.242993186882
 30
0.0
 11
177.6878738751334
 21
246.242993186882
 31
0.0
  0
LINE
  5
3796
330
1F
100
AcDbEntity
  8
SOLBET_Bloczki
100
AcDbLine
 10
177.6878738751334
 20
246.242993186882
 30
0.0
 11
177.6878738751334
 21
234.242993186882
 31
0.0
  0
LINE
  5
379D
330
1F
100
AcDbEntity
  8
SOLBET_Bloczki
100
AcDbLine
 10
177.6878738751334
 20
210.242993186882
 30
0.0
 11
198.2553358028701
 21
210.242993186882
 31
0.0
  0
LINE
  5
379E
330
1F
100
AcDbEntity
  8
SOLBET_Bloczki
100
AcDbLine
 10
198.2553358028701
 20
222.242993186882
 30
0.0
 11
177.6878738751334
 21
222.242993186882
 31
0.0
  0
LINE
  5
379F
330
1F
100
AcDbEntity
  8
SOLBET_Bloczki
100
AcDbLine
 10
177.6878738751334
 20
222.242993186882
 30
0.0
 11
177.6878738751334
 21
210.242993186882
 31
0.0
  0
LINE
  5
37A9
330
1F
100
AcDbEntity
  8
SOLBET_Bloczki
100
AcDbLine
 10
177.6878738751334
 20
186.2429932454166
 30
0.0
 11
198.2553358028701
 21
186.2429932454166
 31
0.0
  0
LINE
  5
37AA
330
1F
100
AcDbEntity
  8
SOLBET_Bloczki
100
AcDbLine
 10
198.2553358028701
 20
198.2429932454166
 30
0.0
 11
177.6878738751334
 21
198.2429932454166
 31
0.0
  0
LINE
  5
37AB
330
1F
100
AcDbEntity
  8
SOLBET_Bloczki
100
AcDbLine
 10
177.6878738751334
 20
198.2429932454166
 30
0.0
 11
177.6878738751334
 21
186.2429932454166
 31
0.0
  0
LINE
  5
37B5
330
1F
100
AcDbEntity
  8
SOLBET_Bloczki
100
AcDbLine
 10
177.6878738751334
 20
162.2429932454159
 30
0.0
 11
198.2553358028701
 21
162.2429932454159
 31
0.0
  0
LINE
  5
37B6
330
1F
100
AcDbEntity
  8
SOLBET_Bloczki
100
AcDbLine
 10
198.2553358028701
 20
174.2429932454159
 30
0.0
 11
177.6878738751334
 21
174.2429932454159
 31
0.0
  0
LINE
  5
37B7
330
1F
100
AcDbEntity
  8
SOLBET_Bloczki
100
AcDbLine
 10
177.6878738751334
 20
174.2429932454159
 30
0.0
 11
177.6878738751334
 21
162.2429932454159
 31
0.0
  0
LINE
  5
37B8
330
1F
100
AcDbEntity
  8
SOLBET_Bloczki
100
AcDbLine
 10
88.89756043231363
 20
141.2429931868827
 30
0.0
 11
108.3975605050509
 21
141.2429931868827
 31
0.0
  0
LINE
  5
37B9
330
1F
100
AcDbEntity
  8
SOLBET_Bloczki
100
AcDbLine
 10
108.3975605050509
 20
153.2429931868827
 30
0.0
 11
88.89756043231363
 21
153.2429931868827
 31
0.0
  0
LINE
  5
37BA
330
1F
100
AcDbEntity
  8
SOLBET_Bloczki
100
AcDbLine
 10
88.89756043231363
 20
153.2429931868827
 30
0.0
 11
88.89756043231363
 21
141.2429931868827
 31
0.0
  0
LINE
  5
37C8
330
1F
100
AcDbEntity
  8
SOLBET_Bloczki
100
AcDbLine
 10
108.3975605050509
 20
129.242993186882
 30
0.0
 11
88.89756043231363
 21
129.242993186882
 31
0.0
  0
LINE
  5
37D3
330
1F
100
AcDbEntity
  8
SOLBET_Bloczki
100
AcDbLine
 10
88.89756035957635
 20
93.24299324541597
 30
0.0
 11
118.3975603595763
 21
93.24299324541597
 31
0.0
  0
LINE
  5
37D4
330
1F
100
AcDbEntity
  8
SOLBET_Bloczki
100
AcDbLine
 10
108.3975605050509
 20
105.2429932454159
 30
0.0
 11
88.89756035957635
 21
105.2429932454159
 31
0.0
  0
LINE
  5
37D5
330
1F
100
AcDbEntity
  8
SOLBET_Bloczki
100
AcDbLine
 10
88.89756035957635
 20
105.2429932454159
 30
0.0
 11
88.89756035957635
 21
93.24299324541597
 31
0.0
  0
LINE
  5
37DF
330
1F
100
AcDbEntity
  8
SOLBET_Bloczki
100
AcDbLine
 10
177.6878738023961
 20
129.2429932454159
 30
0.0
 11
198.2553358028701
 21
129.2429932454159
 31
0.0
  0
LINE
  5
37E0
330
1F
100
AcDbEntity
  8
SOLBET_Bloczki
100
AcDbLine
 10
198.2553358028701
 20
141.2429932454159
 30
0.0
 11
177.6878738023961
 21
141.2429932454159
 31
0.0
  0
LINE
  5
37E1
330
1F
100
AcDbEntity
  8
SOLBET_Bloczki
100
AcDbLine
 10
177.6878738023961
 20
141.2429932454159
 30
0.0
 11
177.6878738023961
 21
129.2429932454159
 31
0.0
  0
LINE
  5
37EB
330
1F
100
AcDbEntity
  8
SOLBET_Bloczki
100
AcDbLine
 10
177.6878738751334
 20
105.2429932454159
 30
0.0
 11
198.2553358028701
 21
105.2429932454159
 31
0.0
  0
LINE
  5
37EC
330
1F
100
AcDbEntity
  8
SOLBET_Bloczki
100
AcDbLine
 10
198.2553358028701
 20
117.2429932454159
 30
0.0
 11
177.6878738751334
 21
117.2429932454159
 31
0.0
  0
LINE
  5
37ED
330
1F
100
AcDbEntity
  8
SOLBET_Bloczki
100
AcDbLine
 10
177.6878738751334
 20
117.2429932454159
 30
0.0
 11
177.6878738751334
 21
105.2429932454159
 31
0.0
  0
LINE
  5
37F4
330
1F
100
AcDbEntity
  8
SOLBET_Bloczki
100
AcDbLine
 10
191.3975603595763
 20
93.24299324541597
 30
0.0
 11
198.2553358028701
 21
93.24299324541597
 31
0.0
  0
LINE
  5
37F5
330
1F
100
AcDbEntity
  8
SOLBET_Bloczki
100
AcDbLine
 10
198.2553358028701
 20
105.2429932454159
 30
0.0
 11
191.3975603595763
 21
105.2429932454159
 31
0.0
  0
LINE
  5
37F6
330
1F
100
AcDbEntity
  8
SOLBET_Bloczki
100
AcDbLine
 10
191.3975603595763
 20
105.2429932454159
 30
0.0
 11
191.3975603595763
 21
93.24299324541597
 31
0.0
  0
LINE
  5
37F7
330
1F
100
AcDbEntity
  8
SOLBET_Bloczki
100
AcDbLine
 10
42.53978520723172
 20
93.24299312834808
 30
0.0
 11
59.39756050505093
 21
93.24299312834808
 31
0.0
  0
LINE
  5
37F8
330
1F
100
AcDbEntity
  8
SOLBET_Bloczki
100
AcDbLine
 10
59.39756050505093
 20
93.24299312834808
 30
0.0
 11
59.39756050505093
 21
105.2429931283481
 31
0.0
  0
LINE
  5
37F9
330
1F
100
AcDbEntity
  8
SOLBET_Bloczki
100
AcDbLine
 10
59.39756050505093
 20
105.2429931283481
 30
0.0
 11
42.53978520723172
 21
105.2429931283481
 31
0.0
  0
LINE
  5
37FA
330
1F
100
AcDbEntity
  8
SOLBET_Bloczki
100
AcDbLine
 10
42.53978520723172
 20
105.2429931283481
 30
0.0
 11
49.39756043231364
 21
105.2429931283481
 31
0.0
  0
LINE
  5
37FB
330
1F
100
AcDbEntity
  8
SOLBET_Bloczki
100
AcDbLine
 10
49.39756043231364
 20
105.2429931283481
 30
0.0
 11
49.39756043231364
 21
117.242993128348
 31
0.0
  0
LINE
  5
37FC
330
1F
100
AcDbEntity
  8
SOLBET_Bloczki
100
AcDbLine
 10
49.39756043231364
 20
117.242993128348
 30
0.0
 11
42.53978520723172
 21
117.242993128348
 31
0.0
  0
LINE
  5
37FD
330
1F
100
AcDbEntity
  8
SOLBET_Bloczki
100
AcDbLine
 10
42.53978520723172
 20
117.242993186882
 30
0.0
 11
59.39756043231364
 21
117.242993186882
 31
0.0
  0
LINE
  5
37FE
330
1F
100
AcDbEntity
  8
SOLBET_Bloczki
100
AcDbLine
 10
59.39756043231364
 20
117.242993186882
 30
0.0
 11
59.39756043231364
 21
129.242993186882
 31
0.0
  0
LINE
  5
37FF
330
1F
100
AcDbEntity
  8
SOLBET_Bloczki
100
AcDbLine
 10
59.39756043231364
 20
129.242993186882
 30
0.0
 11
42.53978520723172
 21
129.242993186882
 31
0.0
  0
LINE
  5
3800
330
1F
100
AcDbEntity
  8
SOLBET_Bloczki
100
AcDbLine
 10
42.53978520723172
 20
129.242993186882
 30
0.0
 11
49.39756043231364
 21
129.242993186882
 31
0.0
  0
LINE
  5
3801
330
1F
100
AcDbEntity
  8
SOLBET_Bloczki
100
AcDbLine
 10
49.39756043231364
 20
129.242993186882
 30
0.0
 11
49.39756043231364
 21
141.242993186882
 31
0.0
  0
LINE
  5
3802
330
1F
100
AcDbEntity
  8
SOLBET_Bloczki
100
AcDbLine
 10
49.39756043231364
 20
141.242993186882
 30
0.0
 11
42.53978520723172
 21
141.242993186882
 31
0.0
  0
LINE
  5
3803
330
1F
100
AcDbEntity
  8
SOLBET_Bloczki
100
AcDbLine
 10
42.53978520723172
 20
141.2429931868827
 30
0.0
 11
59.39756043231364
 21
141.2429931868827
 31
0.0
  0
LINE
  5
3804
330
1F
100
AcDbEntity
  8
SOLBET_Bloczki
100
AcDbLine
 10
59.39756043231364
 20
141.2429931868827
 30
0.0
 11
59.39756043231364
 21
153.2429931868827
 31
0.0
  0
LINE
  5
3805
330
1F
100
AcDbEntity
  8
SOLBET_Bloczki
100
AcDbLine
 10
59.39756043231364
 20
153.2429931868827
 30
0.0
 11
42.53978520723172
 21
153.2429931868827
 31
0.0
  0
LINE
  5
3806
330
1F
100
AcDbEntity
  8
SOLBET_Bloczki
100
AcDbLine
 10
42.53978520723172
 20
162.242993186882
 30
0.0
 11
49.39756043231364
 21
162.242993186882
 31
0.0
  0
LINE
  5
3807
330
1F
100
AcDbEntity
  8
SOLBET_Bloczki
100
AcDbLine
 10
49.39756043231364
 20
162.242993186882
 30
0.0
 11
49.39756043231364
 21
174.242993186882
 31
0.0
  0
LINE
  5
3808
330
1F
100
AcDbEntity
  8
SOLBET_Bloczki
100
AcDbLine
 10
49.39756043231364
 20
174.242993186882
 30
0.0
 11
42.53978520723172
 21
174.242993186882
 31
0.0
  0
LINE
  5
3809
330
1F
100
AcDbEntity
  8
SOLBET_Bloczki
100
AcDbLine
 10
42.53978520723172
 20
174.242993186882
 30
0.0
 11
59.39756043231364
 21
174.242993186882
 31
0.0
  0
LINE
  5
380A
330
1F
100
AcDbEntity
  8
SOLBET_Bloczki
100
AcDbLine
 10
59.39756043231364
 20
174.242993186882
 30
0.0
 11
59.39756043231364
 21
186.242993186882
 31
0.0
  0
LINE
  5
380B
330
1F
100
AcDbEntity
  8
SOLBET_Bloczki
100
AcDbLine
 10
59.39756043231364
 20
186.242993186882
 30
0.0
 11
42.53978520723172
 21
186.242993186882
 31
0.0
  0
LINE
  5
380C
330
1F
100
AcDbEntity
  8
SOLBET_Bloczki
100
AcDbLine
 10
42.53978520723172
 20
186.2429931868827
 30
0.0
 11
49.39756043231364
 21
186.2429931868827
 31
0.0
  0
LINE
  5
380D
330
1F
100
AcDbEntity
  8
SOLBET_Bloczki
100
AcDbLine
 10
49.39756043231364
 20
186.2429931868827
 30
0.0
 11
49.39756043231364
 21
198.2429931868827
 31
0.0
  0
LINE
  5
380E
330
1F
100
AcDbEntity
  8
SOLBET_Bloczki
100
AcDbLine
 10
49.39756043231364
 20
198.2429931868827
 30
0.0
 11
42.53978520723172
 21
198.2429931868827
 31
0.0
  0
LINE
  5
380F
330
1F
100
AcDbEntity
  8
SOLBET_Bloczki
100
AcDbLine
 10
42.53978520723172
 20
198.2429931868827
 30
0.0
 11
59.39756043231364
 21
198.2429931868827
 31
0.0
  0
LINE
  5
3810
330
1F
100
AcDbEntity
  8
SOLBET_Bloczki
100
AcDbLine
 10
59.39756043231364
 20
198.2429931868827
 30
0.0
 11
59.39756043231364
 21
210.2429931868827
 31
0.0
  0
LINE
  5
3811
330
1F
100
AcDbEntity
  8
SOLBET_Bloczki
100
AcDbLine
 10
59.39756043231364
 20
210.2429931868827
 30
0.0
 11
42.53978520723172
 21
210.2429931868827
 31
0.0
  0
LINE
  5
3812
330
1F
100
AcDbEntity
  8
SOLBET_Bloczki
100
AcDbLine
 10
42.53978520723172
 20
210.2429931868827
 30
0.0
 11
49.39756043231364
 21
210.2429931868827
 31
0.0
  0
LINE
  5
3813
330
1F
100
AcDbEntity
  8
SOLBET_Bloczki
100
AcDbLine
 10
49.39756043231364
 20
210.2429931868827
 30
0.0
 11
49.39756043231364
 21
222.2429931868827
 31
0.0
  0
LINE
  5
3814
330
1F
100
AcDbEntity
  8
SOLBET_Bloczki
100
AcDbLine
 10
49.39756043231364
 20
222.2429931868827
 30
0.0
 11
42.53978520723172
 21
222.2429931868827
 31
0.0
  0
LINE
  5
3815
330
1F
100
AcDbEntity
  8
SOLBET_Bloczki
100
AcDbLine
 10
42.53978520723172
 20
222.2429931868827
 30
0.0
 11
59.39756043231364
 21
222.2429931868827
 31
0.0
  0
LINE
  5
3816
330
1F
100
AcDbEntity
  8
SOLBET_Bloczki
100
AcDbLine
 10
59.39756043231364
 20
222.2429931868827
 30
0.0
 11
59.39756043231364
 21
234.2429931868827
 31
0.0
  0
LINE
  5
3817
330
1F
100
AcDbEntity
  8
SOLBET_Bloczki
100
AcDbLine
 10
59.39756043231364
 20
234.2429931868827
 30
0.0
 11
42.53978520723172
 21
234.2429931868827
 31
0.0
  0
LINE
  5
3818
330
1F
100
AcDbEntity
  8
SOLBET_Bloczki
100
AcDbLine
 10
42.53978520723172
 20
234.2429931868827
 30
0.0
 11
49.39756043231364
 21
234.2429931868827
 31
0.0
  0
LINE
  5
3819
330
1F
100
AcDbEntity
  8
SOLBET_Bloczki
100
AcDbLine
 10
49.39756043231364
 20
234.2429931868827
 30
0.0
 11
49.39756043231364
 21
246.2429931868827
 31
0.0
  0
LINE
  5
381A
330
1F
100
AcDbEntity
  8
SOLBET_Bloczki
100
AcDbLine
 10
49.39756043231364
 20
246.2429931868827
 30
0.0
 11
42.53978520723172
 21
246.2429931868827
 31
0.0
  0
LINE
  5
381E
330
1F
100
AcDbEntity
  8
SOLBET_Bloczki
100
AcDbLine
 10
132.3975605050509
 20
210.242993186882
 30
0.0
 11
148.1878738751334
 21
210.242993186882
 31
0.0
  0
LINE
  5
381F
330
1F
100
AcDbEntity
  8
SOLBET_Bloczki
100
AcDbLine
 10
148.1878738751334
 20
210.242993186882
 30
0.0
 11
148.1878738751334
 21
222.242993186882
 31
0.0
  0
LINE
  5
3820
330
1F
100
AcDbEntity
  8
SOLBET_Bloczki
100
AcDbLine
 10
148.1878738751334
 20
222.242993186882
 30
0.0
 11
132.3975605050509
 21
222.242993186882
 31
0.0
  0
LINE
  5
3821
330
1F
100
AcDbEntity
  8
SOLBET_Bloczki
100
AcDbLine
 10
132.3975605050509
 20
186.242993186882
 30
0.0
 11
148.1878739478707
 21
186.242993186882
 31
0.0
  0
LINE
  5
3822
330
1F
100
AcDbEntity
  8
SOLBET_Bloczki
100
AcDbLine
 10
148.1878739478707
 20
186.242993186882
 30
0.0
 11
148.1878739478707
 21
198.242993186882
 31
0.0
  0
LINE
  5
3823
330
1F
100
AcDbEntity
  8
SOLBET_Bloczki
100
AcDbLine
 10
148.1878739478707
 20
198.242993186882
 30
0.0
 11
132.3975605050509
 21
198.242993186882
 31
0.0
  0
LINE
  5
3824
330
1F
100
AcDbEntity
  8
SOLBET_Bloczki
100
AcDbLine
 10
132.3975605050509
 20
162.2429931283481
 30
0.0
 11
148.1878739478707
 21
162.2429931283481
 31
0.0
  0
LINE
  5
3825
330
1F
100
AcDbEntity
  8
SOLBET_Bloczki
100
AcDbLine
 10
148.1878739478707
 20
162.2429931283481
 30
0.0
 11
148.1878739478707
 21
174.2429931283481
 31
0.0
  0
LINE
  5
3826
330
1F
100
AcDbEntity
  8
SOLBET_Bloczki
100
AcDbLine
 10
148.1878739478707
 20
174.2429931283481
 30
0.0
 11
132.3975605050509
 21
174.2429931283481
 31
0.0
  0
LINE
  5
3827
330
1F
100
AcDbEntity
  8
SOLBET_Bloczki
100
AcDbLine
 10
132.3975605050509
 20
234.242993186882
 30
0.0
 11
148.1878738751334
 21
234.242993186882
 31
0.0
  0
LINE
  5
3828
330
1F
100
AcDbEntity
  8
SOLBET_Bloczki
100
AcDbLine
 10
148.1878738751334
 20
234.242993186882
 30
0.0
 11
148.1878738751334
 21
246.242993186882
 31
0.0
  0
LINE
  5
3829
330
1F
100
AcDbEntity
  8
SOLBET_Bloczki
100
AcDbLine
 10
148.1878738751334
 20
246.242993186882
 30
0.0
 11
132.3975605050509
 21
246.242993186882
 31
0.0
  0
LINE
  5
382C
330
1F
100
AcDbEntity
  8
SOLBET_Bloczki
100
AcDbLine
 10
148.1878739478707
 20
117.242993128348
 30
0.0
 11
132.3975605050509
 21
117.242993128348
 31
0.0
  0
LINE
  5
382D
330
1F
100
AcDbEntity
  8
SOLBET_Bloczki
100
AcDbLine
 10
191.3975603595763
 20
141.2429933039499
 30
0.0
 11
198.2553358028701
 21
141.2429933039499
 31
0.0
  0
LINE
  5
382E
330
1F
100
AcDbEntity
  8
SOLBET_Bloczki
100
AcDbLine
 10
198.2553358028701
 20
153.2429933039499
 30
0.0
 11
191.3975603595763
 21
153.2429933039499
 31
0.0
  0
LINE
  5
382F
330
1F
100
AcDbEntity
  8
SOLBET_Bloczki
100
AcDbLine
 10
191.3975603595763
 20
153.2429933039499
 30
0.0
 11
191.3975603595763
 21
141.2429933039499
 31
0.0
  0
LINE
  5
3830
330
1F
100
AcDbEntity
  8
SOLBET_Bloczki
100
AcDbLine
 10
191.397560286839
 20
117.2429933039499
 30
0.0
 11
198.2553358028701
 21
117.2429933039499
 31
0.0
  0
LINE
  5
3831
330
1F
100
AcDbEntity
  8
SOLBET_Bloczki
100
AcDbLine
 10
198.2553358028701
 20
129.2429933039499
 30
0.0
 11
191.397560286839
 21
129.2429933039499
 31
0.0
  0
LINE
  5
3832
330
1F
100
AcDbEntity
  8
SOLBET_Bloczki
100
AcDbLine
 10
191.397560286839
 20
129.2429933039499
 30
0.0
 11
191.397560286839
 21
117.2429933039499
 31
0.0
  0
INSERT
  5
383D
330
1F
100
AcDbEntity
  8
SOLBET_Izolacja
100
AcDbBlockReference
  2
SOLBET_Ksztaltka_U_420x240x500_PRA
 10
120.3975605050509
 20
15.29181030476258
 30
0.0
  0
INSERT
  5
383E
330
1F
100
AcDbEntity
  8
SOLBET_Izolacja
100
AcDbBlockReference
  2
SOLBET_Ksztaltka_U_420x240x500_PRA
 10
120.3975605050509
 20
36.29181030476258
 30
0.0
 50
180.0
  0
LINE
  5
3848
330
1F
100
AcDbEntity
  8
SOLBET_Bloczki
100
AcDbLine
 10
191.3975613828097
 20
36.29181039678582
 30
0.0
 11
191.3975614574151
 21
15.29181036329652
 31
0.0
  0
LINE
  5
3849
330
1F
100
AcDbEntity
  8
SOLBET_Bloczki
100
AcDbLine
 10
42.53978520723149
 20
15.29181038243391
 30
0.0
 11
59.3975605796561
 21
15.29181036329652
 31
0.0
  0
LINE
  5
384A
330
1F
100
AcDbEntity
  8
SOLBET_Bloczki
100
AcDbLine
 10
59.3975605796561
 20
15.29181036329652
 30
0.0
 11
59.39756050505093
 21
36.29181039678582
 31
0.0
  0
LINE
  5
384B
330
1F
100
AcDbEntity
  8
SOLBET_Bloczki
100
AcDbLine
 10
59.39756050505093
 20
36.29181039678582
 30
0.0
 11
42.53978520723149
 21
36.29181039678582
 31
0.0
  0
CIRCLE
  5
385B
330
1F
100
AcDbEntity
  8
SOLBET_Wymiary_Opisy
100
AcDbCircle
 10
120.1533557771322
 20
25.70740390043534
 30
0.0
 40
13.77091465769529
  0
LEADER
  5
385C
330
1F
100
AcDbEntity
  8
SOLBET_Wymiary_Opisy
100
AcDbLeader
  3
Solbet$7
 73
     0
 75
     1
 40
5.0
 41
4.5
 76
     3
 10
117.8250335176362
 20
39.28006045563715
 30
0.0
 10
115.243379699023
 20
43.00600602473353
 30
0.0
 10
112.7433796990231
 20
43.00600602473353
 30
0.0
213
-0.8791749024171622
223
-0.1753245211093599
233
0.0
1001
ACAD
1000
DSTYLE
1002
{
1070
   341
1005
384C
1070
   147
1040
0.625
1070
    77
1070
     1
1002
}
  0
MTEXT
  5
385D
102
{ACAD_REACTORS
330
385C
102
}
330
1F
100
AcDbEntity
  8
SOLBET_Wymiary_Opisy
100
AcDbMText
 10
112.9975546014402
 20
48.80633054584289
 30
0.0
 40
5.0
 41
0.0
 71
     3
 72
     1
  1
B
  7
Solbet_5
 73
     1
 44
1.0
1001
ACAD
1000
MTEXTBEGIN
1070
    73
1070
     1
1070
    44
1040
1.0
1070
    74
1070
     0
1000
MTEXTEND
  0
MTEXT
  5
385E
330
1F
100
AcDbEntity
  8
SOLBET_Wymiary_Opisy
100
AcDbMText
 10
254.4496213039947
 20
165.7175493909664
 30
0.0
 40
5.0
 41
30.77919768571883
 71
     1
 72
     5
  1
B\P(3 : 1)
  7
Solbet_5
 73
     1
 44
1.0
1001
ACAD
1000
MTEXTBEGIN
1070
    73
1070
     1
1070
    44
1040
1.0
1070
    74
1070
     0
1000
MTEXTEND
1000
ACAD_MTEXT_DEFINED_HEIGHT_BEGIN
1070
    46
1040
23.42535011036716
1000
ACAD_MTEXT_DEFINED_HEIGHT_END
  0
LWPOLYLINE
  5
3861
330
1F
100
AcDbEntity
  8
SOLBET_Bloczki
100
AcDbPolyline
 90
        4
 70
     1
 43
0.0
 10
88.89756035770847
 20
36.29181039678582
 10
108.3975593344748
 20
36.29181039678582
 10
108.3975593344748
 20
15.29181038426174
 10
88.89756035770847
 20
15.29181038426174
  0
LINE
  5
38A3
330
1F
100
AcDbEntity
  8
SOLBET_Zbrojenie_Konstrukcja
  6
Continuous
100
AcDbLine
 10
284.9200339560653
 20
90.59033419149228
 30
0.0
 11
281.4258146325319
 21
94.0913109989383
 31
0.0
  0
LINE
  5
38A4
330
1F
100
AcDbEntity
  8
SOLBET_Zbrojenie_Konstrukcja
  6
Continuous
100
AcDbLine
 10
287.3077951478617
 20
93.60933048359772
 30
0.0
 11
284.1258146325326
 21
96.79131099893822
 31
0.0
  0
LINE
  5
38A6
330
1F
100
AcDbEntity
  8
SOLBET_Izolacja
100
AcDbLine
 10
241.5577951478617
 20
80.84033419149227
 30
0.0
 11
289.5577951478617
 21
80.84033419149227
 31
0.0
  0
LINE
  5
38A7
330
1F
100
AcDbEntity
  8
SOLBET_Izolacja
100
AcDbLine
 10
241.5577951478617
 20
88.34033419149227
 30
0.0
 11
289.5577951478617
 21
88.34033419149227
 31
0.0
  0
LINE
  5
38AE
330
1F
100
AcDbEntity
  8
SOLBET_Izolacja
100
AcDbLine
 10
241.5577951478617
 20
88.34033419149227
 30
0.0
 11
241.5577951478617
 21
80.84033419149438
 31
0.0
  0
LINE
  5
38AF
330
1F
100
AcDbEntity
  8
SOLBET_Izolacja
  6
BATTING
 48
0.35
100
AcDbLine
 10
241.5577951478617
 20
84.59033419149335
 30
0.0
 11
289.5577951478617
 21
84.5903341914933
 31
0.0
  0
CIRCLE
  5
38B5
330
1F
100
AcDbEntity
  8
SOLBET_Wymiary_Opisy
100
AcDbCircle
 10
264.825180964106
 20
100.0871149785126
 30
0.0
 40
41.31274397308589
  0
LINE
  5
38BA
330
1F
100
AcDbEntity
  8
SOLBET_Bloczki
100
AcDbLine
 10
229.5577916361335
 20
121.6034823432662
 30
0.0
 11
229.5577916361335
 21
78.57074761375969
 31
0.0
  0
LINE
  5
38C9
330
1F
100
AcDbEntity
  8
SOLBET_Bloczki
100
AcDbLine
 10
301.557798263203
 20
118.9936651911733
 30
0.0
 11
301.557798397539
 21
81.18056502684613
 31
0.0
  0
LINE
  5
38CF
330
1F
100
AcDbEntity
  8
SOLBET_Bloczki
100
AcDbLine
 10
265.5577916361335
 20
68.84033442999186
 30
0.0
 11
237.7996093709216
 21
68.84033442999186
 31
0.0
  0
LINE
  5
38D0
330
1F
100
AcDbEntity
  8
SOLBET_Bloczki
100
AcDbLine
 10
229.5577916361335
 20
78.57074761376009
 30
0.0
 11
229.5577916361335
 21
121.6034823432659
 31
0.0
  0
LINE
  5
38D1
330
1F
100
AcDbEntity
  8
SOLBET_Bloczki
100
AcDbLine
 10
238.3964869166894
 20
131.8403344299918
 30
0.0
 11
265.5577916361335
 21
131.8403344299918
 31
0.0
  0
LINE
  5
38D2
330
1F
100
AcDbEntity
  8
SOLBET_Bloczki
100
AcDbLine
 10
265.5577916361335
 20
131.8403344299918
 30
0.0
 11
265.5577916361335
 21
119.8403344299918
 31
0.0
  0
LINE
  5
38D3
330
1F
100
AcDbEntity
  8
SOLBET_Bloczki
100
AcDbLine
 10
265.5577916361335
 20
68.84033442999186
 30
0.0
 11
265.5577916361335
 21
80.84033442999185
 31
0.0
  0
LINE
  5
38D4
330
1F
100
AcDbEntity
  8
SOLBET_Bloczki
100
AcDbLine
 10
241.5577916361335
 20
80.84033442999185
 30
0.0
 11
241.5577916361335
 21
119.8403344299918
 31
0.0
  0
LINE
  5
38D5
330
1F
100
AcDbEntity
  8
SOLBET_Bloczki
100
AcDbLine
 10
265.5577916361335
 20
80.84033442999185
 30
0.0
 11
241.5577916361335
 21
80.84033442999185
 31
0.0
  0
LINE
  5
38D6
330
1F
100
AcDbEntity
  8
SOLBET_Bloczki
100
AcDbLine
 10
265.5577916361335
 20
119.8403344299918
 30
0.0
 11
241.5577916361335
 21
119.8403344299918
 31
0.0
  0
LINE
  5
38DC
330
1F
100
AcDbEntity
  8
SOLBET_Bloczki
100
AcDbLine
 10
265.5577986595899
 20
131.8403339529969
 30
0.0
 11
291.2538755846163
 21
131.8403339529969
 31
0.0
  0
LINE
  5
38DD
330
1F
100
AcDbEntity
  8
SOLBET_Bloczki
100
AcDbLine
 10
301.557798659589
 20
118.9936644210522
 30
0.0
 11
301.55779865959
 21
81.18056553597449
 31
0.0
  0
LINE
  5
38DE
330
1F
100
AcDbEntity
  8
SOLBET_Bloczki
100
AcDbLine
 10
291.8507520057929
 20
68.8403339529969
 30
0.0
 11
265.5577986595899
 21
68.8403339529969
 31
0.0
  0
LINE
  5
38DF
330
1F
100
AcDbEntity
  8
SOLBET_Bloczki
100
AcDbLine
 10
265.5577986595899
 20
68.8403339529969
 30
0.0
 11
265.5577986595899
 21
80.84033395299689
 31
0.0
  0
LINE
  5
38E0
330
1F
100
AcDbEntity
  8
SOLBET_Bloczki
100
AcDbLine
 10
265.5577986595899
 20
131.8403339529969
 30
0.0
 11
265.5577986595899
 21
119.8403339529969
 31
0.0
  0
LINE
  5
38E1
330
1F
100
AcDbEntity
  8
SOLBET_Bloczki
100
AcDbLine
 10
289.5577986595899
 20
119.8403339529969
 30
0.0
 11
289.5577986595899
 21
80.84033395299689
 31
0.0
  0
LINE
  5
38E2
330
1F
100
AcDbEntity
  8
SOLBET_Bloczki
100
AcDbLine
 10
265.5577986595899
 20
119.8403339529969
 30
0.0
 11
289.5577986595899
 21
119.8403339529969
 31
0.0
  0
LINE
  5
38E3
330
1F
100
AcDbEntity
  8
SOLBET_Bloczki
100
AcDbLine
 10
265.5577986595899
 20
80.84033395299689
 30
0.0
 11
289.5577986595899
 21
80.84033395299689
 31
0.0
  0
LINE
  5
38E4
330
1F
100
AcDbEntity
  8
SOLBET_Zbrojenie_Konstrukcja
100
AcDbLine
 10
248.7713972041811
 20
73.83860728396348
 30
0.0
 11
282.3441930915424
 21
73.83860728396348
 31
0.0
  0
LINE
  5
38E5
330
1F
100
AcDbEntity
  8
SOLBET_Zbrojenie_Konstrukcja
100
AcDbLine
 10
282.3441930915424
 20
73.83860728396348
 30
0.0
 11
282.3441930915424
 21
77.0863609207542
 31
0.0
  0
LINE
  5
38E6
330
1F
100
AcDbEntity
  8
SOLBET_Zbrojenie_Konstrukcja
100
AcDbLine
 10
282.3441930915424
 20
77.0863609207542
 30
0.0
 11
248.7713972041811
 21
77.0863609207542
 31
0.0
  0
LINE
  5
38E7
330
1F
100
AcDbEntity
  8
SOLBET_Zbrojenie_Konstrukcja
100
AcDbLine
 10
248.7713972041811
 20
77.0863609207542
 30
0.0
 11
248.7713972041811
 21
73.83860728396348
 31
0.0
  0
LINE
  5
38E8
330
1F
100
AcDbEntity
  8
SOLBET_Zbrojenie_Konstrukcja
100
AcDbLine
 10
248.7713972041811
 20
126.8420610990231
 30
0.0
 11
282.3441930915424
 21
126.8420610990231
 31
0.0
  0
LINE
  5
38E9
330
1F
100
AcDbEntity
  8
SOLBET_Zbrojenie_Konstrukcja
100
AcDbLine
 10
282.3441930915424
 20
126.8420610990231
 30
0.0
 11
282.3441930915424
 21
123.5943074622325
 31
0.0
  0
LINE
  5
38EA
330
1F
100
AcDbEntity
  8
SOLBET_Zbrojenie_Konstrukcja
100
AcDbLine
 10
282.3441930915424
 20
123.5943074622325
 30
0.0
 11
248.7713972041811
 21
123.5943074622325
 31
0.0
  0
LINE
  5
38EB
330
1F
100
AcDbEntity
  8
SOLBET_Zbrojenie_Konstrukcja
100
AcDbLine
 10
248.7713972041811
 20
123.5943074622325
 30
0.0
 11
248.7713972041811
 21
126.8420610990231
 31
0.0
  0
ARC
  5
38EC
330
1F
100
AcDbEntity
  8
SOLBET_Zbrojenie_Konstrukcja
  6
Continuous
100
AcDbCircle
 10
286.3150857247492
 20
116.324502649755
 30
0.0
 40
0.4500000000002729
100
AcDbArc
 50
0.0
 51
180.0
  0
ARC
  5
38ED
330
1F
100
AcDbEntity
  8
SOLBET_Zbrojenie_Konstrukcja
  6
Continuous
100
AcDbCircle
 10
286.3150857247492
 20
116.324502649755
 30
0.0
 40
0.4499999999989086
100
AcDbArc
 50
180.0
 51
0.0
  0
ARC
  5
38EE
330
1F
100
AcDbEntity
  8
SOLBET_Zbrojenie_Konstrukcja
  6
Continuous
100
AcDbCircle
 10
244.8005045709751
 20
116.324502649755
 30
0.0
 40
0.4500000000002729
100
AcDbArc
 50
0.0
 51
180.0
  0
ARC
  5
38EF
330
1F
100
AcDbEntity
  8
SOLBET_Zbrojenie_Konstrukcja
  6
Continuous
100
AcDbCircle
 10
244.8005045709751
 20
116.324502649755
 30
0.0
 40
0.4499999999989086
100
AcDbArc
 50
180.0
 51
0.0
  0
ARC
  5
38F0
330
1F
100
AcDbEntity
  8
SOLBET_Zbrojenie_Konstrukcja
  6
Continuous
100
AcDbCircle
 10
286.3150857247492
 20
91.85616573323159
 30
0.0
 40
0.4500000000002729
100
AcDbArc
 50
180.0
 51
0.0
  0
ARC
  5
38F1
330
1F
100
AcDbEntity
  8
SOLBET_Zbrojenie_Konstrukcja
  6
Continuous
100
AcDbCircle
 10
286.3150857247492
 20
91.85616573323159
 30
0.0
 40
0.4499999999989086
100
AcDbArc
 50
0.0
 51
180.0
  0
ARC
  5
38F2
330
1F
100
AcDbEntity
  8
SOLBET_Zbrojenie_Konstrukcja
  6
Continuous
100
AcDbCircle
 10
244.8005045709751
 20
91.85616573323159
 30
0.0
 40
0.4500000000002729
100
AcDbArc
 50
180.0
 51
0.0
  0
ARC
  5
38F3
330
1F
100
AcDbEntity
  8
SOLBET_Zbrojenie_Konstrukcja
  6
Continuous
100
AcDbCircle
 10
244.8005045709751
 20
91.85616573323159
 30
0.0
 40
0.4499999999989086
100
AcDbArc
 50
0.0
 51
180.0
  0
LINE
  5
38F4
330
1F
100
AcDbEntity
  8
SOLBET_Zbrojenie_Konstrukcja
  6
Continuous
100
AcDbLine
 10
287.3077951478617
 20
90.59033419149228
 30
0.0
 11
243.8077951478617
 21
90.59033419149228
 31
0.0
  0
LINE
  5
38F5
330
1F
100
AcDbEntity
  8
SOLBET_Zbrojenie_Konstrukcja
  6
Continuous
100
AcDbLine
 10
243.8077951478617
 20
90.59033419149228
 30
0.0
 11
243.8077951478617
 21
117.5903341914944
 31
0.0
  0
LINE
  5
38F6
330
1F
100
AcDbEntity
  8
SOLBET_Zbrojenie_Konstrukcja
  6
Continuous
100
AcDbLine
 10
243.8077951478617
 20
117.5903341914944
 30
0.0
 11
287.3077951478617
 21
117.5903341914944
 31
0.0
  0
LINE
  5
38F7
330
1F
100
AcDbEntity
  8
SOLBET_Zbrojenie_Konstrukcja
  6
Continuous
100
AcDbLine
 10
287.3077951478617
 20
117.5903341914944
 30
0.0
 11
287.3077951478617
 21
90.59033419149228
 31
0.0
  0
LEADER
  5
3906
330
1F
100
AcDbEntity
  8
SOLBET_Wymiary_Opisy
100
AcDbLeader
  3
Solbet$7
 73
     0
 74
     0
 75
     1
 40
3.25
 41
24.25
 76
     3
 10
245.6926230843333
 20
84.59033419149335
 30
0.0
 10
244.5265761959551
 20
48.68674559421288
 30
0.0
 10
247.0265761959552
 20
48.68674559421288
 30
0.0
340
3907
213
0.625
223
0.625
233
0.0
1001
ACAD
1000
DSTYLE
1002
{
1070
   147
1040
0.625
1070
    77
1070
     1
1002
}
  0
MTEXT
  5
3907
102
{ACAD_REACTORS
330
3906
102
}
330
1F
100
AcDbEntity
  8
SOLBET_Wymiary_Opisy
100
AcDbMText
 10
247.0265761959552
 20
51.93674559421288
 30
0.0
 40
2.5
 41
30.46114864190486
 71
     1
 72
     1
  1
Warstwa izolacji
  7
Solbet_2_5
 73
     1
 44
1.0
1001
ACAD
1000
MTEXTBEGIN
1070
    73
1070
     1
1070
    44
1040
1.0
1070
    74
1070
     0
1000
MTEXTEND
  0
LEADER
  5
3908
330
1F
100
AcDbEntity
  8
SOLBET_Wymiary_Opisy
100
AcDbLeader
  3
Solbet$7
 73
     0
 75
     1
 40
2.501893939393939
 41
30.25
 76
     3
 10
238.7015732910015
 20
75.43172521871293
 30
0.0
 10
239.807202381478
 20
48.74395870788243
 30
0.0
 10
237.3072023814779
 20
48.74395870788243
 30
0.0
340
3909
213
0.0241123490200153
223
-0.5504349534820677
233
0.0
1001
ACAD
1000
DSTYLE
1002
{
1070
   147
1040
0.625
1070
    77
1070
     1
1002
}
  0
MTEXT
  5
3909
102
{ACAD_XDICTIONARY
360
3C61
102
}
102
{ACAD_REACTORS
330
3908
102
}
330
1F
100
AcDbEntity
  8
SOLBET_Wymiary_Opisy
100
AcDbMText
 10
206.4080900324579
 20
52.42128760075843
 30
0.0
 40
2.5
 41
0.0
 71
     1
 72
     1
  1
Kszta\U+0142tki U SOLBET
  7
Solbet_2_5
 73
     1
 44
1.0
1001
ACAD
1000
MTEXTBEGIN
1070
    73
1070
     1
1070
    44
1040
1.0
1070
    74
1070
     0
1000
MTEXTEND
  0
LEADER
  5
3913
330
1F
100
AcDbEntity
  8
SOLBET_Wymiary_Opisy
100
AcDbLeader
  3
Solbet$7
 73
     0
 74
     0
 75
     1
 40
3.25
 41
23.25
 76
     3
 10
286.3150857247492
 20
92.3061657332305
 30
0.0
 10
297.6816137007302
 20
63.81504413844663
 30
0.0
 10
300.1816137007302
 20
63.81504413844663
 30
0.0
340
3914
213
0.625
223
-0.1753245211093599
233
0.0
1001
ACAD
1000
DSTYLE
1002
{
1070
   147
1040
0.625
1070
    77
1070
     1
1002
}
  0
MTEXT
  5
3914
102
{ACAD_XDICTIONARY
360
3C63
102
}
102
{ACAD_REACTORS
330
3913
102
}
330
1F
100
AcDbEntity
  8
SOLBET_Wymiary_Opisy
100
AcDbMText
 10
300.1816137007302
 20
67.865368659556
 30
0.0
 40
2.5
 41
0.0
 71
     1
 72
     1
  1
Zbrojenie s\U+0142upa
  7
Solbet_2_5
 73
     1
 44
1.0
1001
ACAD
1000
MTEXTBEGIN
1070
    73
1070
     1
1070
    44
1040
1.0
1070
    74
1070
     0
1000
MTEXTEND
  0
HATCH
  5
391D
330
1F
100
AcDbEntity
  8
SOLBET_Zbrojenie_Konstrukcja
100
AcDbHatch
 10
0.0
 20
0.0
 30
0.0
210
0.0
220
0.0
230
1.0
  2
SOLID
 70
     1
 71
     0
 91
        4
 92
        7
 72
     1
 73
     1
 93
        2
 10
245.250504570974
 20
116.324502649755
 42
1.0
 10
244.3505045709748
 20
116.324502649755
 42
1.0
 97
        0
 92
        7
 72
     1
 73
     1
 93
        2
 10
286.7650857247481
 20
116.324502649755
 42
1.0
 10
285.8650857247489
 20
116.324502649755
 42
1.0
 97
        0
 92
        7
 72
     1
 73
     1
 93
        2
 10
285.8650857247503
 20
91.85616573323159
 42
1.0
 10
286.7650857247495
 20
91.85616573323159
 42
1.0
 97
        0
 92
        7
 72
     1
 73
     1
 93
        2
 10
245.2505045709754
 20
91.85616573323159
 42
1.0
 10
244.3505045709762
 20
91.85616573323159
 42
1.0
 97
        0
 75
     0
 76
     1
 47
0.0274468356159194
 98
        4
 10
244.8169545063752
 20
116.3034505587671
 10
286.393785677999
 20
116.1461165224131
 10
286.3696421954855
 20
91.90094992933438
 10
244.7546017226018
 20
91.80169400118415
1001
ACAD
1010
0.0
1020
0.0
1030
0.0
  0
LEADER
  5
391E
330
1F
100
AcDbEntity
  8
SOLBET_Wymiary_Opisy
100
AcDbLeader
  3
Solbet$7
 73
     0
 74
     0
 75
     1
 40
3.5
 41
43.62499999999999
 76
     3
 10
278.1480424735842
 20
75.99313544899136
 30
0.0
 10
277.0106510028452
 20
48.23191638135563
 30
0.0
 10
279.5106510028452
 20
48.23191638135563
 30
0.0
340
391F
213
-0.625
223
0.625
233
0.0
1001
ACAD
1000
DSTYLE
1002
{
1070
   147
1040
0.625
1070
    77
1070
     1
1002
}
  0
MTEXT
  5
391F
102
{ACAD_XDICTIONARY
360
3C65
102
}
102
{ACAD_REACTORS
330
391E
102
}
330
1F
100
AcDbEntity
  8
SOLBET_Wymiary_Opisy
100
AcDbMText
 10
280.7606510028452
 20
52.99809102660083
 30
0.0
 40
2.5
 41
49.80565824987116
 71
     1
 72
     1
  1
\U+0141\U+0105czniki do \U+015Bcian dzia\U+0142owych
  7
Solbet_2_5
 73
     1
 44
1.0
1001
ACAD
1000
MTEXTBEGIN
1070
    73
1070
     1
1070
    44
1040
1.0
1070
    74
1070
     0
1000
MTEXTEND
1000
ACAD_MTEXT_DEFINED_HEIGHT_BEGIN
1070
    46
1040
4.7661746452452
1000
ACAD_MTEXT_DEFINED_HEIGHT_END
  0
POINT
  5
3A80
330
1F
100
AcDbEntity
  8
SOLBET_Ramka_05
100
AcDbPoint
 10
0.0
 20
0.0
 30
0.0
  0
LINE
  5
3A96
330
1F
100
AcDbEntity
  8
SOLBET_Bloczki
100
AcDbLine
 10
191.3975616010216
 20
36.29181072744091
 30
0.0
 11
198.2553358028701
 21
36.29181072744092
 31
0.0
  0
LINE
  5
3A98
330
1F
100
AcDbEntity
  8
SOLBET_Bloczki
100
AcDbLine
 10
191.3975616756268
 20
15.29181069395161
 30
0.0
 11
198.2553358028701
 21
15.29181069395161
 31
0.0
  0
MTEXT
  5
3A99
330
1F
100
AcDbEntity
  8
SOLBET_Wymiary_Opisy
100
AcDbMText
 10
34.56348714930732
 20
220.9279256210663
 30
0.0
 40
5.0
 41
0.0
 71
     3
 72
     1
  1
A
  7
Solbet_5
 73
     1
 44
1.0
1001
ACAD
1000
MTEXTBEGIN
1070
    73
1070
     1
1070
    44
1040
1.0
1070
    74
1070
     0
1000
MTEXTEND
  0
LINE
  5
3A9B
330
1F
100
AcDbEntity
  8
SOLBET_Wymiary_Opisy
370
    35
100
AcDbLine
 10
30.52442661616647
 20
215.2662623723944
 30
0.0
 11
41.06344679161838
 21
215.2662623723944
 31
0.0
  0
LINE
  5
3AB7
330
1F
100
AcDbEntity
  8
SOLBET_Wymiary_Opisy
100
AcDbLine
 10
35.19600215721857
 20
218.1845873230921
 30
0.0
 11
35.19600215721857
 21
221.6774254817069
 31
0.0
  0
SOLID
  5
3ABA
330
1F
100
AcDbEntity
  8
SOLBET_Wymiary_Opisy
100
AcDbTrace
 10
35.61266882388523
 20
218.1845873230921
 30
0.0
 11
34.77933549055192
 21
218.1845873230921
 31
0.0
 12
35.19600215721857
 22
215.6845873230921
 32
0.0
 13
35.19600215721857
 23
215.6845873230921
 33
0.0
  0
MTEXT
  5
3ABC
330
1F
100
AcDbEntity
  8
SOLBET_Wymiary_Opisy
100
AcDbMText
 10
60.31854389240971
 20
52.12943614241658
 30
0.0
 40
5.0
 41
0.0
 71
     3
 72
     1
  1
A-A
  7
Solbet_5
 73
     1
 44
1.0
1001
ACAD
1000
MTEXTBEGIN
1070
    73
1070
     1
1070
    44
1040
1.0
1070
    74
1070
     0
1000
MTEXTEND
  0
MTEXT
  5
3AC1
330
1F
100
AcDbEntity
  8
SOLBET_Wymiary_Opisy
100
AcDbMText
 10
210.581944055001
 20
220.9279256210663
 30
0.0
 40
5.0
 41
0.0
 71
     3
 72
     1
  1
A
  7
Solbet_5
 73
     1
 44
1.0
1001
ACAD
1000
MTEXTBEGIN
1070
    73
1070
     1
1070
    44
1040
1.0
1070
    74
1070
     0
1000
MTEXTEND
  0
LINE
  5
3AC2
330
1F
100
AcDbEntity
  8
SOLBET_Wymiary_Opisy
370
    35
100
AcDbLine
 10
199.2856185408038
 20
215.2662623723944
 30
0.0
 11
209.8246387162558
 21
215.2662623723944
 31
0.0
  0
LINE
  5
3AC7
330
1F
100
AcDbEntity
  8
SOLBET_Wymiary_Opisy
100
AcDbLine
 10
205.6566818410058
 20
218.252077924665
 30
0.0
 11
205.6566818410058
 21
221.7449160832799
 31
0.0
  0
SOLID
  5
3AC8
330
1F
100
AcDbEntity
  8
SOLBET_Wymiary_Opisy
100
AcDbTrace
 10
205.2400151743392
 20
218.252077924665
 30
0.0
 11
206.0733485076725
 21
218.252077924665
 31
0.0
 12
205.6566818410058
 22
215.7520779246651
 32
0.0
 13
205.6566818410058
 23
215.7520779246651
 33
0.0
  0
INSERT
  5
3BA5
330
1F
100
AcDbEntity
  8
SOLBET_Bloczki
100
AcDbBlockReference
  2
SOLBET_Bloczek_Ideal_420x240x590_P+W_KG400_PRZ
 10
49.39756043231364
 20
234.2429931868827
 30
0.0
  0
INSERT
  5
3BA6
330
1F
100
AcDbEntity
  8
SOLBET_Bloczki
100
AcDbBlockReference
  2
SOLBET_Bloczek_Ideal_420x240x590_P+W_KG400_PRZ
 10
78.89756035957635
 20
234.2429932454166
 30
0.0
  0
INSERT
  5
3BA7
330
1F
100
AcDbEntity
  8
SOLBET_Bloczki
100
AcDbBlockReference
  2
SOLBET_Bloczek_Ideal_420x240x590_P+W_KG400_PRZ
 10
59.39756043231364
 20
222.2429931868827
 30
0.0
  0
INSERT
  5
3BA8
330
1F
100
AcDbEntity
  8
SOLBET_Bloczki
100
AcDbBlockReference
  2
SOLBET_Bloczek_Ideal_420x240x590_P+W_KG400_PRZ
 10
49.39756043231364
 20
210.2429931868827
 30
0.0
  0
INSERT
  5
3BA9
330
1F
100
AcDbEntity
  8
SOLBET_Bloczki
100
AcDbBlockReference
  2
SOLBET_Bloczek_Ideal_420x240x590_P+W_KG400_PRZ
 10
78.89756035957635
 20
210.2429932454167
 30
0.0
  0
INSERT
  5
3BAA
330
1F
100
AcDbEntity
  8
SOLBET_Bloczki
100
AcDbBlockReference
  2
SOLBET_Bloczek_Ideal_420x240x590_P+W_KG400_PRZ
 10
59.39756043231364
 20
198.2429931868827
 30
0.0
  0
INSERT
  5
3BAB
330
1F
100
AcDbEntity
  8
SOLBET_Bloczki
100
AcDbBlockReference
  2
SOLBET_Bloczek_Ideal_420x240x590_P+W_KG400_PRZ
 10
49.39756043231364
 20
186.2429931868827
 30
0.0
  0
INSERT
  5
3BAC
330
1F
100
AcDbEntity
  8
SOLBET_Bloczki
100
AcDbBlockReference
  2
SOLBET_Bloczek_Ideal_420x240x590_P+W_KG400_PRZ
 10
78.89756035957635
 20
186.2429931868827
 30
0.0
  0
INSERT
  5
3BAD
330
1F
100
AcDbEntity
  8
SOLBET_Bloczki
100
AcDbBlockReference
  2
SOLBET_Bloczek_Ideal_420x240x590_P+W_KG400_PRZ
 10
59.39756043231364
 20
174.242993186882
 30
0.0
  0
INSERT
  5
3BAE
330
1F
100
AcDbEntity
  8
SOLBET_Bloczki
100
AcDbBlockReference
  2
SOLBET_Bloczek_Ideal_420x240x590_P+W_KG400_PRZ
 10
49.39756043231364
 20
162.242993186882
 30
0.0
  0
INSERT
  5
3BAF
330
1F
100
AcDbEntity
  8
SOLBET_Bloczki
100
AcDbBlockReference
  2
SOLBET_Bloczek_Ideal_420x240x590_P+W_KG400_PRZ
 10
78.89756035957635
 20
162.2429932454159
 30
0.0
  0
INSERT
  5
3BB0
330
1F
100
AcDbEntity
  8
SOLBET_Bloczki
100
AcDbBlockReference
  2
SOLBET_Bloczek_Ideal_420x240x590_P+W_KG400_PRZ
 10
148.1878739478707
 20
162.2429932454159
 30
0.0
  0
INSERT
  5
3BB1
330
1F
100
AcDbEntity
  8
SOLBET_Bloczki
100
AcDbBlockReference
  2
SOLBET_Bloczek_Ideal_420x240x590_P+W_KG400_PRZ
 10
132.3975605050509
 20
174.2429931283481
 30
0.0
  0
INSERT
  5
3BB2
330
1F
100
AcDbEntity
  8
SOLBET_Bloczki
100
AcDbBlockReference
  2
SOLBET_Bloczek_Ideal_420x240x590_P+W_KG400_PRZ
 10
161.8975604323136
 20
174.2429933039499
 30
0.0
  0
INSERT
  5
3BB3
330
1F
100
AcDbEntity
  8
SOLBET_Bloczki
100
AcDbBlockReference
  2
SOLBET_Bloczek_Ideal_420x240x590_P+W_KG400_PRZ
 10
148.1878739478707
 20
186.242993186882
 30
0.0
  0
INSERT
  5
3BB4
330
1F
100
AcDbEntity
  8
SOLBET_Bloczki
100
AcDbBlockReference
  2
SOLBET_Bloczek_Ideal_420x240x590_P+W_KG400_PRZ
 10
132.3975605312721
 20
198.242993186882
 30
0.0
  0
INSERT
  5
3BB5
330
1F
100
AcDbEntity
  8
SOLBET_Bloczki
100
AcDbBlockReference
  2
SOLBET_Bloczek_Ideal_420x240x590_P+W_KG400_PRZ
 10
161.8975604585348
 20
198.242993245416
 30
0.0
  0
INSERT
  5
3BB6
330
1F
100
AcDbEntity
  8
SOLBET_Bloczki
100
AcDbBlockReference
  2
SOLBET_Bloczek_Ideal_420x240x590_P+W_KG400_PRZ
 10
148.1878738751334
 20
210.242993245416
 30
0.0
  0
INSERT
  5
3BB7
330
1F
100
AcDbEntity
  8
SOLBET_Bloczki
100
AcDbBlockReference
  2
SOLBET_Bloczek_Ideal_420x240x590_P+W_KG400_PRZ
 10
132.3975605050509
 20
222.242993186882
 30
0.0
  0
INSERT
  5
3BB8
330
1F
100
AcDbEntity
  8
SOLBET_Bloczki
100
AcDbBlockReference
  2
SOLBET_Bloczek_Ideal_420x240x590_P+W_KG400_PRZ
 10
161.8975604323136
 20
222.2429933039499
 30
0.0
  0
INSERT
  5
3BB9
330
1F
100
AcDbEntity
  8
SOLBET_Bloczki
100
AcDbBlockReference
  2
SOLBET_Bloczek_Ideal_420x240x590_P+W_KG400_PRZ
 10
148.1878738751334
 20
234.242993245416
 30
0.0
  0
INSERT
  5
3BBA
330
1F
100
AcDbEntity
  8
SOLBET_Bloczki
100
AcDbBlockReference
  2
SOLBET_Bloczek_Ideal_420x240x590_P+W_KG400_PRZ
 10
59.39756043231364
 20
141.2429931868827
 30
0.0
  0
INSERT
  5
3BBB
330
1F
100
AcDbEntity
  8
SOLBET_Bloczki
100
AcDbBlockReference
  2
SOLBET_Bloczek_Ideal_420x240x590_P+W_KG400_PRZ
 10
49.39756043231364
 20
129.242993186882
 30
0.0
  0
INSERT
  5
3BBC
330
1F
100
AcDbEntity
  8
SOLBET_Bloczki
100
AcDbBlockReference
  2
SOLBET_Bloczek_Ideal_420x240x590_P+W_KG400_PRZ
 10
59.39756043231364
 20
117.242993186882
 30
0.0
  0
INSERT
  5
3BBD
330
1F
100
AcDbEntity
  8
SOLBET_Bloczki
100
AcDbBlockReference
  2
SOLBET_Bloczek_Ideal_420x240x590_P+W_KG400_PRZ
 10
49.39756043231364
 20
105.2429931283481
 30
0.0
  0
INSERT
  5
3BBE
330
1F
100
AcDbEntity
  8
SOLBET_Bloczki
100
AcDbBlockReference
  2
SOLBET_Bloczek_Ideal_420x240x590_P+W_KG400_PRZ
 10
59.39756050505093
 20
93.24299312834808
 30
0.0
  0
INSERT
  5
3BBF
330
1F
100
AcDbEntity
  8
SOLBET_Bloczki
100
AcDbBlockReference
  2
SOLBET_Bloczek_Ideal_420x240x590_P+W_KG400_PRZ
 10
78.89756035957635
 20
105.242993186882
 30
0.0
  0
INSERT
  5
3BC0
330
1F
100
AcDbEntity
  8
SOLBET_Bloczki
100
AcDbBlockReference
  2
SOLBET_Bloczek_Ideal_420x240x590_P+W_KG400_PRZ
 10
78.89756035957635
 20
129.2429932454159
 30
0.0
  0
INSERT
  5
3BC4
330
1F
100
AcDbEntity
  8
SOLBET_Bloczki
100
AcDbBlockReference
  2
SOLBET_Bloczek_Ideal_420x240x590_P+W_KG400_PRZ
 10
161.8975601151433
 20
141.2429932454159
 30
0.0
  0
INSERT
  5
3BC5
330
1F
100
AcDbEntity
  8
SOLBET_Bloczki
100
AcDbBlockReference
  2
SOLBET_Bloczek_Ideal_420x240x590_P+W_KG400_PRZ
 10
132.3975597979729
 20
141.2429932454159
 30
0.0
  0
INSERT
  5
3BC6
330
1F
100
AcDbEntity
  8
SOLBET_Bloczki
100
AcDbBlockReference
  2
SOLBET_Bloczek_Ideal_420x240x590_P+W_KG400_PRZ
 10
148.187873557963
 20
129.242993186882
 30
0.0
  0
INSERT
  5
3BC7
330
1F
100
AcDbEntity
  8
SOLBET_Bloczki
100
AcDbBlockReference
  2
SOLBET_Bloczek_Ideal_420x240x590_P+W_KG400_PRZ
 10
161.897560042406
 20
117.2429932454159
 30
0.0
  0
INSERT
  5
3BC8
330
1F
100
AcDbEntity
  8
SOLBET_Bloczki
100
AcDbBlockReference
  2
SOLBET_Bloczek_Ideal_420x240x590_P+W_KG400_PRZ
 10
148.1878736307003
 20
105.242993186882
 30
0.0
  0
INSERT
  5
3BC9
330
1F
100
AcDbEntity
  8
SOLBET_Bloczki
100
AcDbBlockReference
  2
SOLBET_Bloczek_Ideal_420x240x590_P+W_KG400_PRZ
 10
161.8975601151433
 20
93.24299318688202
 30
0.0
  0
INSERT
  5
3BCA
330
1F
100
AcDbEntity
  8
SOLBET_Bloczki
100
AcDbBlockReference
  2
SOLBET_Bloczek_Ideal_420x240x590_P+W_KG400_PRZ
 10
132.3975597979729
 20
93.24299318688202
 30
0.0
  0
INSERT
  5
3BCB
330
1F
100
AcDbEntity
  8
SOLBET_Bloczki
100
AcDbBlockReference
  2
SOLBET_Bloczek_Ideal_420x240x590_P+W_KG400_PRZ
 10
132.3975597252356
 20
117.2429932454159
 30
0.0
  0
INSERT
  5
3BDA
330
1F
100
AcDbEntity
  8
SOLBET_Bloczki
100
AcDbBlockReference
  2
SOLBET_Ksztaltka_U_420x240x500_KG400_PRZ
 10
120.3975604060924
 20
93.24299213921916
 30
0.0
 50
90.0
  0
INSERT
  5
3BDB
330
1F
100
AcDbEntity
  8
SOLBET_Bloczki
100
AcDbBlockReference
  2
SOLBET_Ksztaltka_U_420x240x500_KG400_PRZ
 10
120.3975604060924
 20
118.2429921392189
 30
0.0
 50
90.0
  0
INSERT
  5
3BDC
330
1F
100
AcDbEntity
  8
SOLBET_Bloczki
100
AcDbBlockReference
  2
SOLBET_Ksztaltka_U_420x240x500_KG400_PRZ
 10
132.3975604060924
 20
93.24299213921895
 30
0.0
 50
90.0
  0
INSERT
  5
3BDD
330
1F
100
AcDbEntity
  8
SOLBET_Bloczki
100
AcDbBlockReference
  2
SOLBET_Ksztaltka_U_420x240x500_KG400_PRZ
 10
132.3975604060924
 20
118.2429921392187
 30
0.0
 50
90.0
  0
INSERT
  5
3BDE
330
1F
100
AcDbEntity
  8
SOLBET_Bloczki
100
AcDbBlockReference
  2
SOLBET_Ksztaltka_U_420x240x500_KG400_PRZ
 10
120.3975604060924
 20
174.7787317537594
 30
0.0
 50
90.0
  0
INSERT
  5
3BDF
330
1F
100
AcDbEntity
  8
SOLBET_Bloczki
100
AcDbBlockReference
  2
SOLBET_Ksztaltka_U_420x240x500_KG400_PRZ
 10
132.3975604060924
 20
174.7787317537594
 30
0.0
 50
90.0
  0
INSERT
  5
3BE0
330
1F
100
AcDbEntity
  8
SOLBET_Bloczki
100
AcDbBlockReference
  2
SOLBET_Ksztaltka_U_420x240x500_KG400_PRZ
 10
120.3975604060924
 20
199.7787317537592
 30
0.0
 50
90.0
  0
INSERT
  5
3BE1
330
1F
100
AcDbEntity
  8
SOLBET_Bloczki
100
AcDbBlockReference
  2
SOLBET_Ksztaltka_U_420x240x500_KG400_PRZ
 10
132.3975604060924
 20
199.7787317537592
 30
0.0
 50
90.0
  0
INSERT
  5
3BE2
330
1F
100
AcDbEntity
  8
SOLBET_Bloczki
100
AcDbBlockReference
  2
SOLBET_Ksztaltka_U_420x240x500_KG400_PRZ
 10
120.3975604060924
 20
224.778731753759
 30
0.0
 50
90.0
  0
INSERT
  5
3BE3
330
1F
100
AcDbEntity
  8
SOLBET_Bloczki
100
AcDbBlockReference
  2
SOLBET_Ksztaltka_U_420x240x500_KG400_PRZ
 10
132.3975604060924
 20
224.778731753759
 30
0.0
 50
90.0
  0
INSERT
  5
3BF4
330
1F
100
AcDbEntity
  8
SOLBET_Bloczki
100
AcDbBlockReference
  2
SOLBET_Bloczek_Ideal_420x240x590_P+W_KG400_GOR
 10
59.3975605796561
 20
15.29181036329652
 30
0.0
  0
INSERT
  5
3BF5
330
1F
100
AcDbEntity
  8
SOLBET_Bloczki
100
AcDbBlockReference
  2
SOLBET_Bloczek_Ideal_420x240x590_P+W_KG400_GOR
 10
132.397561675627
 20
15.29181022526342
 30
0.0
  0
INSERT
  5
3BF6
330
1F
100
AcDbEntity
  8
SOLBET_Bloczki
100
AcDbBlockReference
  2
SOLBET_Bloczek_Ideal_420x240x590_P+W_KG400_GOR
 10
161.8975616028897
 20
15.29181028379736
 30
0.0
  0
MTEXT
  5
3C29
102
{ACAD_XDICTIONARY
360
3C2A
102
}
330
1F
100
AcDbEntity
  8
SOLBET_Wymiary_Opisy
100
AcDbMText
 10
301.2542633255816
 20
7.273150535415538
 30
0.0
 40
5.0
 41
0.0
 71
     1
 72
     5
  1
Skala 1:20
  7
Solbet_5
 73
     1
 44
1.0
1001
ACAD
1000
MTEXTBEGIN
1070
    73
1070
     1
1070
    44
1040
1.0
1070
    74
1070
     0
1000
MTEXTEND
1000
ACAD_MTEXT_DEFINED_HEIGHT_BEGIN
1070
    46
1040
5.395147572682731
1000
ACAD_MTEXT_DEFINED_HEIGHT_END
  0
LWPOLYLINE
  5
3C2C
330
1F
100
AcDbEntity
  8
SOLBET_Ramka_05
100
AcDbPolyline
 90
        4
 70
     1
 43
0.0
 10
298.2355972046678
 20
9.804221198935465
 10
334.35177409209
 20
9.804221198935465
 10
334.35177409209
 20
0.0
 10
298.2355972046678
 20
0.0
  0
ENDSEC
  0
SECTION
  2
OBJECTS
  0
DICTIONARY
  5
C
330
0
100
AcDbDictionary
281
     1
  3
ACAD_COLOR
350
6B
  3
ACAD_GROUP
350
D
  3
ACAD_LAYOUT
350
1A
  3
ACAD_MATERIAL
350
6A
  3
ACAD_MLEADERSTYLE
350
12D
  3
ACAD_MLINESTYLE
350
17
  3
ACAD_PLOTSETTINGS
350
19
  3
ACAD_PLOTSTYLENAME
350
E
  3
ACAD_SCALELIST
350
10C
  3
ACAD_TABLESTYLE
350
7E
  3
ACAD_VISUALSTYLE
350
EF
  3
ACDB_RECOMPOSE_DATA
350
15D
  3
AcDbVariableDictionary
350
5E
  3
ASE_INDEX_DICTIONARY
350
3ADE
  3
DWGPROPS
350
3C51
  0
DICTIONARY
  5
443
330
8
100
AcDbDictionary
280
     1
281
     1
  0
DICTIONARY
  5
3E5
330
2
100
AcDbDictionary
280
     1
281
     1
  3
ACAD_LAYERFILTERS
360
2209
  3
ACLYDICTIONARY
360
2208
  0
DICTIONARY
  5
13C
330
10
100
AcDbDictionary
280
     1
281
     1
  3
ADSK_XREC_LAYER_RECONCILED
360
3F4
  0
DICTIONARY
  5
403
330
3DD
100
AcDbDictionary
280
     1
281
     1
  3
ADSK_XREC_LAYER_RECONCILED
360
404
  0
DICTIONARY
  5
405
330
3DF
100
AcDbDictionary
280
     1
281
     1
  3
ADSK_XREC_LAYER_RECONCILED
360
406
  0
DICTIONARY
  5
409
330
3E1
100
AcDbDictionary
280
     1
281
     1
  3
ADSK_XREC_LAYER_RECONCILED
360
40A
  0
DICTIONARY
  5
40B
330
3E2
100
AcDbDictionary
280
     1
281
     1
  3
ADSK_XREC_LAYER_RECONCILED
360
40C
  0
DICTIONARY
  5
411
330
3E8
100
AcDbDictionary
280
     1
281
     1
  3
ADSK_XREC_LAYER_RECONCILED
360
412
  0
DICTIONARY
  5
3B58
330
3B57
100
AcDbDictionary
280
     1
281
     1
  3
ASDK_XREC_ANNO_SCALE_INFO
360
3B59
  0
DICTIONARY
  5
4A3
330
1F
100
AcDbDictionary
280
     1
281
     1
  3
ACAD_SORTENTS
360
4A4
  0
DICTIONARY
  5
2FE3
330
2FD7
100
AcDbDictionary
280
     1
281
     1
  3
ACAD_SORTENTS
360
36F1
  0
DICTIONARY
  5
3031
330
3025
100
AcDbDictionary
280
     1
281
     1
  3
ACAD_SORTENTS
360
34CE
  0
DICTIONARY
  5
3453
330
3449
100
AcDbDictionary
280
     1
281
     1
  3
ACAD_SORTENTS
360
36B4
  0
DICTIONARY
  5
36DA
330
36CC
100
AcDbDictionary
280
     1
281
     1
  3
ACAD_SORTENTS
360
36DB
  0
DICTIONARY
  5
397F
330
3973
100
AcDbDictionary
280
     1
281
     1
  3
ACAD_SORTENTS
360
3980
  0
DICTIONARY
  5
398F
330
3983
100
AcDbDictionary
280
     1
281
     1
  3
ACAD_SORTENTS
360
3990
  0
DICTIONARY
  5
3A11
330
3A05
100
AcDbDictionary
280
     1
281
     1
  3
ACAD_SORTENTS
360
3A12
  0
DICTIONARY
  5
3BA1
330
3B95
100
AcDbDictionary
280
     1
281
     1
  3
ACAD_SORTENTS
360
3BA2
  0
DICTIONARY
  5
3BD6
330
3BCC
100
AcDbDictionary
280
     1
281
     1
  3
ACAD_SORTENTS
360
3BD7
  0
DICTIONARY
  5
3BF0
330
3BE4
100
AcDbDictionary
280
     1
281
     1
  3
ACAD_SORTENTS
360
3BF1
  0
DICTIONARY
  5
3750
330
374F
100
AcDbDictionary
280
     1
281
     1
  3
ACAD_MTEXT_RT
360
3C5E
  3
AcDbContextDataManager
360
3751
  0
DICTIONARY
  5
3C5F
330
3764
100
AcDbDictionary
280
     1
281
     1
  3
ACAD_MTEXT_RT
360
3C60
  0
DICTIONARY
  5
3C61
330
3909
100
AcDbDictionary
280
     1
281
     1
  3
ACAD_MTEXT_RT
360
3C62
  0
DICTIONARY
  5
3C63
330
3914
100
AcDbDictionary
280
     1
281
     1
  3
ACAD_MTEXT_RT
360
3C64
  0
DICTIONARY
  5
3C65
330
391F
100
AcDbDictionary
280
     1
281
     1
  3
ACAD_MTEXT_RT
360
3C66
  0
DICTIONARY
  5
3C2A
330
3C29
100
AcDbDictionary
280
     1
281
     1
  3
ACAD_MTEXT_2008_RT
360
3C2B
  0
DICTIONARY
  5
6B
102
{ACAD_REACTORS
330
C
102
}
330
C
100
AcDbDictionary
281
     1
  0
DICTIONARY
  5
D
102
{ACAD_REACTORS
330
C
102
}
330
C
100
AcDbDictionary
281
     1
  0
DICTIONARY
  5
1A
102
{ACAD_REACTORS
330
C
102
}
330
C
100
AcDbDictionary
281
     1
  3
Arkusz1
350
D3
  3
Arkusz2
350
D7
  3
Model
350
22
  0
DICTIONARY
  5
6A
102
{ACAD_REACTORS
330
C
102
}
330
C
100
AcDbDictionary
281
     1
  3
ByBlock
350
ED
  3
ByLayer
350
EC
  3
Global
350
EE
  0
DICTIONARY
  5
12D
102
{ACAD_REACTORS
330
C
102
}
330
C
100
AcDbDictionary
281
     1
  3
Standard
350
12E
  0
DICTIONARY
  5
17
102
{ACAD_REACTORS
330
C
102
}
330
C
100
AcDbDictionary
281
     1
  3
SOLBET_IZOLACJA
350
7E9
  3
Standard
350
18
  0
DICTIONARY
  5
19
102
{ACAD_REACTORS
330
C
102
}
330
C
100
AcDbDictionary
281
     1
  0
ACDBDICTIONARYWDFLT
  5
E
102
{ACAD_REACTORS
330
C
102
}
330
C
100
AcDbDictionary
281
     1
  3
Normal
350
F
100
AcDbDictionaryWithDefault
340
F
  0
DICTIONARY
  5
10C
102
{ACAD_REACTORS
330
C
102
}
330
C
100
AcDbDictionary
281
     1
  3
A0
350
10D
  3
A1
350
188
  3
A2
350
189
  3
A3
350
18A
  3
A4
350
18B
  3
A5
350
18C
  3
A6
350
18D
  3
A7
350
18E
  3
A8
350
18F
  3
A9
350
190
  3
B0
350
191
  3
B1
350
192
  3
B2
350
193
  3
B3
350
194
  3
B4
350
195
  3
B5
350
196
  3
B6
350
197
  3
B7
350
198
  3
B8
350
199
  3
B9
350
19A
  3
C0
350
19B
  3
C1
350
19C
  3
C2
350
19D
  3
C3
350
19E
  3
C4
350
19F
  3
C5
350
1A0
  3
C6
350
1A1
  3
C7
350
1A2
  3
C8
350
1A3
  3
C9
350
1A4
  3
D0
350
1A5
  3
D1
350
1A6
  3
D2
350
1A7
  0
DICTIONARY
  5
7E
102
{ACAD_REACTORS
330
C
102
}
330
C
100
AcDbDictionary
281
     1
  3
Standard
350
7F
  0
DICTIONARY
  5
EF
102
{ACAD_REACTORS
330
C
102
}
330
C
100
AcDbDictionary
281
     1
  3
2dWireframe
350
F5
  3
3D Hidden
350
F7
  3
3dWireframe
350
F6
  3
Basic
350
F4
  3
Brighten
350
FB
  3
ColorChange
350
FF
  3
Conceptual
350
F8
  3
Dim
350
FA
  3
Facepattern
350
FE
  3
Flat
350
F0
  3
FlatWithEdges
350
F1
  3
Gouraud
350
F2
  3
GouraudWithEdges
350
F3
  3
Linepattern
350
FD
  3
Realistic
350
F9
  3
Thicken
350
FC
  0
XRECORD
  5
15D
102
{ACAD_REACTORS
330
C
102
}
330
C
100
AcDbXrecord
280
     1
 90
        1
330
7F
330
374F
  0
DICTIONARY
  5
5E
102
{ACAD_REACTORS
330
C
102
}
330
C
100
AcDbDictionary
281
     1
  3
CANNOSCALE
350
146
  3
CMLEADERSTYLE
350
145
  3
CTABLESTYLE
350
84
  3
DIMASSOC
350
5F
  3
HIDETEXT
350
63
  3
INDEXCTL
350
466
  3
LIGHTINGUNITS
350
464
  3
MSLTSCALE
350
463
  3
PSOLHEIGHT
350
3C50
  3
PSOLWIDTH
350
3C4F
  3
SORTENTS
350
465
  0
DICTIONARY
  5
3ADE
102
{ACAD_REACTORS
330
C
102
}
330
C
100
AcDbDictionary
281
     1
  3
ASEBlockHierarchyIndexRecord
350
3AE0
1001
DCO15
1040
1644559887.402
  0
XRECORD
  5
3C51
102
{ACAD_REACTORS
330
C
102
}
330
C
100
AcDbXrecord
280
     1
  1
DWGPROPS COOKIE
  2

  3

  4

  6

  7

  8
Olus
  9

300
=
301
=
302
=
303
=
304
=
305
=
306
=
307
=
308
=
309
=
 40
0.6374412152777778
 41
2454690.075573148
 42
2454848.875945185
  1

 90
        0
  0
DICTIONARY
  5
2209
102
{ACAD_REACTORS
330
3E5
102
}
330
3E5
100
AcDbDictionary
281
     1
  0
DICTIONARY
  5
2208
102
{ACAD_REACTORS
330
3E5
102
}
330
3E5
100
AcDbDictionary
281
     1
1001
ACAD
1000
<All
  0
XRECORD
  5
3F4
102
{ACAD_REACTORS
330
13C
102
}
330
13C
100
AcDbXrecord
280
     1
290
     1
  0
XRECORD
  5
404
102
{ACAD_REACTORS
330
403
102
}
330
403
100
AcDbXrecord
280
     1
290
     1
  0
XRECORD
  5
406
102
{ACAD_REACTORS
330
405
102
}
330
405
100
AcDbXrecord
280
     1
290
     1
  0
XRECORD
  5
40A
102
{ACAD_REACTORS
330
409
102
}
330
409
100
AcDbXrecord
280
     1
290
     1
  0
XRECORD
  5
40C
102
{ACAD_REACTORS
330
40B
102
}
330
40B
100
AcDbXrecord
280
     1
290
     1
  0
XRECORD
  5
412
102
{ACAD_REACTORS
330
411
102
}
330
411
100
AcDbXrecord
280
     1
290
     1
  0
XRECORD
  5
3B59
102
{ACAD_REACTORS
330
3B58
102
}
330
3B58
100
AcDbXrecord
280
     1
 70
     1
340
10D
340
3DF
 70
    -1
  0
SORTENTSTABLE
  5
4A4
102
{ACAD_REACTORS
330
4A3
102
}
330
4A3
100
AcDbSortentsTable
330
1F
331
3A80
  5
3A80
331
38A3
  5
38A3
331
38E2
  5
38D8
331
3796
  5
3796
331
3743
  5
3743
331
38EA
  5
38C5
331
37ED
  5
37ED
331
3824
  5
3824
331
379E
  5
379E
331
374B
  5
374B
331
3A98
  5
3A98
331
38F2
  5
38BB
331
37F5
  5
37F5
331
382C
  5
382C
331
37B6
  5
37B6
331
37FD
  5
37FD
331
3724
  5
3724
331
3805
  5
3805
331
372C
  5
372C
331
385C
  5
385C
331
38D3
  5
38E3
331
380D
  5
380D
331
3734
  5
3734
331
3815
  5
3815
331
373C
  5
373C
331
38A4
  5
38A4
331
38E3
  5
38DE
331
3744
  5
3744
331
38EB
  5
38C6
331
3825
  5
3825
331
379F
  5
379F
331
374C
  5
374C
331
3A99
  5
3A99
331
38F3
  5
38BC
331
37F6
  5
37F6
331
382D
  5
382D
331
3754
  5
3754
331
37B7
  5
37B7
331
383D
  5
383D
331
37FE
  5
37FE
331
3770
  5
3770
331
3725
  5
3725
331
3913
  5
3914
331
3806
  5
3806
331
372D
  5
372D
331
385D
  5
385D
331
38D4
  5
38E4
331
380E
  5
380E
331
3788
  5
3788
331
3735
  5
3735
331
373D
  5
373D
331
38DC
  5
38D2
331
37DF
  5
37DF
331
3816
  5
3816
331
3745
  5
3745
331
38E4
  5
38C7
331
381E
  5
381E
331
374D
  5
374D
331
38EC
  5
38C1
331
3826
  5
3826
331
3755
  5
3755
331
38B5
  5
38F2
331
38F4
  5
38A6
331
37F7
  5
37F7
331
382E
  5
382E
331
37B8
  5
37B8
331
3ABA
  5
3ABA
331
3726
  5
3726
331
383E
  5
383E
331
37C8
  5
37C8
331
37FF
  5
37FF
331
3771
  5
3771
331
372E
  5
372E
331
3914
  5
3915
331
3807
  5
3807
331
3736
  5
3736
331
385E
  5
385E
331
380F
  5
380F
331
38D5
  5
38E5
331
3789
  5
3789
331
373E
  5
373E
331
38DD
  5
38D3
331
3817
  5
3817
331
37E0
  5
37E0
331
3746
  5
3746
331
38A6
  5
38B5
331
381F
  5
381F
331
38E5
  5
38C8
331
374E
  5
374E
331
38AE
  5
38CB
331
3827
  5
3827
331
38ED
  5
38C2
331
37A9
  5
37A9
331
3A9B
  5
3A9B
331
3756
  5
3756
331
38F5
  5
38A7
331
382F
  5
382F
331
37F8
  5
37F8
331
37B9
  5
37B9
331
3727
  5
3727
331
3800
  5
3800
331
3772
  5
3772
331
372F
  5
372F
331
3808
  5
3808
331
3737
  5
3737
331
3810
  5
3810
331
38D6
  5
38F0
331
391D
  5
38BA
331
378A
  5
378A
331
373F
  5
373F
331
38DE
  5
38D4
331
37E1
  5
37E1
331
3818
  5
3818
331
3747
  5
3747
331
38A7
  5
38B9
331
3820
  5
3820
331
38E6
  5
38C9
331
374F
  5
374F
331
38AF
  5
38D1
331
3828
  5
3828
331
38EE
  5
38BF
331
37AA
  5
37AA
331
3830
  5
3830
331
38F6
  5
38AE
331
3906
  5
3907
331
37F9
  5
37F9
331
37BA
  5
37BA
331
3763
  5
3763
331
3728
  5
3728
331
3848
  5
3848
331
3801
  5
3801
331
3730
  5
3730
331
38CF
  5
38DF
331
3809
  5
3809
331
3738
  5
3738
331
3811
  5
3811
331
391E
  5
391E
331
38DF
  5
38D5
331
3740
  5
3740
331
3819
  5
3819
331
3748
  5
3748
331
38E7
  5
38CA
331
3821
  5
3821
331
38EF
  5
38C0
331
3829
  5
3829
331
37AB
  5
37AB
331
3831
  5
3831
331
38F7
  5
38AF
331
3907
  5
3908
331
37FA
  5
37FA
331
3764
  5
3764
331
3729
  5
3729
331
3849
  5
3849
331
3802
  5
3802
331
3731
  5
3731
331
38D0
  5
38E0
331
37D3
  5
37D3
331
380A
  5
380A
331
377C
  5
377C
331
3739
  5
3739
331
3861
  5
3861
331
3812
  5
3812
331
391F
  5
391F
331
3741
  5
3741
331
38E0
  5
38D6
331
381A
  5
381A
331
3794
  5
3794
331
3749
  5
3749
331
38E8
  5
38C3
331
37EB
  5
37EB
331
3822
  5
3822
331
3A96
  5
3A96
331
38F0
  5
38BD
331
3832
  5
3832
331
3908
  5
3909
331
37FB
  5
37FB
331
3765
  5
3765
331
38C9
  5
38F1
331
372A
  5
372A
331
384A
  5
384A
331
3803
  5
3803
331
3732
  5
3732
331
38D1
  5
38E1
331
37D4
  5
37D4
331
380B
  5
380B
331
377D
  5
377D
331
373A
  5
373A
331
3813
  5
3813
331
3742
  5
3742
331
38E1
  5
38D7
331
3795
  5
3795
331
374A
  5
374A
331
38E9
  5
38C4
331
37EC
  5
37EC
331
3823
  5
3823
331
379D
  5
379D
331
37F4
  5
37F4
331
38F1
  5
38BE
331
37B5
  5
37B5
331
3AB7
  5
3AB7
331
3909
  5
390A
331
38BA
  5
3906
331
37FC
  5
37FC
331
3766
  5
3766
331
372B
  5
372B
331
384B
  5
384B
331
3804
  5
3804
331
3733
  5
3733
331
385B
  5
385B
331
37D5
  5
37D5
331
380C
  5
380C
331
38D2
  5
38E2
331
377E
  5
377E
331
373B
  5
373B
331
3814
  5
3814
  0
SORTENTSTABLE
  5
36F1
102
{ACAD_REACTORS
330
2FE3
102
}
330
2FE3
100
AcDbSortentsTable
330
2FD7
  0
SORTENTSTABLE
  5
34CE
102
{ACAD_REACTORS
330
3031
102
}
330
3031
100
AcDbSortentsTable
330
3025
  0
SORTENTSTABLE
  5
36B4
102
{ACAD_REACTORS
330
3453
102
}
330
3453
100
AcDbSortentsTable
330
3449
  0
SORTENTSTABLE
  5
36DB
102
{ACAD_REACTORS
330
36DA
102
}
330
36DA
100
AcDbSortentsTable
330
36CC
  0
SORTENTSTABLE
  5
3980
102
{ACAD_REACTORS
330
397F
102
}
330
397F
100
AcDbSortentsTable
330
3973
  0
SORTENTSTABLE
  5
3990
102
{ACAD_REACTORS
330
398F
102
}
330
398F
100
AcDbSortentsTable
330
3983
  0
SORTENTSTABLE
  5
3A12
102
{ACAD_REACTORS
330
3A11
102
}
330
3A11
100
AcDbSortentsTable
330
3A05
  0
SORTENTSTABLE
  5
3BA2
102
{ACAD_REACTORS
330
3BA1
102
}
330
3BA1
100
AcDbSortentsTable
330
3B95
  0
SORTENTSTABLE
  5
3BD7
102
{ACAD_REACTORS
330
3BD6
102
}
330
3BD6
100
AcDbSortentsTable
330
3BCC
  0
SORTENTSTABLE
  5
3BF1
102
{ACAD_REACTORS
330
3BF0
102
}
330
3BF0
100
AcDbSortentsTable
330
3BE4
  0
XRECORD
  5
3C5E
102
{ACAD_REACTORS
330
3750
102
}
330
3750
100
AcDbXrecord
280
     1
 40
449029.0
  1
{\LDETAL 52\P}Wzmocnienie ściany słupem żelbetowym\Pwykonanym w kształtkach U
  0
DICTIONARY
  5
3751
102
{ACAD_REACTORS
330
3750
102
}
330
3750
100
AcDbDictionary
281
     1
  3
ACDB_ANNOTATIONSCALES
350
3752
  0
XRECORD
  5
3C60
102
{ACAD_REACTORS
330
3C5F
102
}
330
3C5F
100
AcDbXrecord
280
     1
 40
267810.0
  1
Zbrojenie słupa wychodzące \Pz fundamentu (stropu lub wieńca)
  0
XRECORD
  5
3C62
102
{ACAD_REACTORS
330
3C61
102
}
330
3C61
100
AcDbXrecord
280
     1
 40
22127.0
  1
Kształtki U SOLBET
  0
XRECORD
  5
3C64
102
{ACAD_REACTORS
330
3C63
102
}
330
3C63
100
AcDbXrecord
280
     1
 40
18911.0
  1
Zbrojenie słupa
  0
XRECORD
  5
3C66
102
{ACAD_REACTORS
330
3C65
102
}
330
3C65
100
AcDbXrecord
280
     1
 40
112651.0
  1
Łączniki do ścian działowych
  0
XRECORD
  5
3C2B
102
{ACAD_REACTORS
330
3C2A
102
}
330
3C2A
100
AcDbXrecord
280
     1
 40
24748.0
  1
\pxqc;C\P(5 : 1)
  0
LAYOUT
  5
D3
102
{ACAD_XDICTIONARY
360
3C55
102
}
102
{ACAD_REACTORS
330
1A
102
}
330
1A
100
AcDbPlotSettings
  1

  2
C:\Documents and Settings\basas\Application Data\Autodesk\AutoCAD 2005\R16.1\enu\plotters\Default Windows System Printer.pc3
  4

  6

 40
0.0
 41
0.0
 42
0.0
 43
0.0
 44
0.0
 45
0.0
 46
0.0
 47
0.0
 48
0.0
 49
0.0
140
0.0
141
0.0
142
1.0
143
1.0
 70
   688
 72
     0
 73
     0
 74
     5
  7

 75
    16
147
1.0
148
0.0
149
0.0
100
AcDbLayout
  1
Arkusz1
 70
     1
 71
     1
 10
0.0
 20
0.0
 11
12.0
 21
9.0
 12
0.0
 22
0.0
 32
0.0
 14
0.0
 24
0.0
 34
0.0
 15
0.0
 25
0.0
 35
0.0
146
0.0
 13
0.0
 23
0.0
 33
0.0
 16
1.0
 26
0.0
 36
0.0
 17
0.0
 27
1.0
 37
0.0
 76
     0
330
D2
  0
LAYOUT
  5
D7
102
{ACAD_XDICTIONARY
360
3C57
102
}
102
{ACAD_REACTORS
330
1A
102
}
330
1A
100
AcDbPlotSettings
  1

  2
C:\Documents and Settings\basas\Application Data\Autodesk\AutoCAD 2005\R16.1\enu\plotters\Default Windows System Printer.pc3
  4

  6

 40
0.0
 41
0.0
 42
0.0
 43
0.0
 44
0.0
 45
0.0
 46
0.0
 47
0.0
 48
0.0
 49
0.0
140
0.0
141
0.0
142
1.0
143
1.0
 70
   688
 72
     0
 73
     0
 74
     5
  7

 75
    16
147
1.0
148
0.0
149
0.0
100
AcDbLayout
  1
Arkusz2
 70
     1
 71
     2
 10
0.0
 20
0.0
 11
12.0
 21
9.0
 12
0.0
 22
0.0
 32
0.0
 14
0.0
 24
0.0
 34
0.0
 15
0.0
 25
0.0
 35
0.0
146
0.0
 13
0.0
 23
0.0
 33
0.0
 16
1.0
 26
0.0
 36
0.0
 17
0.0
 27
1.0
 37
0.0
 76
     0
330
D6
  0
LAYOUT
  5
22
102
{ACAD_XDICTIONARY
360
3C52
102
}
102
{ACAD_REACTORS
330
1A
102
}
330
1A
100
AcDbPlotSettings
  1

  2
none_device
  4
Letter_(8.50_x_11.00_Inches)
  6

 40
6.349999904632568
 41
6.349999904632568
 42
6.350006103515625
 43
6.350006103515625
 44
215.8999938964844
 45
279.3999938964844
 46
11.54999923706054
 47
-13.65000009536743
 48
0.0
 49
0.0
140
210.0
141
297.0
142
1.0
143
1.0
 70
 11936
 72
     1
 73
     0
 74
     4
  7

 75
     0
147
0.9999999999999998
148
0.0
149
0.0
100
AcDbLayout
  1
Model
 70
     1
 71
     0
 10
0.0
 20
0.0
 11
12.0
 21
9.0
 12
0.0
 22
0.0
 32
0.0
 14
0.0
 24
0.0
 34
0.0
 15
0.0
 25
0.0
 35
0.0
146
0.0
 13
0.0
 23
0.0
 33
0.0
 16
1.0
 26
0.0
 36
0.0
 17
0.0
 27
1.0
 37
0.0
 76
     0
330
1F
331
EA
1001
ACAD_PSEXT
1000
Brak
1000
Brak
1000
Nie można zastosować.
1000
Arkusz nie zostanie wydrukowany dopóki nie wybrano konfiguracji plotera.
1070
     0
  0
MATERIAL
  5
ED
102
{ACAD_XDICTIONARY
360
3C5B
102
}
102
{ACAD_REACTORS
330
6A
102
}
330
6A
100
AcDbMaterial
  1
ByBlock
 73
     2
 78
     2
172
     2
176
     2
270
     2
274
     2
  0
MATERIAL
  5
EC
102
{ACAD_XDICTIONARY
360
3C59
102
}
102
{ACAD_REACTORS
330
6A
102
}
330
6A
100
AcDbMaterial
  1
ByLayer
 73
     2
 78
     2
172
     2
176
     2
270
     2
274
     2
  0
MATERIAL
  5
EE
102
{ACAD_XDICTIONARY
360
173
102
}
102
{ACAD_REACTORS
330
6A
102
}
330
6A
100
AcDbMaterial
  1
Global
 73
     2
 43
0.0007999999797903
 43
0.0
 43
0.0
 43
0.0
 43
0.0
 43
0.0007999999797903
 43
0.0
 43
0.0
 43
0.0
 43
0.0
 43
1.0
 43
0.0
 43
0.0
 43
0.0
 43
0.0
 43
1.0
 78
     2
172
     2
 49
0.0007999999797903
 49
0.0
 49
0.0
 49
0.0
 49
0.0
 49
0.0007999999797903
 49
0.0
 49
0.0
 49
0.0
 49
0.0
 49
1.0
 49
0.0
 49
0.0
 49
0.0
 49
0.0
 49
1.0
176
     2
142
0.0007999999797903
142
0.0
142
0.0
142
0.0
142
0.0
142
0.0007999999797903
142
0.0
142
0.0
142
0.0
142
0.0
142
1.0
142
0.0
142
0.0
142
0.0
142
0.0
142
1.0
270
     2
144
0.0007999999797903
144
0.0
144
0.0
144
0.0
144
0.0
144
0.0007999999797903
144
0.0
144
0.0
144
0.0
144
0.0
144
1.0
144
0.0
144
0.0
144
0.0
144
0.0
144
1.0
274
     2
1001
ACAD
1070
    -1
1070
     3
1070
     0
1000

1071
        0
1070
     0
  0
ACAD_PROXY_OBJECT
  5
12E
102
{ACAD_REACTORS
330
12D
102
}
330
12D
100
AcDbProxyObject
 90
      499
 91
      508
 95
       23
 70
     0
 93
      618
310
40901902A4063FBFFFFFE0000000000000020400000000000020404254DD185B99185C99000000000000000104090140501A0000000000000410000000000000004102576400000000000003903F
340
14
340
0
340
11
340
0
 94
        0
1001
ACAD_MLEADERVER
1070
     2
1001
ACAD
1000
AcRTDxfName
1000
MLEADERSTYLE
1000
AcRTDxfName
1000
MLEADERSTYLE
  0
MLINESTYLE
  5
7E9
102
{ACAD_REACTORS
330
17
102
}
330
17
100
AcDbMlineStyle
  2
SOLBET_IZOLACJA
 70
   272
  3

 62
   256
 51
90.0
 52
90.0
 71
     2
 49
0.008
 62
   256
  6
BYLAYER
 49
-0.008
 62
   256
  6
BYLAYER
  0
MLINESTYLE
  5
18
102
{ACAD_REACTORS
330
17
102
}
330
17
100
AcDbMlineStyle
  2
STANDARD
 70
     0
  3

 62
   256
 51
90.0
 52
90.0
 71
     2
 49
0.5
 62
   256
  6
BYLAYER
 49
-0.5
 62
   256
  6
BYLAYER
  0
ACDBPLACEHOLDER
  5
F
102
{ACAD_REACTORS
330
E
102
}
330
E
  0
ACAD_PROXY_OBJECT
  5
10D
102
{ACAD_REACTORS
330
10C
102
}
330
10C
100
AcDbProxyObject
 90
      499
 91
      507
 95
       23
 70
     0
 93
       49
310
904313A31005FF
 94
        0
1001
ACAD
1000
AcRTDxfName
1000
SCALE
1000
AcRTDxfName
1000
SCALE
  0
ACAD_PROXY_OBJECT
  5
188
102
{ACAD_REACTORS
330
10C
102
}
330
10C
100
AcDbProxyObject
 90
      499
 91
      507
 95
       23
 70
     0
 93
      113
310
904313A3200400000000000000407F
 94
        0
1001
ACAD
1000
AcRTDxfName
1000
SCALE
1000
AcRTDxfName
1000
SCALE
  0
ACAD_PROXY_OBJECT
  5
189
102
{ACAD_REACTORS
330
10C
102
}
330
10C
100
AcDbProxyObject
 90
      499
 91
      507
 95
       23
 70
     0
 93
      113
310
904313A3400400000000000010407F
 94
        0
1001
ACAD
1000
AcRTDxfName
1000
SCALE
1000
AcRTDxfName
1000
SCALE
  0
ACAD_PROXY_OBJECT
  5
18A
102
{ACAD_REACTORS
330
10C
102
}
330
10C
100
AcDbProxyObject
 90
      499
 91
      507
 95
       23
 70
     0
 93
      113
310
904313A3500400000000000014407F
 94
        0
1001
ACAD
1000
AcRTDxfName
1000
SCALE
1000
AcRTDxfName
1000
SCALE
  0
ACAD_PROXY_OBJECT
  5
18B
102
{ACAD_REACTORS
330
10C
102
}
330
10C
100
AcDbProxyObject
 90
      499
 91
      507
 95
       23
 70
     0
 93
      113
310
904313A3800400000000000020407F
 94
        0
1001
ACAD
1000
AcRTDxfName
1000
SCALE
1000
AcRTDxfName
1000
SCALE
  0
ACAD_PROXY_OBJECT
  5
18C
102
{ACAD_REACTORS
330
10C
102
}
330
10C
100
AcDbProxyObject
 90
      499
 91
      507
 95
       23
 70
     0
 93
      121
310
905313A313000400000000000024407F
 94
        0
1001
ACAD
1000
AcRTDxfName
1000
SCALE
1000
AcRTDxfName
1000
SCALE
  0
ACAD_PROXY_OBJECT
  5
18D
102
{ACAD_REACTORS
330
10C
102
}
330
10C
100
AcDbProxyObject
 90
      499
 91
      507
 95
       23
 70
     0
 93
      121
310
905313A313600400000000000030407F
 94
        0
1001
ACAD
1000
AcRTDxfName
1000
SCALE
1000
AcRTDxfName
1000
SCALE
  0
ACAD_PROXY_OBJECT
  5
18E
102
{ACAD_REACTORS
330
10C
102
}
330
10C
100
AcDbProxyObject
 90
      499
 91
      507
 95
       23
 70
     0
 93
      121
310
905313A323000400000000000034407F
 94
        0
1001
ACAD
1000
AcRTDxfName
1000
SCALE
1000
AcRTDxfName
1000
SCALE
  0
ACAD_PROXY_OBJECT
  5
18F
102
{ACAD_REACTORS
330
10C
102
}
330
10C
100
AcDbProxyObject
 90
      499
 91
      507
 95
       23
 70
     0
 93
      121
310
905313A33300040000000000003E407F
 94
        0
1001
ACAD
1000
AcRTDxfName
1000
SCALE
1000
AcRTDxfName
1000
SCALE
  0
ACAD_PROXY_OBJECT
  5
190
102
{ACAD_REACTORS
330
10C
102
}
330
10C
100
AcDbProxyObject
 90
      499
 91
      507
 95
       23
 70
     0
 93
      121
310
905313A343000400000000000044407F
 94
        0
1001
ACAD
1000
AcRTDxfName
1000
SCALE
1000
AcRTDxfName
1000
SCALE
  0
ACAD_PROXY_OBJECT
  5
191
102
{ACAD_REACTORS
330
10C
102
}
330
10C
100
AcDbProxyObject
 90
      499
 91
      507
 95
       23
 70
     0
 93
      121
310
905313A353000400000000000049407F
 94
        0
1001
ACAD
1000
AcRTDxfName
1000
SCALE
1000
AcRTDxfName
1000
SCALE
  0
ACAD_PROXY_OBJECT
  5
192
102
{ACAD_REACTORS
330
10C
102
}
330
10C
100
AcDbProxyObject
 90
      499
 91
      507
 95
       23
 70
     0
 93
      129
310
906313A31303000400000000000059407F
 94
        0
1001
ACAD
1000
AcRTDxfName
1000
SCALE
1000
AcRTDxfName
1000
SCALE
  0
ACAD_PROXY_OBJECT
  5
193
102
{ACAD_REACTORS
330
10C
102
}
330
10C
100
AcDbProxyObject
 90
      499
 91
      507
 95
       23
 70
     0
 93
      113
310
904323A3100000000000000001017F
 94
        0
1001
ACAD
1000
AcRTDxfName
1000
SCALE
1000
AcRTDxfName
1000
SCALE
  0
ACAD_PROXY_OBJECT
  5
194
102
{ACAD_REACTORS
330
10C
102
}
330
10C
100
AcDbProxyObject
 90
      499
 91
      507
 95
       23
 70
     0
 93
      113
310
904343A3100000000000000041017F
 94
        0
1001
ACAD
1000
AcRTDxfName
1000
SCALE
1000
AcRTDxfName
1000
SCALE
  0
ACAD_PROXY_OBJECT
  5
195
102
{ACAD_REACTORS
330
10C
102
}
330
10C
100
AcDbProxyObject
 90
      499
 91
      507
 95
       23
 70
     0
 93
      113
310
904383A3100000000000000081017F
 94
        0
1001
ACAD
1000
AcRTDxfName
1000
SCALE
1000
AcRTDxfName
1000
SCALE
  0
ACAD_PROXY_OBJECT
  5
196
102
{ACAD_REACTORS
330
10C
102
}
330
10C
100
AcDbProxyObject
 90
      499
 91
      507
 95
       23
 70
     0
 93
      121
310
90531303A3100000000000000091017F
 94
        0
1001
ACAD
1000
AcRTDxfName
1000
SCALE
1000
AcRTDxfName
1000
SCALE
  0
ACAD_PROXY_OBJECT
  5
197
102
{ACAD_REACTORS
330
10C
102
}
330
10C
100
AcDbProxyObject
 90
      499
 91
      507
 95
       23
 70
     0
 93
      129
310
9063130303A3100000000000000165017F
 94
        0
1001
ACAD
1000
AcRTDxfName
1000
SCALE
1000
AcRTDxfName
1000
SCALE
  0
ACAD_PROXY_OBJECT
  5
198
102
{ACAD_REACTORS
330
10C
102
}
330
10C
100
AcDbProxyObject
 90
      499
 91
      507
 95
       23
 70
     0
 93
      265
310
90F312F31323822203D2031272D302200000000000000200FC00000000000028407F
 94
        0
1001
ACAD
1000
AcRTDxfName
1000
SCALE
1000
AcRTDxfName
1000
SCALE
  0
ACAD_PROXY_OBJECT
  5
199
102
{ACAD_REACTORS
330
10C
102
}
330
10C
100
AcDbProxyObject
 90
      499
 91
      507
 95
       23
 70
     0
 93
      257
310
90E312F363422203D2031272D302200000000000000240FC00000000000028407F
 94
        0
1001
ACAD
1000
AcRTDxfName
1000
SCALE
1000
AcRTDxfName
1000
SCALE
  0
ACAD_PROXY_OBJECT
  5
19A
102
{ACAD_REACTORS
330
10C
102
}
330
10C
100
AcDbProxyObject
 90
      499
 91
      507
 95
       23
 70
     0
 93
      257
310
90E312F333222203D2031272D302200000000000000280FC00000000000028407F
 94
        0
1001
ACAD
1000
AcRTDxfName
1000
SCALE
1000
AcRTDxfName
1000
SCALE
  0
ACAD_PROXY_OBJECT
  5
19B
102
{ACAD_REACTORS
330
10C
102
}
330
10C
100
AcDbProxyObject
 90
      499
 91
      507
 95
       23
 70
     0
 93
      257
310
90E312F313622203D2031272D3022000000000000002C0FC00000000000028407F
 94
        0
1001
ACAD
1000
AcRTDxfName
1000
SCALE
1000
AcRTDxfName
1000
SCALE
  0
ACAD_PROXY_OBJECT
  5
19C
102
{ACAD_REACTORS
330
10C
102
}
330
10C
100
AcDbProxyObject
 90
      499
 91
      507
 95
       23
 70
     0
 93
      257
310
90E332F333222203D2031272D3022000000000000002E0FC00000000000028407F
 94
        0
1001
ACAD
1000
AcRTDxfName
1000
SCALE
1000
AcRTDxfName
1000
SCALE
  0
ACAD_PROXY_OBJECT
  5
19D
102
{ACAD_REACTORS
330
10C
102
}
330
10C
100
AcDbProxyObject
 90
      499
 91
      507
 95
       23
 70
     0
 93
      249
310
90D312F3822203D2031272D302200000000000000300FC00000000000028407F
 94
        0
1001
ACAD
1000
AcRTDxfName
1000
SCALE
1000
AcRTDxfName
1000
SCALE
  0
ACAD_PROXY_OBJECT
  5
19E
102
{ACAD_REACTORS
330
10C
102
}
330
10C
100
AcDbProxyObject
 90
      499
 91
      507
 95
       23
 70
     0
 93
      257
310
90E332F313622203D2031272D302200000000000000320FC00000000000028407F
 94
        0
1001
ACAD
1000
AcRTDxfName
1000
SCALE
1000
AcRTDxfName
1000
SCALE
  0
ACAD_PROXY_OBJECT
  5
19F
102
{ACAD_REACTORS
330
10C
102
}
330
10C
100
AcDbProxyObject
 90
      499
 91
      507
 95
       23
 70
     0
 93
      249
310
90D312F3422203D2031272D302200000000000000340FC00000000000028407F
 94
        0
1001
ACAD
1000
AcRTDxfName
1000
SCALE
1000
AcRTDxfName
1000
SCALE
  0
ACAD_PROXY_OBJECT
  5
1A0
102
{ACAD_REACTORS
330
10C
102
}
330
10C
100
AcDbProxyObject
 90
      499
 91
      507
 95
       23
 70
     0
 93
      249
310
90D332F3822203D2031272D302200000000000000360FC00000000000028407F
 94
        0
1001
ACAD
1000
AcRTDxfName
1000
SCALE
1000
AcRTDxfName
1000
SCALE
  0
ACAD_PROXY_OBJECT
  5
1A1
102
{ACAD_REACTORS
330
10C
102
}
330
10C
100
AcDbProxyObject
 90
      499
 91
      507
 95
       23
 70
     0
 93
      249
310
90D312F3222203D2031272D302200000000000000380FC00000000000028407F
 94
        0
1001
ACAD
1000
AcRTDxfName
1000
SCALE
1000
AcRTDxfName
1000
SCALE
  0
ACAD_PROXY_OBJECT
  5
1A2
102
{ACAD_REACTORS
330
10C
102
}
330
10C
100
AcDbProxyObject
 90
      499
 91
      507
 95
       23
 70
     0
 93
      249
310
90D332F3422203D2031272D3022000000000000003A0FC00000000000028407F
 94
        0
1001
ACAD
1000
AcRTDxfName
1000
SCALE
1000
AcRTDxfName
1000
SCALE
  0
ACAD_PROXY_OBJECT
  5
1A3
102
{ACAD_REACTORS
330
10C
102
}
330
10C
100
AcDbProxyObject
 90
      499
 91
      507
 95
       23
 70
     0
 93
      169
310
90B3122203D2031272D302200400000000000028407F
 94
        0
1001
ACAD
1000
AcRTDxfName
1000
SCALE
1000
AcRTDxfName
1000
SCALE
  0
ACAD_PROXY_OBJECT
  5
1A4
102
{ACAD_REACTORS
330
10C
102
}
330
10C
100
AcDbProxyObject
 90
      499
 91
      507
 95
       23
 70
     0
 93
      265
310
90F312D312F3222203D2031272D3022000000000000003E0FC00000000000028407F
 94
        0
1001
ACAD
1000
AcRTDxfName
1000
SCALE
1000
AcRTDxfName
1000
SCALE
  0
ACAD_PROXY_OBJECT
  5
1A5
102
{ACAD_REACTORS
330
10C
102
}
330
10C
100
AcDbProxyObject
 90
      499
 91
      507
 95
       23
 70
     0
 93
      233
310
90B3322203D2031272D3022000000000000000210000000000000028407F
 94
        0
1001
ACAD
1000
AcRTDxfName
1000
SCALE
1000
AcRTDxfName
1000
SCALE
  0
ACAD_PROXY_OBJECT
  5
1A6
102
{ACAD_REACTORS
330
10C
102
}
330
10C
100
AcDbProxyObject
 90
      499
 91
      507
 95
       23
 70
     0
 93
      233
310
90B3622203D2031272D3022000000000000000610000000000000028407F
 94
        0
1001
ACAD
1000
AcRTDxfName
1000
SCALE
1000
AcRTDxfName
1000
SCALE
  0
ACAD_PROXY_OBJECT
  5
1A7
102
{ACAD_REACTORS
330
10C
102
}
330
10C
100
AcDbProxyObject
 90
      499
 91
      507
 95
       23
 70
     0
 93
      257
310
90E31272D3022203D2031272D3022000000000000000A10000000000000028407F
 94
        0
1001
ACAD
1000
AcRTDxfName
1000
SCALE
1000
AcRTDxfName
1000
SCALE
  0
TABLESTYLE
  5
7F
102
{ACAD_XDICTIONARY
360
162
102
}
102
{ACAD_REACTORS
330
7E
102
}
330
7E
100
AcDbTableStyle
  3
Standard
 70
     0
 71
     0
 40
1.5
 41
1.5
280
     0
281
     0
  7
Standard
140
4.5
170
     2
 62
     0
 63
     7
283
     0
274
    -2
284
     1
 64
     0
275
    -2
285
     1
 65
     0
276
    -2
286
     1
 66
     0
277
    -2
287
     1
 67
     0
278
    -2
288
     1
 68
     0
279
    -2
289
     1
 69
     0
  7
Standard
140
6.0
170
     5
 62
     0
 63
     7
283
     0
274
    -2
284
     1
 64
     0
275
    -2
285
     1
 65
     0
276
    -2
286
     1
 66
     0
277
    -2
287
     1
 67
     0
278
    -2
288
     1
 68
     0
279
    -2
289
     1
 69
     0
  7
Standard
140
4.5
170
     5
 62
     0
 63
     7
283
     0
274
    -2
284
     1
 64
     0
275
    -2
285
     1
 65
     0
276
    -2
286
     1
 66
     0
277
    -2
287
     1
 67
     0
278
    -2
288
     1
 68
     0
279
    -2
289
     1
 69
     0
  0
VISUALSTYLE
  5
F5
102
{ACAD_REACTORS
330
EF
102
}
330
EF
100
AcDbVisualStyle
  2
2dWireframe
 70
     4
 71
     0
 72
     2
 73
     1
 90
        0
 40
-0.6
 41
-30.0
 62
     5
 63
     7
 74
     1
 91
        4
 64
     7
 65
   257
 75
     1
175
     1
 42
1.0
 92
        0
 66
   257
 43
1.0
 76
     1
 77
     6
 78
     2
 67
     7
 79
     5
170
     0
171
     0
290
     0
174
     0
 93
        1
 44
0.0
173
     0
291
     0
 45
0.0
1001
ACAD
1000
AcDbSavedByObjectVersion
1070
     0
  0
VISUALSTYLE
  5
F7
102
{ACAD_REACTORS
330
EF
102
}
330
EF
100
AcDbVisualStyle
  2
3D Hidden
 70
     6
 71
     1
 72
     2
 73
     2
 90
        0
 40
-0.6
 41
-30.0
 62
     5
 63
     7
 74
     2
 91
        2
 64
     7
 65
   257
 75
     2
175
     1
 42
40.0
 92
        0
 66
   257
 43
1.0
 76
     1
 77
     6
 78
     2
 67
     7
 79
     3
170
     0
171
     0
290
     0
174
     0
 93
        1
 44
0.0
173
     0
291
     0
 45
0.0
1001
ACAD
1000
AcDbSavedByObjectVersion
1070
     0
  0
VISUALSTYLE
  5
F6
102
{ACAD_REACTORS
330
EF
102
}
330
EF
100
AcDbVisualStyle
  2
3dWireframe
 70
     5
 71
     0
 72
     2
 73
     1
 90
        0
 40
-0.6
 41
-30.0
 62
     5
 63
     7
 74
     1
 91
        4
 64
     7
 65
   257
 75
     1
175
     1
 42
1.0
 92
        0
 66
   257
 43
1.0
 76
     1
 77
     6
 78
     2
 67
     7
 79
     5
170
     0
171
     0
290
     0
174
     0
 93
        1
 44
0.0
173
     0
291
     0
 45
0.0
1001
ACAD
1000
AcDbSavedByObjectVersion
1070
     0
  0
VISUALSTYLE
  5
F4
102
{ACAD_REACTORS
330
EF
102
}
330
EF
100
AcDbVisualStyle
  2
Basic
 70
     7
 71
     1
 72
     0
 73
     1
 90
        0
 40
-0.6
 41
-30.0
 62
     5
 63
     7
 74
     0
 91
        4
 64
     7
 65
   257
 75
     1
175
     1
 42
1.0
 92
        8
 66
     7
 43
1.0
 76
     1
 77
     6
 78
     2
 67
     7
 79
     5
170
     0
171
     0
290
     0
174
     0
 93
        1
 44
0.0
173
     0
291
     1
 45
0.0
1001
ACAD
1000
AcDbSavedByObjectVersion
1070
     0
  0
VISUALSTYLE
  5
FB
102
{ACAD_REACTORS
330
EF
102
}
330
EF
100
AcDbVisualStyle
  2
Brighten
 70
    12
 71
     2
 72
     2
 73
     1
 90
        0
 40
-0.6
 41
-30.0
 62
     5
 63
     7
 74
     1
 91
        4
 64
     7
 65
   257
 75
     1
175
     1
 42
1.0
 92
        8
 66
     7
 43
1.0
 76
     1
 77
     6
 78
     2
 67
     7
 79
     5
170
     0
171
     0
290
     0
174
     0
 93
        1
 44
50.0
173
     0
291
     1
 45
0.0
1001
ACAD
1000
AcDbSavedByObjectVersion
1070
     0
  0
VISUALSTYLE
  5
FF
102
{ACAD_REACTORS
330
EF
102
}
330
EF
100
AcDbVisualStyle
  2
ColorChange
 70
    16
 71
     2
 72
     2
 73
     3
 90
        0
 40
-0.6
 41
-30.0
 62
     5
 63
     8
 74
     1
 91
        4
 64
     7
 65
   257
 75
     1
175
     1
 42
1.0
 92
        8
 66
     8
 43
1.0
 76
     1
 77
     6
 78
     2
 67
     7
 79
     5
170
     0
171
     0
290
     0
174
     0
 93
        1
 44
0.0
173
     0
291
     1
 45
0.0
1001
ACAD
1000
AcDbSavedByObjectVersion
1070
     0
  0
VISUALSTYLE
  5
F8
102
{ACAD_REACTORS
330
EF
102
}
330
EF
100
AcDbVisualStyle
  2
Conceptual
 70
     9
 71
     3
 72
     2
 73
     1
 90
        0
 40
-0.6
 41
-30.0
 62
     5
 63
     7
 74
     2
 91
        2
 64
     7
 65
   257
 75
     1
175
     1
 42
40.0
 92
        8
 66
     7
 43
1.0
 76
     1
 77
     6
 78
     2
 67
     7
 79
     3
170
     0
171
     0
290
     0
174
     0
 93
        1
 44
0.0
173
     0
291
     0
 45
0.0
1001
ACAD
1000
AcDbSavedByObjectVersion
1070
     0
  0
VISUALSTYLE
  5
FA
102
{ACAD_REACTORS
330
EF
102
}
330
EF
100
AcDbVisualStyle
  2
Dim
 70
    11
 71
     2
 72
     2
 73
     1
 90
        0
 40
-0.6
 41
-30.0
 62
     5
 63
     7
 74
     1
 91
        4
 64
     7
 65
   257
 75
     1
175
     1
 42
1.0
 92
        8
 66
     7
 43
1.0
 76
     1
 77
     6
 78
     2
 67
     7
 79
     5
170
     0
171
     0
290
     0
174
     0
 93
        1
 44
-50.0
173
     0
291
     1
 45
0.0
1001
ACAD
1000
AcDbSavedByObjectVersion
1070
     0
  0
VISUALSTYLE
  5
FE
102
{ACAD_REACTORS
330
EF
102
}
330
EF
100
AcDbVisualStyle
  2
Facepattern
 70
    15
 71
     2
 72
     2
 73
     1
 90
        0
 40
-0.6
 41
-30.0
 62
     5
 63
     7
 74
     1
 91
        4
 64
     7
 65
   257
 75
     1
175
     1
 42
1.0
 92
        8
 66
     7
 43
1.0
 76
     1
 77
     6
 78
     2
 67
     7
 79
     5
170
     0
171
     0
290
     0
174
     0
 93
        1
 44
0.0
173
     0
291
     1
 45
0.0
1001
ACAD
1000
AcDbSavedByObjectVersion
1070
     0
  0
VISUALSTYLE
  5
F0
102
{ACAD_REACTORS
330
EF
102
}
330
EF
100
AcDbVisualStyle
  2
Flat
 70
     0
 71
     2
 72
     1
 73
     1
 90
        2
 40
-0.6
 41
30.0
 62
     5
 63
     7
 74
     0
 91
        4
 64
     7
 65
   257
 75
     1
175
     1
 42
1.0
 92
        8
 66
     7
 43
1.0
 76
     1
 77
     6
 78
     2
 67
     7
 79
     5
170
     0
171
     0
290
     0
174
     0
 93
        1
 44
0.0
173
     0
291
     1
 45
0.0
1001
ACAD
1000
AcDbSavedByObjectVersion
1070
     0
  0
VISUALSTYLE
  5
F1
102
{ACAD_REACTORS
330
EF
102
}
330
EF
100
AcDbVisualStyle
  2
FlatWithEdges
 70
     1
 71
     2
 72
     1
 73
     1
 90
        2
 40
-0.6
 41
30.0
 62
     5
 63
     7
 74
     1
 91
        4
 64
     7
 65
   257
 75
     1
175
     1
 42
1.0
 92
        0
 66
   257
 43
1.0
 76
     1
 77
     6
 78
     2
 67
     7
 79
     5
170
     0
171
     0
290
     0
174
     0
 93
        1
 44
0.0
173
     0
291
     1
 45
0.0
1001
ACAD
1000
AcDbSavedByObjectVersion
1070
     0
  0
VISUALSTYLE
  5
F2
102
{ACAD_REACTORS
330
EF
102
}
330
EF
100
AcDbVisualStyle
  2
Gouraud
 70
     2
 71
     2
 72
     2
 73
     1
 90
        2
 40
-0.6
 41
30.0
 62
     5
 63
     7
 74
     0
 91
        4
 64
     7
 65
   257
 75
     1
175
     1
 42
1.0
 92
        0
 66
     7
 43
1.0
 76
     1
 77
     6
 78
     2
 67
     7
 79
     5
170
     0
171
     0
290
     0
174
     0
 93
        1
 44
0.0
173
     0
291
     1
 45
0.0
1001
ACAD
1000
AcDbSavedByObjectVersion
1070
     0
  0
VISUALSTYLE
  5
F3
102
{ACAD_REACTORS
330
EF
102
}
330
EF
100
AcDbVisualStyle
  2
GouraudWithEdges
 70
     3
 71
     2
 72
     2
 73
     1
 90
        2
 40
-0.6
 41
30.0
 62
     5
 63
     7
 74
     1
 91
        4
 64
     7
 65
   257
 75
     1
175
     1
 42
1.0
 92
        0
 66
   257
 43
1.0
 76
     1
 77
     6
 78
     2
 67
     7
 79
     5
170
     0
171
     0
290
     0
174
     0
 93
        1
 44
0.0
173
     0
291
     1
 45
0.0
1001
ACAD
1000
AcDbSavedByObjectVersion
1070
     0
  0
VISUALSTYLE
  5
FD
102
{ACAD_REACTORS
330
EF
102
}
330
EF
100
AcDbVisualStyle
  2
Linepattern
 70
    14
 71
     2
 72
     2
 73
     1
 90
        0
 40
-0.6
 41
-30.0
 62
     5
 63
     7
 74
     1
 91
        4
 64
     7
 65
   257
 75
     7
175
     7
 42
1.0
 92
        8
 66
     7
 43
1.0
 76
     1
 77
     6
 78
     2
 67
     7
 79
     5
170
     0
171
     0
290
     0
174
     0
 93
        1
 44
0.0
173
     0
291
     1
 45
0.0
1001
ACAD
1000
AcDbSavedByObjectVersion
1070
     0
  0
VISUALSTYLE
  5
F9
102
{ACAD_REACTORS
330
EF
102
}
330
EF
100
AcDbVisualStyle
  2
Realistic
 70
     8
 71
     2
 72
     2
 73
     1
 90
        0
 40
-0.6
 41
-30.0
 62
     5
 63
     7
 74
     1
 91
        0
 64
     7
 65
   257
 75
     1
175
     1
 42
1.0
 92
        8
 66
     8
 43
1.0
 76
     1
 77
     6
 78
     2
 67
     7
 79
     5
170
     0
171
     0
290
     0
174
     0
 93
       13
 44
0.0
173
     0
291
     0
 45
0.0
1001
ACAD
1000
AcDbSavedByObjectVersion
1070
     0
  0
VISUALSTYLE
  5
FC
102
{ACAD_REACTORS
330
EF
102
}
330
EF
100
AcDbVisualStyle
  2
Thicken
 70
    13
 71
     2
 72
     2
 73
     1
 90
        0
 40
-0.6
 41
-30.0
 62
     5
 63
     7
 74
     1
 91
        4
 64
     7
 65
   257
 75
     1
175
     1
 42
1.0
 92
       12
 66
     7
 43
1.0
 76
     1
 77
     6
 78
     2
 67
     7
 79
     5
170
     0
171
     0
290
     0
174
     0
 93
        1
 44
0.0
173
     0
291
     1
 45
0.0
1001
ACAD
1000
AcDbSavedByObjectVersion
1070
     0
  0
DICTIONARYVAR
  5
146
102
{ACAD_REACTORS
330
5E
102
}
330
5E
100
DictionaryVariables
280
     0
  1
1:1
  0
DICTIONARYVAR
  5
145
102
{ACAD_REACTORS
330
5E
102
}
330
5E
100
DictionaryVariables
280
     0
  1
STANDARD
  0
DICTIONARYVAR
  5
84
102
{ACAD_REACTORS
330
5E
102
}
330
5E
100
DictionaryVariables
280
     0
  1
STANDARD
  0
DICTIONARYVAR
  5
5F
102
{ACAD_REACTORS
330
5E
102
}
330
5E
100
DictionaryVariables
280
     0
  1
2
  0
DICTIONARYVAR
  5
63
102
{ACAD_REACTORS
330
5E
102
}
330
5E
100
DictionaryVariables
280
     0
  1
1
  0
DICTIONARYVAR
  5
466
102
{ACAD_REACTORS
330
5E
102
}
330
5E
100
DictionaryVariables
280
     0
  1
0
  0
DICTIONARYVAR
  5
464
102
{ACAD_REACTORS
330
5E
102
}
330
5E
100
DictionaryVariables
280
     0
  1
2
  0
DICTIONARYVAR
  5
463
102
{ACAD_REACTORS
330
5E
102
}
330
5E
100
DictionaryVariables
280
     0
  1
1
  0
DICTIONARYVAR
  5
3C50
102
{ACAD_REACTORS
330
5E
102
}
330
5E
100
DictionaryVariables
280
     0
  1
80.000000
  0
DICTIONARYVAR
  5
3C4F
102
{ACAD_REACTORS
330
5E
102
}
330
5E
100
DictionaryVariables
280
     0
  1
5.000000
  0
DICTIONARYVAR
  5
465
102
{ACAD_REACTORS
330
5E
102
}
330
5E
100
DictionaryVariables
280
     0
  1
127
  0
XRECORD
  5
3AE0
102
{ACAD_REACTORS
330
3ADE
102
}
330
3ADE
100
AcDbXrecord
280
     1
330
3765
330
0
330
0
330
0
330
0
330
0
330
0
330
0
330
0
330
0
330
0
330
383D
330
383E
330
0
330
0
330
0
330
0
330
0
330
0
330
0
330
0
330
0
330
0
330
0
330
0
330
0
330
0
330
0
330
0
330
0
330
0
330
0
330
0
330
0
330
0
330
0
330
0
330
0
330
0
330
0
330
0
330
0
330
0
330
0
330
0
330
0
330
0
330
0
330
0
330
0
330
0
330
0
  0
DICTIONARY
  5
3752
102
{ACAD_REACTORS
330
3751
102
}
330
3751
100
AcDbDictionary
281
     1
  0
DICTIONARY
  5
3C55
330
D3
100
AcDbDictionary
280
     1
281
     1
  3
ACAD_XREC_ROUNDTRIP
360
3C56
  0
DICTIONARY
  5
3C57
330
D7
100
AcDbDictionary
280
     1
281
     1
  3
ACAD_XREC_ROUNDTRIP
360
3C58
  0
DICTIONARY
  5
3C52
330
22
100
AcDbDictionary
280
     1
281
     1
  3
ACAD_XREC_ROUNDTRIP
360
3C53
  0
DICTIONARY
  5
3C5B
330
ED
100
AcDbDictionary
280
     1
281
     1
  3
ACAD_XREC_ROUNDTRIP
360
3C5C
  0
DICTIONARY
  5
3C59
330
EC
100
AcDbDictionary
280
     1
281
     1
  3
ACAD_XREC_ROUNDTRIP
360
3C5A
  0
DICTIONARY
  5
173
330
EE
100
AcDbDictionary
280
     1
281
     1
  3
ACAD_XREC_ROUNDTRIP
360
3C5D
  3
BUMPTILE
360
175
  3
DIFFUSETILE
360
174
  3
OPACITYTILE
360
176
  3
REFLECTIONTILE
360
177
  0
DICTIONARY
  5
162
330
7F
100
AcDbDictionary
280
     1
281
     1
  3
ACAD_ROUNDTRIP_2008_TABLESTYLE_CELLSTYLEMAP
360
3B56
  3
ACAD_XREC_ROUNDTRIP
360
3C54
  0
XRECORD
  5
3C56
102
{ACAD_REACTORS
330
3C55
102
}
330
3C55
100
AcDbXrecord
280
     1
102
SHADEPLOT
 70
     0
102
SHADEPLOTRESLEVEL
 70
     2
102
SHADEPLOTCUSTOMDPI
 70
   300
  0
XRECORD
  5
3C58
102
{ACAD_REACTORS
330
3C57
102
}
330
3C57
100
AcDbXrecord
280
     1
102
SHADEPLOT
 70
     0
102
SHADEPLOTRESLEVEL
 70
     2
102
SHADEPLOTCUSTOMDPI
 70
   300
  0
XRECORD
  5
3C53
102
{ACAD_REACTORS
330
3C52
102
}
330
3C52
100
AcDbXrecord
280
     1
102
SHADEPLOT
 70
     0
102
SHADEPLOTRESLEVEL
 70
     2
102
SHADEPLOTCUSTOMDPI
 70
   300
  0
XRECORD
  5
3C5C
102
{ACAD_REACTORS
330
3C5B
102
}
330
3C5B
100
AcDbXrecord
280
     1
102
MATERIAL
148
0.0
149
0.0
149
0.0
 93
        0
 94
       63
282
     0
 72
     1
 77
     1
171
     1
175
     1
179
     1
273
     0
  0
XRECORD
  5
3C5A
102
{ACAD_REACTORS
330
3C59
102
}
330
3C59
100
AcDbXrecord
280
     1
102
MATERIAL
148
0.0
149
0.0
149
0.0
 93
        0
 94
       63
282
     0
 72
     1
 77
     1
171
     1
175
     1
179
     1
273
     0
  0
XRECORD
  5
3C5D
102
{ACAD_REACTORS
330
173
102
}
330
173
100
AcDbXrecord
280
     1
102
MATERIAL
148
0.0
149
0.0
149
0.0
 93
        0
 94
       63
282
     0
 72
     1
 77
     1
171
     1
175
     1
179
     1
273
     0
  0
XRECORD
  5
175
102
{ACAD_REACTORS
330
173
102
}
330
173
100
AcDbXrecord
280
     1
270
     1
271
     1
  0
XRECORD
  5
174
102
{ACAD_REACTORS
330
173
102
}
330
173
100
AcDbXrecord
280
     1
270
     1
271
     1
  0
XRECORD
  5
176
102
{ACAD_REACTORS
330
173
102
}
330
173
100
AcDbXrecord
280
     1
270
     1
271
     1
  0
XRECORD
  5
177
102
{ACAD_REACTORS
330
173
102
}
330
173
100
AcDbXrecord
280
     1
270
     1
271
     1
  0
ACAD_PROXY_OBJECT
  5
3B56
102
{ACAD_REACTORS
330
162
102
}
330
162
100
AcDbProxyObject
 90
      499
 91
      509
 95
       23
 70
     0
 93
     5304
310
40D054060020000020000003200101A000080002A5058000000C10000000000000006101010000000000003E0FC000000000000F83F0000000000003E0FC000000000000F83F02B5E8DC0F42B1CFC0AD7A3703D0AC73F419019018000000C1003FBFFFFFE0000000000003C8FD029018000000C1003FBFFFFFE00000000000
310
03C8FD049018000000C1003FBFFFFFE0000000000003C8FD089018000000C1003FBFFFFFE0000000000003C8FD109018000000C1003FBFFFFFE0000000000003C8FD209018000000C1003FBFFFFFE0000000000003C8FD01405075F5449544C450041501A8000000C800406800020000A94160000003040000000000000012
310
40404000000000000F83F0000000000003E0FC000000000000F83F0000000000003E0FC0AD7A3703D0AC73F02B5E8DC0F42B1CFD0640640600000030400FEFFFFFF8000000000000F23F40A40600000030400FEFFFFFF8000000000000F23F41240600000030400FEFFFFFF8000000000000F23F42240600000030400FEFFF
310
FFF8000000000000F23F44240600000030400FEFFFFFF8000000000000F23F48240600000030400FEFFFFFF8000000000000F23F409014217D2115051115480105406A0000003200101A000080002A5028000000C10000000000000004901010000000000003E0FC000000000000F83F0000000000003E0FC000000000000F
310
83F02B5E8DC0F42B1CFC0AD7A3703D0AC73F419019018000000C1003FBFFFFFE0000000000003C8FD029018000000C1003FBFFFFFE0000000000003C8FD049018000000C1003FBFFFFFE0000000000003C8FD089018000000C1003FBFFFFFE0000000000003C8FD109018000000C1003FBFFFFFE0000000000003C8FD20901
310
8000000C1003FBFFFFFE0000000000003C8FD03409065F444154410000
340
11
340
14
340
14
340
14
340
14
340
14
340
14
340
11
340
14
340
14
340
14
340
14
340
14
340
14
340
11
340
14
340
14
340
14
340
14
340
14
340
14
 94
        0
1001
ACAD
1000
AcRTDxfName
1000
CELLSTYLEMAP
1000
AcRTDxfName
1000
CELLSTYLEMAP
  0
XRECORD
  5
3C54
102
{ACAD_REACTORS
330
162
102
}
330
162
100
AcDbXrecord
280
     1
102
ACAD_ROUNDTRIP_PRE2007_TABLESTYLE
 90
      512
 91
        0
  1

 92
      512
 93
        0
  2

 94
      512
 95
        0
  3

  0
ENDSEC
  0
EOF
