  0
SECTION
  2
HEADER
  9
$ACADVER
  1
AC1015
  9
$ACADMAINTVER
 70
    20
  9
$DWGCODEPAGE
  3
ANSI_1250
  9
$INSBASE
 10
0.0
 20
0.0
 30
0.0
  9
$EXTMIN
 10
0.4095999448595649
 20
-0.004528679247187
 30
-0.0000000000112498
  9
$EXTMAX
 10
334.7715751521197
 20
297.0045328285427
 30
0.0000000000002956
  9
$LIMMIN
 10
0.4146981668818626
 20
0.0
  9
$LIMMAX
 10
334.7664722589718
 20
297.0
  9
$ORTHOMODE
 70
     0
  9
$REGENMODE
 70
     1
  9
$FILLMODE
 70
     1
  9
$QTEXTMODE
 70
     0
  9
$MIRRTEXT
 70
     0
  9
$LTSCALE
 40
1.0
  9
$ATTMODE
 70
     2
  9
$TEXTSIZE
 40
5.0
  9
$TRACEWID
 40
1.0
  9
$TEXTSTYLE
  7
Solbet_5
  9
$CLAYER
  8
SOLBET_Bloczki
  9
$CELTYPE
  6
ByLayer
  9
$CECOLOR
 62
   256
  9
$CELTSCALE
 40
1.0
  9
$DISPSILH
 70
     0
  9
$DIMSCALE
 40
1.0
  9
$DIMASZ
 40
2.5
  9
$DIMEXO
 40
0.0
  9
$DIMDLI
 40
3.75
  9
$DIMRND
 40
0.0
  9
$DIMDLE
 40
0.0
  9
$DIMEXE
 40
1.25
  9
$DIMTP
 40
0.0
  9
$DIMTM
 40
0.0
  9
$DIMTXT
 40
2.5
  9
$DIMCEN
 40
2.5
  9
$DIMTSZ
 40
0.0
  9
$DIMTOL
 70
     0
  9
$DIMLIM
 70
     0
  9
$DIMTIH
 70
     0
  9
$DIMTOH
 70
     0
  9
$DIMSE1
 70
     0
  9
$DIMSE2
 70
     0
  9
$DIMTAD
 70
     1
  9
$DIMZIN
 70
     8
  9
$DIMBLK
  1

  9
$DIMASO
 70
     1
  9
$DIMSHO
 70
     1
  9
$DIMPOST
  1

  9
$DIMAPOST
  1

  9
$DIMALT
 70
     0
  9
$DIMALTD
 70
     3
  9
$DIMALTF
 40
0.03937007874016
  9
$DIMLFAC
 40
1.0
  9
$DIMTOFL
 70
     1
  9
$DIMTVP
 40
0.0
  9
$DIMTIX
 70
     0
  9
$DIMSOXD
 70
     0
  9
$DIMSAH
 70
     0
  9
$DIMBLK1
  1

  9
$DIMBLK2
  1

  9
$DIMSTYLE
  2
Solbet
  9
$DIMCLRD
 70
     0
  9
$DIMCLRE
 70
     0
  9
$DIMCLRT
 70
     0
  9
$DIMTFAC
 40
1.0
  9
$DIMGAP
 40
0.625
  9
$DIMJUST
 70
     0
  9
$DIMSD1
 70
     0
  9
$DIMSD2
 70
     0
  9
$DIMTOLJ
 70
     0
  9
$DIMTZIN
 70
     8
  9
$DIMALTZ
 70
     0
  9
$DIMALTTZ
 70
     0
  9
$DIMUPT
 70
     0
  9
$DIMDEC
 70
     2
  9
$DIMTDEC
 70
     2
  9
$DIMALTU
 70
     2
  9
$DIMALTTD
 70
     3
  9
$DIMTXSTY
  7
Solbet_2_5
  9
$DIMAUNIT
 70
     0
  9
$DIMADEC
 70
     0
  9
$DIMALTRND
 40
0.0
  9
$DIMAZIN
 70
     0
  9
$DIMDSEP
 70
    44
  9
$DIMATFIT
 70
     3
  9
$DIMFRAC
 70
     0
  9
$DIMLDRBLK
  1

  9
$DIMLUNIT
 70
     2
  9
$DIMLWD
 70
    -2
  9
$DIMLWE
 70
    -2
  9
$DIMTMOVE
 70
     0
  9
$LUNITS
 70
     2
  9
$LUPREC
 70
     4
  9
$SKETCHINC
 40
1.0
  9
$FILLETRAD
 40
0.0
  9
$AUNITS
 70
     0
  9
$AUPREC
 70
     0
  9
$MENU
  1
.
  9
$ELEVATION
 40
0.0
  9
$PELEVATION
 40
0.0
  9
$THICKNESS
 40
0.0
  9
$LIMCHECK
 70
     0
  9
$CHAMFERA
 40
0.0
  9
$CHAMFERB
 40
0.0
  9
$CHAMFERC
 40
0.0
  9
$CHAMFERD
 40
0.0
  9
$SKPOLY
 70
     0
  9
$TDCREATE
 40
2454690.075573148
  9
$TDUCREATE
 40
2454690.033906482
  9
$TDUPDATE
 40
2454848.876894618
  9
$TDUUPDATE
 40
2454848.835227951
  9
$TDINDWG
 40
0.4629670718
  9
$TDUSRTIMER
 40
0.4629625463
  9
$USRTIMER
 70
     1
  9
$ANGBASE
 50
0.0
  9
$ANGDIR
 70
     0
  9
$PDMODE
 70
     0
  9
$PDSIZE
 40
0.0
  9
$PLINEWID
 40
0.0
  9
$SPLFRAME
 70
     0
  9
$SPLINETYPE
 70
     6
  9
$SPLINESEGS
 70
     8
  9
$HANDSEED
  5
2757
  9
$SURFTAB1
 70
     6
  9
$SURFTAB2
 70
     6
  9
$SURFTYPE
 70
     6
  9
$SURFU
 70
     6
  9
$SURFV
 70
     6
  9
$UCSBASE
  2

  9
$UCSNAME
  2

  9
$UCSORG
 10
0.0
 20
0.0
 30
0.0
  9
$UCSXDIR
 10
1.0
 20
0.0
 30
0.0
  9
$UCSYDIR
 10
0.0
 20
1.0
 30
0.0
  9
$UCSORTHOREF
  2

  9
$UCSORTHOVIEW
 70
     0
  9
$UCSORGTOP
 10
0.0
 20
0.0
 30
0.0
  9
$UCSORGBOTTOM
 10
0.0
 20
0.0
 30
0.0
  9
$UCSORGLEFT
 10
0.0
 20
0.0
 30
0.0
  9
$UCSORGRIGHT
 10
0.0
 20
0.0
 30
0.0
  9
$UCSORGFRONT
 10
0.0
 20
0.0
 30
0.0
  9
$UCSORGBACK
 10
0.0
 20
0.0
 30
0.0
  9
$PUCSBASE
  2

  9
$PUCSNAME
  2

  9
$PUCSORG
 10
0.0
 20
0.0
 30
0.0
  9
$PUCSXDIR
 10
1.0
 20
0.0
 30
0.0
  9
$PUCSYDIR
 10
0.0
 20
1.0
 30
0.0
  9
$PUCSORTHOREF
  2

  9
$PUCSORTHOVIEW
 70
     0
  9
$PUCSORGTOP
 10
0.0
 20
0.0
 30
0.0
  9
$PUCSORGBOTTOM
 10
0.0
 20
0.0
 30
0.0
  9
$PUCSORGLEFT
 10
0.0
 20
0.0
 30
0.0
  9
$PUCSORGRIGHT
 10
0.0
 20
0.0
 30
0.0
  9
$PUCSORGFRONT
 10
0.0
 20
0.0
 30
0.0
  9
$PUCSORGBACK
 10
0.0
 20
0.0
 30
0.0
  9
$USERI1
 70
     0
  9
$USERI2
 70
     0
  9
$USERI3
 70
     0
  9
$USERI4
 70
     0
  9
$USERI5
 70
     0
  9
$USERR1
 40
0.0
  9
$USERR2
 40
0.0
  9
$USERR3
 40
0.0
  9
$USERR4
 40
0.0
  9
$USERR5
 40
0.0
  9
$WORLDVIEW
 70
     1
  9
$SHADEDGE
 70
     3
  9
$SHADEDIF
 70
    70
  9
$TILEMODE
 70
     1
  9
$MAXACTVP
 70
    64
  9
$PINSBASE
 10
0.0
 20
0.0
 30
0.0
  9
$PLIMCHECK
 70
     0
  9
$PEXTMIN
 10
0.0
 20
0.0
 30
0.0
  9
$PEXTMAX
 10
0.0
 20
0.0
 30
0.0
  9
$PLIMMIN
 10
0.0
 20
0.0
  9
$PLIMMAX
 10
12.0
 20
9.0
  9
$UNITMODE
 70
     0
  9
$VISRETAIN
 70
     1
  9
$PLINEGEN
 70
     0
  9
$PSLTSCALE
 70
     1
  9
$TREEDEPTH
 70
  3020
  9
$CMLSTYLE
  2
SOLBET_IZOLACJA
  9
$CMLJUST
 70
     0
  9
$CMLSCALE
 40
20.0
  9
$PROXYGRAPHICS
 70
     1
  9
$MEASUREMENT
 70
     1
  9
$CELWEIGHT
370
    -1
  9
$ENDCAPS
280
     0
  9
$JOINSTYLE
280
     0
  9
$LWDISPLAY
290
     1
  9
$INSUNITS
 70
     4
  9
$HYPERLINKBASE
  1

  9
$STYLESHEET
  1

  9
$XEDIT
290
     1
  9
$CEPSNTYPE
380
     0
  9
$PSTYLEMODE
290
     1
  9
$FINGERPRINTGUID
  2
{6B12AB33-8E39-428E-8E85-461C8D99A3CB}
  9
$VERSIONGUID
  2
{4495161F-836C-4F07-B93A-3F21F7A3E225}
  9
$EXTNAMES
290
     1
  9
$PSVPSCALE
 40
0.0
  9
$OLESTARTUP
290
     0
  0
ENDSEC
  0
SECTION
  2
CLASSES
  0
CLASS
  1
ACDBDICTIONARYWDFLT
  2
AcDbDictionaryWithDefault
  3
ObjectDBX Classes
 90
        0
280
     0
281
     0
  0
CLASS
  1
ACDBPLACEHOLDER
  2
AcDbPlaceHolder
  3
ObjectDBX Classes
 90
        0
280
     0
281
     0
  0
CLASS
  1
LAYOUT
  2
AcDbLayout
  3
ObjectDBX Classes
 90
        0
280
     0
281
     0
  0
CLASS
  1
DICTIONARYVAR
  2
AcDbDictionaryVar
  3
ObjectDBX Classes
 90
        0
280
     0
281
     0
  0
CLASS
  1
TABLESTYLE
  2
AcDbTableStyle
  3
ObjectDBX Classes
 90
     4095
280
     0
281
     0
  0
CLASS
  1
MATERIAL
  2
AcDbMaterial
  3
ObjectDBX Classes
 90
     1024
280
     0
281
     0
  0
CLASS
  1
VISUALSTYLE
  2
AcDbVisualStyle
  3
ObjectDBX Classes
 90
     4095
280
     0
281
     0
  0
CLASS
  1
SCALE
  2
AcDbScale
  3
ObjectDBX Classes
 90
     1153
280
     0
281
     0
  0
CLASS
  1
MLEADERSTYLE
  2
AcDbMLeaderStyle
  3
ACDB_MLEADERSTYLE_CLASS
 90
     4095
280
     0
281
     0
  0
CLASS
  1
CELLSTYLEMAP
  2
AcDbCellStyleMap
  3
ObjectDBX Classes
 90
     1152
280
     0
281
     0
  0
CLASS
  1
DIMASSOC
  2
AcDbDimAssoc
  3
"AcDbDimAssoc|Product Desc:     AcDim ARX App For Dimension|Company:          Autodesk, Inc.|WEB Address:      www.autodesk.com"
 90
    32768
280
     0
281
     0
  0
CLASS
  1
SORTENTSTABLE
  2
AcDbSortentsTable
  3
ObjectDBX Classes
 90
        0
280
     0
281
     0
  0
CLASS
  1
MULTILEADER
  2
AcDbMLeader
  3
ACDB_MLEADER_CLASS
 90
    33793
280
     0
281
     1
  0
CLASS
  1
ACDB_MTEXTOBJECTCONTEXTDATA_CLASS
  2
AcDbMTextObjectContextData
  3
ObjectDBX Classes
 90
    33921
280
     0
281
     0
  0
ENDSEC
  0
SECTION
  2
TABLES
  0
TABLE
  2
VPORT
  5
8
102
{ACAD_XDICTIONARY
360
443
102
}
330
0
100
AcDbSymbolTable
 70
     1
  0
VPORT
  5
EA
330
8
100
AcDbSymbolTableRecord
100
AcDbViewportTableRecord
  2
*Active
 70
     0
 10
0.0
 20
0.0
 11
1.0
 21
1.0
 12
167.5905875484896
 22
148.5000020746477
 13
0.0
 23
0.0
 14
10.0
 24
10.0
 15
10.0
 25
10.0
 16
0.0
 26
0.0
 36
1.0
 17
0.0
 27
0.0
 37
0.0
 40
300.3091621912098
 41
1.74582560296846
 42
50.0
 43
0.0
 44
0.0
 50
0.0
 51
0.0
 71
     0
 72
  1000
 73
     1
 74
     3
 75
     0
 76
     0
 77
     0
 78
     0
281
     0
 65
     1
110
0.0
120
0.0
130
0.0
111
1.0
121
0.0
131
0.0
112
0.0
122
1.0
132
0.0
 79
     0
146
0.0
  0
ENDTAB
  0
TABLE
  2
LTYPE
  5
5
330
0
100
AcDbSymbolTable
 70
     2
  0
LTYPE
  5
14
330
5
100
AcDbSymbolTableRecord
100
AcDbLinetypeTableRecord
  2
ByBlock
 70
     0
  3

 72
    65
 73
     0
 40
0.0
  0
LTYPE
  5
15
330
5
100
AcDbSymbolTableRecord
100
AcDbLinetypeTableRecord
  2
ByLayer
 70
     0
  3

 72
    65
 73
     0
 40
0.0
  0
LTYPE
  5
16
330
5
100
AcDbSymbolTableRecord
100
AcDbLinetypeTableRecord
  2
Continuous
 70
     0
  3
Solid line
 72
    65
 73
     0
 40
0.0
  0
LTYPE
  5
982
330
5
100
AcDbSymbolTableRecord
100
AcDbLinetypeTableRecord
  2
BATTING
 70
     0
  3
Batting SSSSSSSSSSSSSSSSSSSSSSSSSSSSSSSSSSSSSSSSSSSSSSS
 72
    65
 73
     4
 40
10.16254
 49
0.00254
 74
     0
 49
-2.54
 74
     4
 75
   134
340
7E7
 46
2.54
 50
0.0
 44
-2.54
 45
0.0
 49
-5.08
 74
     4
 75
   134
340
7E7
 46
2.54
 50
180.0
 44
2.54
 45
0.0
 49
-2.54
 74
     0
  0
ENDTAB
  0
TABLE
  2
LAYER
  5
2
102
{ACAD_XDICTIONARY
360
3E5
102
}
330
0
100
AcDbSymbolTable
 70
    12
  0
LAYER
  5
10
102
{ACAD_XDICTIONARY
360
13C
102
}
330
2
100
AcDbSymbolTableRecord
100
AcDbLayerTableRecord
  2
0
 70
     0
 62
     7
  6
Continuous
370
    -3
390
F
  0
LAYER
  5
2BB
330
2
100
AcDbSymbolTableRecord
100
AcDbLayerTableRecord
  2
DEFPOINTS
 70
     0
 62
     7
  6
Continuous
290
     0
370
    -3
390
F
  0
LAYER
  5
3DD
102
{ACAD_XDICTIONARY
360
403
102
}
330
2
100
AcDbSymbolTableRecord
100
AcDbLayerTableRecord
  2
SOLBET_Bloczki
 70
     0
 62
   140
  6
Continuous
370
    -3
390
F
1001
AcAecLayerStandard
1000

1000

  0
LAYER
  5
3DF
102
{ACAD_XDICTIONARY
360
405
102
}
330
2
100
AcDbSymbolTableRecord
100
AcDbLayerTableRecord
  2
SOLBET_Wymiary_Opisy
 70
     0
 62
     1
  6
Continuous
370
    -3
390
F
1001
AcAecLayerStandard
1000

1000

  0
LAYER
  5
3E0
102
{ACAD_XDICTIONARY
360
407
102
}
330
2
100
AcDbSymbolTableRecord
100
AcDbLayerTableRecord
  2
SOLBET_Beton
 70
     0
 62
     9
  6
Continuous
370
    -3
390
F
1001
AcAecLayerStandard
1000

1000

  0
LAYER
  5
3E1
102
{ACAD_XDICTIONARY
360
409
102
}
330
2
100
AcDbSymbolTableRecord
100
AcDbLayerTableRecord
  2
SOLBET_Izolacja
 70
     0
 62
    40
  6
Continuous
370
    -3
390
F
1001
AcAecLayerStandard
1000

1000

  0
LAYER
  5
3E2
102
{ACAD_XDICTIONARY
360
40B
102
}
330
2
100
AcDbSymbolTableRecord
100
AcDbLayerTableRecord
  2
SOLBET_Zbrojenie_Konstrukcja
 70
     0
 62
     7
  6
Continuous
370
    -3
390
F
1001
AcAecLayerStandard
1000

1000

  0
LAYER
  5
3E4
102
{ACAD_XDICTIONARY
360
40F
102
}
330
2
100
AcDbSymbolTableRecord
100
AcDbLayerTableRecord
  2
SOLBET_Tynki_Posadzki
 70
     0
 62
     3
  6
Continuous
370
    -3
390
F
1001
AcAecLayerStandard
1000

1000

  0
LAYER
  5
3E8
102
{ACAD_XDICTIONARY
360
411
102
}
330
2
100
AcDbSymbolTableRecord
100
AcDbLayerTableRecord
  2
SOLBET_Ramka_05
 70
     0
 62
     2
  6
Continuous
370
    -3
390
F
1001
AcAecLayerStandard
1000

1000

  0
LAYER
  5
472
330
2
100
AcDbSymbolTableRecord
100
AcDbLayerTableRecord
  2
SOLBET_Zaprawy
 70
     0
 62
     4
  6
Continuous
370
    -3
390
F
1001
AcAecLayerStandard
1000

1000

  0
LAYER
  5
4E2
330
2
100
AcDbSymbolTableRecord
100
AcDbLayerTableRecord
  2
SOLBET_Emulsje_Folie
 70
     0
 62
     6
  6
Continuous
370
    -3
390
F
1001
AcAecLayerStandard
1000

1000

  0
LAYER
  5
264E
102
{ACAD_XDICTIONARY
360
264F
102
}
330
2
100
AcDbSymbolTableRecord
100
AcDbLayerTableRecord
  2
SOLBET_Wymiary_Opisy @ 1
 70
     0
 62
     1
  6
Continuous
370
    -3
390
F
1001
AcAecLayerStandard
1000

1000

1001
AcadAnnotativeDecomposition
1000
AnnotativeData
1002
{
1070
     1
1070
     1
1002
}
  0
ENDTAB
  0
TABLE
  2
STYLE
  5
3
330
0
100
AcDbSymbolTable
 70
     5
  0
STYLE
  5
11
330
3
100
AcDbSymbolTableRecord
100
AcDbTextStyleTableRecord
  2
Standard
 70
     0
 40
0.0
 41
1.0
 50
0.0
 71
     0
 42
2.5
  3
txt.shx
  4

  0
STYLE
  5
7D7
330
3
100
AcDbSymbolTableRecord
100
AcDbTextStyleTableRecord
  2
Solbet_5
 70
     0
 40
5.0
 41
1.0
 50
0.0
 71
     0
 42
5.0
  3
isocpeur.ttf
  4

1001
ACAD
1000
ISOCPEUR
1071
       34
  0
STYLE
  5
7D9
330
3
100
AcDbSymbolTableRecord
100
AcDbTextStyleTableRecord
  2
Solbet_2_5
 70
     0
 40
2.5
 41
1.0
 50
0.0
 71
     0
 42
2.5
  3
isocpeur.ttf
  4

1001
ACAD
1000
ISOCPEUR
1071
       34
  0
STYLE
  5
7E7
330
3
100
AcDbSymbolTableRecord
100
AcDbTextStyleTableRecord
  2

 70
     1
 40
0.0
 41
1.0
 50
0.0
 71
     0
 42
2.5
  3
ltypeshp.shx
  4

  0
STYLE
  5
22EC
330
3
100
AcDbSymbolTableRecord
100
AcDbTextStyleTableRecord
  2
Solbet_1
 70
     0
 40
1.0
 41
1.0
 50
0.0
 71
     0
 42
2.5
  3
isocpeur.ttf
  4

1001
ACAD
1000
ISOCPEUR
1071
       34
  0
ENDTAB
  0
TABLE
  2
VIEW
  5
6
330
0
100
AcDbSymbolTable
 70
     0
  0
ENDTAB
  0
TABLE
  2
UCS
  5
7
330
0
100
AcDbSymbolTable
 70
     0
  0
ENDTAB
  0
TABLE
  2
APPID
  5
9
330
0
100
AcDbSymbolTable
 70
    13
  0
APPID
  5
12
330
9
100
AcDbSymbolTableRecord
100
AcDbRegAppTableRecord
  2
ACAD
 70
     0
  0
APPID
  5
9E
330
9
100
AcDbSymbolTableRecord
100
AcDbRegAppTableRecord
  2
ACAD_PSEXT
 70
     0
  0
APPID
  5
133
330
9
100
AcDbSymbolTableRecord
100
AcDbRegAppTableRecord
  2
AcadAnnoPO
 70
     0
  0
APPID
  5
134
330
9
100
AcDbSymbolTableRecord
100
AcDbRegAppTableRecord
  2
AcadAnnotative
 70
     0
  0
APPID
  5
135
330
9
100
AcDbSymbolTableRecord
100
AcDbRegAppTableRecord
  2
ACAD_DSTYLE_DIMJAG
 70
     0
  0
APPID
  5
136
330
9
100
AcDbSymbolTableRecord
100
AcDbRegAppTableRecord
  2
ACAD_DSTYLE_DIMTALN
 70
     0
  0
APPID
  5
165
330
9
100
AcDbSymbolTableRecord
100
AcDbRegAppTableRecord
  2
ACAD_MLEADERVER
 70
     0
  0
APPID
  5
2C4
330
9
100
AcDbSymbolTableRecord
100
AcDbRegAppTableRecord
  2
ASO_SCHRAFF
 70
     0
  0
APPID
  5
3DE
330
9
100
AcDbSymbolTableRecord
100
AcDbRegAppTableRecord
  2
AcAecLayerStandard
 70
     0
  0
APPID
  5
7DE
330
9
100
AcDbSymbolTableRecord
100
AcDbRegAppTableRecord
  2
ACAD_EXEMPT_FROM_CAD_STANDARDS
 70
     0
  0
APPID
  5
948
330
9
100
AcDbSymbolTableRecord
100
AcDbRegAppTableRecord
  2
ACAD_DSTYLE_DIMBREAK
 70
     0
  0
APPID
  5
1D0A
330
9
100
AcDbSymbolTableRecord
100
AcDbRegAppTableRecord
  2
AcadAnnotativeDecomposition
 70
     0
  0
APPID
  5
22ED
330
9
100
AcDbSymbolTableRecord
100
AcDbRegAppTableRecord
  2
AcDbAttr
 70
     0
  0
ENDTAB
  0
TABLE
  2
DIMSTYLE
  5
A
330
0
100
AcDbSymbolTable
 70
     2
100
AcDbDimStyleTable
 71
     1
340
949
  0
DIMSTYLE
105
949
330
A
100
AcDbSymbolTableRecord
100
AcDbDimStyleTableRecord
  2
Solbet
 70
     0
 41
2.5
 42
0.0
 43
3.75
 44
1.25
 73
     0
 74
     0
 77
     1
 78
     8
140
2.5
141
2.5
143
0.03937007874016
147
0.625
171
     3
172
     1
271
     2
272
     2
274
     3
278
    44
283
     0
284
     8
340
7D9
1001
ACAD_DSTYLE_DIMBREAK
1070
   391
1040
3.75
1001
ACAD_DSTYLE_DIMJAG
1070
   388
1040
1.5
1001
ACAD_DSTYLE_DIMTALN
1070
   392
1070
     0
  0
DIMSTYLE
105
954
330
A
100
AcDbSymbolTableRecord
100
AcDbDimStyleTableRecord
  2
Solbet$7
 70
     0
 41
2.5
 42
0.0
 43
3.75
 44
1.25
 73
     0
 74
     0
 77
     1
 78
     8
140
2.5
141
2.5
143
0.03937007874016
147
0.625
171
     3
172
     1
271
     2
272
     2
274
     3
278
    44
283
     0
284
     8
340
7D9
341
958
1001
ACAD_DSTYLE_DIMBREAK
1070
   391
1040
3.75
1001
ACAD_DSTYLE_DIMJAG
1070
   388
1040
1.5
1001
ACAD_DSTYLE_DIMTALN
1070
   392
1070
     0
  0
ENDTAB
  0
TABLE
  2
BLOCK_RECORD
  5
1
330
0
100
AcDbSymbolTable
 70
     7
  0
BLOCK_RECORD
  5
1F
102
{ACAD_XDICTIONARY
360
4A3
102
}
330
1
100
AcDbSymbolTableRecord
100
AcDbBlockTableRecord
  2
*Model_Space
340
22
  0
BLOCK_RECORD
  5
D2
330
1
100
AcDbSymbolTableRecord
100
AcDbBlockTableRecord
  2
*Paper_Space
340
D3
  0
BLOCK_RECORD
  5
D6
330
1
100
AcDbSymbolTableRecord
100
AcDbBlockTableRecord
  2
*Paper_Space0
340
D7
  0
BLOCK_RECORD
  5
958
330
1
100
AcDbSymbolTableRecord
100
AcDbBlockTableRecord
  2
_DotSmall
340
0
  0
BLOCK_RECORD
  5
1EF2
330
1
100
AcDbSymbolTableRecord
100
AcDbBlockTableRecord
  2
_None
340
0
  0
BLOCK_RECORD
  5
2064
330
1
100
AcDbSymbolTableRecord
100
AcDbBlockTableRecord
  2
*X3
340
0
102
{BLKREFS
331
22AB
102
}
  0
BLOCK_RECORD
  5
22EE
102
{ACAD_XDICTIONARY
360
22F9
102
}
330
1
100
AcDbSymbolTableRecord
100
AcDbBlockTableRecord
  2
SOLBET_Bloczek_OPTIMAL_240x240x590_brak_PRA
340
0
1001
ACAD
1000
DesignCenter Data
1002
{
1070
     1
1070
     4
1002
}
  0
BLOCK_RECORD
  5
26B6
102
{ACAD_XDICTIONARY
360
26C1
102
}
330
1
100
AcDbSymbolTableRecord
100
AcDbBlockTableRecord
  2
SOLBET_Bloczek_Optimal_240x240x590_G_KG500_PRA
340
0
102
{BLKREFS
331
26C5
331
26C6
331
26C7
331
26C8
102
}
1001
ACAD
1000
DesignCenter Data
1002
{
1070
     1
1070
     4
1002
}
  0
ENDTAB
  0
ENDSEC
  0
SECTION
  2
BLOCKS
  0
BLOCK
  5
20
330
1F
100
AcDbEntity
  8
0
100
AcDbBlockBegin
  2
*Model_Space
 70
     0
 10
0.0
 20
0.0
 30
0.0
  3
*Model_Space
  1

  0
ENDBLK
  5
21
330
1F
100
AcDbEntity
  8
0
100
AcDbBlockEnd
  0
BLOCK
  5
D4
330
D2
100
AcDbEntity
 67
     1
  8
0
100
AcDbBlockBegin
  2
*Paper_Space
 70
     0
 10
0.0
 20
0.0
 30
0.0
  3
*Paper_Space
  1

  0
ENDBLK
  5
D5
330
D2
100
AcDbEntity
 67
     1
  8
0
100
AcDbBlockEnd
  0
BLOCK
  5
D8
330
D6
100
AcDbEntity
 67
     1
  8
0
100
AcDbBlockBegin
  2
*Paper_Space0
 70
     0
 10
0.0
 20
0.0
 30
0.0
  3
*Paper_Space0
  1

  0
ENDBLK
  5
D9
330
D6
100
AcDbEntity
 67
     1
  8
0
100
AcDbBlockEnd
  0
BLOCK
  5
95A
330
958
100
AcDbEntity
  8
0
100
AcDbBlockBegin
  2
_DotSmall
 70
     0
 10
0.0
 20
0.0
 30
0.0
  3
_DotSmall
  1

  0
LWPOLYLINE
  5
959
330
958
100
AcDbEntity
  8
0
  6
ByBlock
 62
     0
100
AcDbPolyline
 90
        2
 70
     1
 43
0.5
 10
-0.0625
 20
0.0
 42
1.0
 10
0.0625
 20
0.0
 42
1.0
  0
ENDBLK
  5
95B
330
958
100
AcDbEntity
  8
0
100
AcDbBlockEnd
  0
BLOCK
  5
1EF3
330
1EF2
100
AcDbEntity
  8
0
100
AcDbBlockBegin
  2
_None
 70
     0
 10
0.0
 20
0.0
 30
0.0
  3
_None
  1

  0
ENDBLK
  5
1EF4
330
1EF2
100
AcDbEntity
  8
0
100
AcDbBlockEnd
  0
BLOCK
  5
2065
330
2064
100
AcDbEntity
  8
0
100
AcDbBlockBegin
  2
*X3
 70
     1
 10
0.0
 20
0.0
 30
0.0
  3
*X3
  1
ASOWDBLK
  0
LINE
  5
2066
330
2064
100
AcDbEntity
  8
0
 62
     0
100
AcDbLine
 10
11.99304811965889
 20
9.120426821088543
 30
0.0
 11
12.03304811965889
 21
9.16042682108854
 31
0.0
  0
LINE
  5
2067
330
2064
100
AcDbEntity
  8
0
 62
     0
100
AcDbLine
 10
11.94885394583473
 20
9.120426821088543
 30
0.0
 11
11.98885394583473
 21
9.16042682108854
 31
0.0
  0
LINE
  5
2068
330
2064
100
AcDbEntity
  8
0
 62
     0
100
AcDbLine
 10
11.90465977201057
 20
9.120426821088543
 30
0.0
 11
11.94465977201057
 21
9.16042682108854
 31
0.0
  0
LINE
  5
2069
330
2064
100
AcDbEntity
  8
0
 62
     0
100
AcDbLine
 10
11.86046559818641
 20
9.120426821088543
 30
0.0
 11
11.90046559818641
 21
9.16042682108854
 31
0.0
  0
LINE
  5
206A
330
2064
100
AcDbEntity
  8
0
 62
     0
100
AcDbLine
 10
11.81627142436225
 20
9.120426821088543
 30
0.0
 11
11.85627142436225
 21
9.16042682108854
 31
0.0
  0
LINE
  5
206B
330
2064
100
AcDbEntity
  8
0
 62
     0
100
AcDbLine
 10
11.77207725053809
 20
9.120426821088543
 30
0.0
 11
11.81207725053809
 21
9.16042682108854
 31
0.0
  0
LINE
  5
206C
330
2064
100
AcDbEntity
  8
0
 62
     0
100
AcDbLine
 10
11.72788307671393
 20
9.120426821088543
 30
0.0
 11
11.76788307671393
 21
9.16042682108854
 31
0.0
  0
LINE
  5
206D
330
2064
100
AcDbEntity
  8
0
 62
     0
100
AcDbLine
 10
11.68368890288977
 20
9.120426821088543
 30
0.0
 11
11.72368890288977
 21
9.16042682108854
 31
0.0
  0
LINE
  5
206E
330
2064
100
AcDbEntity
  8
0
 62
     0
100
AcDbLine
 10
11.63949472906562
 20
9.120426821088543
 30
0.0
 11
11.67949472906562
 21
9.16042682108854
 31
0.0
  0
LINE
  5
206F
330
2064
100
AcDbEntity
  8
0
 62
     0
100
AcDbLine
 10
11.59530055524146
 20
9.120426821088543
 30
0.0
 11
11.63530055524145
 21
9.16042682108854
 31
0.0
  0
LINE
  5
2070
330
2064
100
AcDbEntity
  8
0
 62
     0
100
AcDbLine
 10
11.5511063814173
 20
9.120426821088543
 30
0.0
 11
11.59110638141729
 21
9.16042682108854
 31
0.0
  0
LINE
  5
2071
330
2064
100
AcDbEntity
  8
0
 62
     0
100
AcDbLine
 10
11.50691220759314
 20
9.120426821088543
 30
0.0
 11
11.54691220759314
 21
9.16042682108854
 31
0.0
  0
LINE
  5
2072
330
2064
100
AcDbEntity
  8
0
 62
     0
100
AcDbLine
 10
11.46271803376898
 20
9.120426821088543
 30
0.0
 11
11.50271803376898
 21
9.16042682108854
 31
0.0
  0
LINE
  5
2073
330
2064
100
AcDbEntity
  8
0
 62
     0
100
AcDbLine
 10
11.41852385994482
 20
9.120426821088543
 30
0.0
 11
11.45852385994482
 21
9.16042682108854
 31
0.0
  0
LINE
  5
2074
330
2064
100
AcDbEntity
  8
0
 62
     0
100
AcDbLine
 10
11.39401831761913
 20
9.140115452587011
 30
0.0
 11
11.41432968612066
 21
9.16042682108854
 31
0.0
  0
LINE
  5
2075
330
2064
100
AcDbEntity
  8
0
 62
     0
100
AcDbLine
 10
12.03724229348305
 20
9.120426821088543
 30
0.0
 11
12.07724229348305
 21
9.16042682108854
 31
0.0
  0
LINE
  5
2076
330
2064
100
AcDbEntity
  8
0
 62
     0
100
AcDbLine
 10
12.08143646730721
 20
9.120426821088543
 30
0.0
 11
12.12143646730721
 21
9.16042682108854
 31
0.0
  0
LINE
  5
2077
330
2064
100
AcDbEntity
  8
0
 62
     0
100
AcDbLine
 10
12.12563064113137
 20
9.120426821088543
 30
0.0
 11
12.16563064113137
 21
9.16042682108854
 31
0.0
  0
LINE
  5
2078
330
2064
100
AcDbEntity
  8
0
 62
     0
100
AcDbLine
 10
12.16982481495553
 20
9.120426821088543
 30
0.0
 11
12.20982481495552
 21
9.16042682108854
 31
0.0
  0
LINE
  5
2079
330
2064
100
AcDbEntity
  8
0
 62
     0
100
AcDbLine
 10
12.21401898877969
 20
9.120426821088543
 30
0.0
 11
12.25401898877968
 21
9.16042682108854
 31
0.0
  0
LINE
  5
207A
330
2064
100
AcDbEntity
  8
0
 62
     0
100
AcDbLine
 10
12.25821316260385
 20
9.120426821088543
 30
0.0
 11
12.29821316260384
 21
9.16042682108854
 31
0.0
  0
LINE
  5
207B
330
2064
100
AcDbEntity
  8
0
 62
     0
100
AcDbLine
 10
12.302407336428
 20
9.120426821088543
 30
0.0
 11
12.342407336428
 21
9.16042682108854
 31
0.0
  0
LINE
  5
207C
330
2064
100
AcDbEntity
  8
0
 62
     0
100
AcDbLine
 10
12.34660151025216
 20
9.120426821088543
 30
0.0
 11
12.38660151025216
 21
9.16042682108854
 31
0.0
  0
LINE
  5
207D
330
2064
100
AcDbEntity
  8
0
 62
     0
100
AcDbLine
 10
12.39079568407632
 20
9.120426821088543
 30
0.0
 11
12.43079568407632
 21
9.16042682108854
 31
0.0
  0
LINE
  5
207E
330
2064
100
AcDbEntity
  8
0
 62
     0
100
AcDbLine
 10
12.43498985790048
 20
9.120426821088543
 30
0.0
 11
12.47498985790048
 21
9.16042682108854
 31
0.0
  0
LINE
  5
207F
330
2064
100
AcDbEntity
  8
0
 62
     0
100
AcDbLine
 10
12.47918403172464
 20
9.120426821088543
 30
0.0
 11
12.51918403172464
 21
9.16042682108854
 31
0.0
  0
LINE
  5
2080
330
2064
100
AcDbEntity
  8
0
 62
     0
100
AcDbLine
 10
12.5233782055488
 20
9.120426821088543
 30
0.0
 11
12.5633782055488
 21
9.16042682108854
 31
0.0
  0
LINE
  5
2081
330
2064
100
AcDbEntity
  8
0
 62
     0
100
AcDbLine
 10
12.56757237937296
 20
9.120426821088543
 30
0.0
 11
12.60757237937296
 21
9.16042682108854
 31
0.0
  0
LINE
  5
2082
330
2064
100
AcDbEntity
  8
0
 62
     0
100
AcDbLine
 10
12.61176655319712
 20
9.120426821088543
 30
0.0
 11
12.65176655319712
 21
9.16042682108854
 31
0.0
  0
LINE
  5
2083
330
2064
100
AcDbEntity
  8
0
 62
     0
100
AcDbLine
 10
12.65596072702128
 20
9.120426821088543
 30
0.0
 11
12.68399674713724
 21
9.1484628412045
 31
0.0
  0
LINE
  5
2084
330
2064
100
AcDbEntity
  8
0
 62
     0
100
AcDbLine
 10
12.04858244068372
 20
9.120426821088543
 30
0.0
 11
12.00858244068372
 21
9.16042682108854
 31
0.0
  0
LINE
  5
2085
330
2064
100
AcDbEntity
  8
0
 62
     0
100
AcDbLine
 10
12.00438826685956
 20
9.120426821088543
 30
0.0
 11
11.96438826685956
 21
9.16042682108854
 31
0.0
  0
LINE
  5
2086
330
2064
100
AcDbEntity
  8
0
 62
     0
100
AcDbLine
 10
11.9601940930354
 20
9.120426821088543
 30
0.0
 11
11.9201940930354
 21
9.16042682108854
 31
0.0
  0
LINE
  5
2087
330
2064
100
AcDbEntity
  8
0
 62
     0
100
AcDbLine
 10
11.91599991921124
 20
9.120426821088543
 30
0.0
 11
11.87599991921124
 21
9.16042682108854
 31
0.0
  0
LINE
  5
2088
330
2064
100
AcDbEntity
  8
0
 62
     0
100
AcDbLine
 10
11.87180574538708
 20
9.120426821088543
 30
0.0
 11
11.83180574538708
 21
9.16042682108854
 31
0.0
  0
LINE
  5
2089
330
2064
100
AcDbEntity
  8
0
 62
     0
100
AcDbLine
 10
11.82761157156292
 20
9.120426821088543
 30
0.0
 11
11.78761157156293
 21
9.16042682108854
 31
0.0
  0
LINE
  5
208A
330
2064
100
AcDbEntity
  8
0
 62
     0
100
AcDbLine
 10
11.78341739773876
 20
9.120426821088543
 30
0.0
 11
11.74341739773877
 21
9.16042682108854
 31
0.0
  0
LINE
  5
208B
330
2064
100
AcDbEntity
  8
0
 62
     0
100
AcDbLine
 10
11.7392232239146
 20
9.120426821088543
 30
0.0
 11
11.69922322391461
 21
9.16042682108854
 31
0.0
  0
LINE
  5
208C
330
2064
100
AcDbEntity
  8
0
 62
     0
100
AcDbLine
 10
11.69502905009045
 20
9.120426821088543
 30
0.0
 11
11.65502905009045
 21
9.16042682108854
 31
0.0
  0
LINE
  5
208D
330
2064
100
AcDbEntity
  8
0
 62
     0
100
AcDbLine
 10
11.65083487626629
 20
9.120426821088543
 30
0.0
 11
11.61083487626629
 21
9.16042682108854
 31
0.0
  0
LINE
  5
208E
330
2064
100
AcDbEntity
  8
0
 62
     0
100
AcDbLine
 10
11.60664070244213
 20
9.120426821088543
 30
0.0
 11
11.56664070244213
 21
9.16042682108854
 31
0.0
  0
LINE
  5
208F
330
2064
100
AcDbEntity
  8
0
 62
     0
100
AcDbLine
 10
11.56244652861797
 20
9.120426821088543
 30
0.0
 11
11.52244652861797
 21
9.16042682108854
 31
0.0
  0
LINE
  5
2090
330
2064
100
AcDbEntity
  8
0
 62
     0
100
AcDbLine
 10
11.51825235479381
 20
9.120426821088543
 30
0.0
 11
11.47825235479381
 21
9.16042682108854
 31
0.0
  0
LINE
  5
2091
330
2064
100
AcDbEntity
  8
0
 62
     0
100
AcDbLine
 10
11.47405818096965
 20
9.120426821088543
 30
0.0
 11
11.43405818096965
 21
9.16042682108854
 31
0.0
  0
LINE
  5
2092
330
2064
100
AcDbEntity
  8
0
 62
     0
100
AcDbLine
 10
11.42986400714549
 20
9.120426821088543
 30
0.0
 11
11.39401831761913
 21
9.156272510614906
 31
0.0
  0
LINE
  5
2093
330
2064
100
AcDbEntity
  8
0
 62
     0
100
AcDbLine
 10
12.09277661450788
 20
9.120426821088543
 30
0.0
 11
12.05277661450788
 21
9.16042682108854
 31
0.0
  0
LINE
  5
2094
330
2064
100
AcDbEntity
  8
0
 62
     0
100
AcDbLine
 10
12.13697078833203
 20
9.120426821088543
 30
0.0
 11
12.09697078833204
 21
9.16042682108854
 31
0.0
  0
LINE
  5
2095
330
2064
100
AcDbEntity
  8
0
 62
     0
100
AcDbLine
 10
12.1811649621562
 20
9.120426821088543
 30
0.0
 11
12.1411649621562
 21
9.16042682108854
 31
0.0
  0
LINE
  5
2096
330
2064
100
AcDbEntity
  8
0
 62
     0
100
AcDbLine
 10
12.22535913598036
 20
9.120426821088543
 30
0.0
 11
12.18535913598036
 21
9.16042682108854
 31
0.0
  0
LINE
  5
2097
330
2064
100
AcDbEntity
  8
0
 62
     0
100
AcDbLine
 10
12.26955330980451
 20
9.120426821088543
 30
0.0
 11
12.22955330980451
 21
9.16042682108854
 31
0.0
  0
LINE
  5
2098
330
2064
100
AcDbEntity
  8
0
 62
     0
100
AcDbLine
 10
12.31374748362867
 20
9.120426821088543
 30
0.0
 11
12.27374748362868
 21
9.16042682108854
 31
0.0
  0
LINE
  5
2099
330
2064
100
AcDbEntity
  8
0
 62
     0
100
AcDbLine
 10
12.35794165745283
 20
9.120426821088543
 30
0.0
 11
12.31794165745283
 21
9.16042682108854
 31
0.0
  0
LINE
  5
209A
330
2064
100
AcDbEntity
  8
0
 62
     0
100
AcDbLine
 10
12.40213583127699
 20
9.120426821088543
 30
0.0
 11
12.36213583127699
 21
9.16042682108854
 31
0.0
  0
LINE
  5
209B
330
2064
100
AcDbEntity
  8
0
 62
     0
100
AcDbLine
 10
12.44633000510115
 20
9.120426821088543
 30
0.0
 11
12.40633000510115
 21
9.16042682108854
 31
0.0
  0
LINE
  5
209C
330
2064
100
AcDbEntity
  8
0
 62
     0
100
AcDbLine
 10
12.49052417892531
 20
9.120426821088543
 30
0.0
 11
12.45052417892531
 21
9.16042682108854
 31
0.0
  0
LINE
  5
209D
330
2064
100
AcDbEntity
  8
0
 62
     0
100
AcDbLine
 10
12.53471835274947
 20
9.120426821088543
 30
0.0
 11
12.49471835274947
 21
9.16042682108854
 31
0.0
  0
LINE
  5
209E
330
2064
100
AcDbEntity
  8
0
 62
     0
100
AcDbLine
 10
12.57891252657363
 20
9.120426821088543
 30
0.0
 11
12.53891252657363
 21
9.16042682108854
 31
0.0
  0
LINE
  5
209F
330
2064
100
AcDbEntity
  8
0
 62
     0
100
AcDbLine
 10
12.62310670039779
 20
9.120426821088543
 30
0.0
 11
12.58310670039779
 21
9.16042682108854
 31
0.0
  0
LINE
  5
20A0
330
2064
100
AcDbEntity
  8
0
 62
     0
100
AcDbLine
 10
12.66730087422195
 20
9.120426821088543
 30
0.0
 11
12.62730087422195
 21
9.16042682108854
 31
0.0
  0
LINE
  5
20A1
330
2064
100
AcDbEntity
  8
0
 62
     0
100
AcDbLine
 10
12.68399674713724
 20
9.147925121997415
 30
0.0
 11
12.67149504804611
 21
9.16042682108854
 31
0.0
  0
ENDBLK
  5
20A2
330
2064
100
AcDbEntity
  8
0
100
AcDbBlockEnd
  0
BLOCK
  5
22FB
330
22EE
100
AcDbEntity
  8
0
100
AcDbBlockBegin
  2
SOLBET_Bloczek_OPTIMAL_240x240x590_brak_PRA
 70
     2
 10
0.0
 20
0.0
 30
0.0
  3
SOLBET_Bloczek_OPTIMAL_240x240x590_brak_PRA
  1

  0
ATTDEF
  5
22EF
330
22EE
100
AcDbEntity
  8
SOLBET_Wymiary_Opisy
100
AcDbText
 10
0.0000001757484824
 20
4.927022981232882
 30
0.0
 40
0.9913121336814832
  1
240x240x590
  7
Solbet_1
100
AcDbAttributeDefinition
  3

  2
WYMIARY
 70
     3
1001
AcDbAttr
1070
     0
1070
     1
  0
ATTDEF
  5
22F0
330
22EE
100
AcDbEntity
  8
SOLBET_Wymiary_Opisy
100
AcDbText
 10
0.0000001757484824
 20
3.414503573516785
 30
0.0
 40
0.9913121336814832
  1
400, 500, 600, 700
  7
Solbet_1
100
AcDbAttributeDefinition
  3

  2
KLASA_GĘSTOŚCI
 70
     9
1001
AcDbAttr
1070
     0
1070
     1
  0
ATTDEF
  5
22F1
330
22EE
100
AcDbEntity
  8
SOLBET_Wymiary_Opisy
100
AcDbText
 10
-0.0000000878742412
 20
0.2448647517692188
 30
0.0
 40
0.9913121336814832
  1
SOLBET
  7
Solbet_1
100
AcDbAttributeDefinition
  3

  2
FIRMA
 70
     3
1001
AcDbAttr
1070
     0
1070
     1
  0
ATTDEF
  5
22F2
330
22EE
100
AcDbEntity
  8
SOLBET_Wymiary_Opisy
100
AcDbText
 10
0.0000001757484824
 20
7.957332979580714
 30
0.0
 40
0.9913121336814832
  1
Bloczek
  7
Solbet_1
100
AcDbAttributeDefinition
  3
Nazwa
  2
NAZWA
 70
     3
1001
AcDbAttr
1070
     0
1070
     1
  0
ATTDEF
  5
22F3
330
22EE
100
AcDbEntity
  8
SOLBET_Wymiary_Opisy
100
AcDbText
 10
0.0000001757484824
 20
6.418284799346509
 30
0.0
 40
0.9913121336814832
  1
SOLBET OPTIMAL
  7
Solbet_1
100
AcDbAttributeDefinition
  3

  2
SYSTEM
 70
     3
1001
AcDbAttr
1070
     0
1070
     1
  0
ATTDEF
  5
22F4
330
22EE
100
AcDbEntity
  8
SOLBET_Wymiary_Opisy
100
AcDbText
 10
-0.0000000878742412
 20
1.744181511296331
 30
0.0
 40
0.9913121336814832
  1
Prawo
  7
Solbet_1
100
AcDbAttributeDefinition
  3

  2
WIDOK
 70
    11
1001
AcDbAttr
1070
     0
1070
     1
  0
LINE
  5
22F5
330
22EE
100
AcDbEntity
  8
SOLBET_Bloczki
100
AcDbLine
 10
12.00000017574848
 20
11.99999995881262
 30
0.0
 11
12.00000017574848
 21
-0.0000000411874908
 31
0.0
  0
LINE
  5
22F6
330
22EE
100
AcDbEntity
  8
SOLBET_Bloczki
100
AcDbLine
 10
12.00000017574848
 20
11.99999995881262
 30
0.0
 11
0.0000001757484824
 21
11.99999995881262
 31
0.0
  0
LINE
  5
22F7
330
22EE
100
AcDbEntity
  8
SOLBET_Bloczki
100
AcDbLine
 10
0.0000001757484824
 20
11.99999995881262
 30
0.0
 11
0.0000001757484824
 21
-0.0000000411873771
 31
0.0
  0
LINE
  5
22F8
330
22EE
100
AcDbEntity
  8
SOLBET_Bloczki
100
AcDbLine
 10
0.0000001757484824
 20
-0.0000000411873771
 30
0.0
 11
12.00000017574848
 21
-0.0000000411874908
 31
0.0
  0
ENDBLK
  5
22FC
330
22EE
100
AcDbEntity
  8
0
100
AcDbBlockEnd
  0
BLOCK
  5
26C3
330
26B6
100
AcDbEntity
  8
0
100
AcDbBlockBegin
  2
SOLBET_Bloczek_Optimal_240x240x590_G_KG500_PRA
 70
     2
 10
0.0
 20
0.0
 30
0.0
  3
SOLBET_Bloczek_Optimal_240x240x590_G_KG500_PRA
  1

  0
ATTDEF
  5
26B7
330
26B6
100
AcDbEntity
  8
SOLBET_Wymiary_Opisy
100
AcDbText
 10
0.0000001757484824
 20
4.927022981232882
 30
0.0
 40
0.9913121336814832
  1
240x240x590
  7
Solbet_1
100
AcDbAttributeDefinition
  3

  2
WYMIARY
 70
    11
1001
AcDbAttr
1070
     0
1070
     1
  0
ATTDEF
  5
26B8
330
26B6
100
AcDbEntity
  8
SOLBET_Wymiary_Opisy
100
AcDbText
 10
0.0000001757484824
 20
3.414503573516785
 30
0.0
 40
0.9913121336814832
  1
500
  7
Solbet_1
100
AcDbAttributeDefinition
  3

  2
KLASA_GĘSTOŚCI
 70
    11
1001
AcDbAttr
1070
     0
1070
     1
  0
ATTDEF
  5
26B9
330
26B6
100
AcDbEntity
  8
SOLBET_Wymiary_Opisy
100
AcDbText
 10
-0.0000000878742412
 20
0.2448647517692188
 30
0.0
 40
0.9913121336814832
  1
SOLBET
  7
Solbet_1
100
AcDbAttributeDefinition
  3

  2
FIRMA
 70
    11
1001
AcDbAttr
1070
     0
1070
     1
  0
ATTDEF
  5
26BA
330
26B6
100
AcDbEntity
  8
SOLBET_Wymiary_Opisy
100
AcDbText
 10
0.0000001757484824
 20
7.957332979580714
 30
0.0
 40
0.9913121336814832
  1
Bloczek
  7
Solbet_1
100
AcDbAttributeDefinition
  3
Nazwa
  2
NAZWA
 70
    11
1001
AcDbAttr
1070
     0
1070
     1
  0
ATTDEF
  5
26BB
330
26B6
100
AcDbEntity
  8
SOLBET_Wymiary_Opisy
100
AcDbText
 10
0.0000001757484824
 20
6.418284799346509
 30
0.0
 40
0.9913121336814832
  1
SOLBET Optimal
  7
Solbet_1
100
AcDbAttributeDefinition
  3

  2
SYSTEM
 70
    11
1001
AcDbAttr
1070
     0
1070
     1
  0
ATTDEF
  5
26BC
330
26B6
100
AcDbEntity
  8
SOLBET_Wymiary_Opisy
100
AcDbText
 10
-0.0000000878742412
 20
1.744181511296331
 30
0.0
 40
0.9913121336814832
  1
Prawo
  7
Solbet_1
100
AcDbAttributeDefinition
  3

  2
WIDOK
 70
    11
1001
AcDbAttr
1070
     0
1070
     1
  0
LINE
  5
26BD
330
26B6
100
AcDbEntity
  8
SOLBET_Bloczki
100
AcDbLine
 10
12.00000017574848
 20
11.99999995881262
 30
0.0
 11
12.00000017574848
 21
-0.0000000411874908
 31
0.0
  0
LINE
  5
26BE
330
26B6
100
AcDbEntity
  8
SOLBET_Bloczki
100
AcDbLine
 10
12.00000017574848
 20
11.99999995881262
 30
0.0
 11
0.0000001757484824
 21
11.99999995881262
 31
0.0
  0
LINE
  5
26BF
330
26B6
100
AcDbEntity
  8
SOLBET_Bloczki
100
AcDbLine
 10
0.0000001757484824
 20
11.99999995881262
 30
0.0
 11
0.0000001757484824
 21
-0.0000000411873771
 31
0.0
  0
LINE
  5
26C0
330
26B6
100
AcDbEntity
  8
SOLBET_Bloczki
100
AcDbLine
 10
0.0000001757484824
 20
-0.0000000411873771
 30
0.0
 11
12.00000017574848
 21
-0.0000000411874908
 31
0.0
  0
ENDBLK
  5
26C4
330
26B6
100
AcDbEntity
  8
0
100
AcDbBlockEnd
  0
ENDSEC
  0
SECTION
  2
ENTITIES
  0
LINE
  5
21D4
330
1F
100
AcDbEntity
  8
SOLBET_Wymiary_Opisy
100
AcDbLine
 10
151.9192490763445
 20
198.9649663135537
 30
0.0
 11
151.9192490763445
 21
148.191619062275
 31
0.0
  0
LWPOLYLINE
  5
21D5
330
1F
100
AcDbEntity
  8
SOLBET_Zbrojenie_Konstrukcja
100
AcDbPolyline
 90
        2
 70
     1
 43
0.3
 10
80.46072785362538
 20
167.1319259371227
 42
1.0
 10
80.76072785363692
 20
167.1319259371227
 42
1.0
  0
LWPOLYLINE
  5
21D6
330
1F
100
AcDbEntity
  8
SOLBET_Zbrojenie_Konstrukcja
100
AcDbPolyline
 90
        2
 70
     1
 43
0.3
 10
85.85537181685856
 20
167.1103062620413
 42
1.0
 10
86.15537181684691
 20
167.1103062620413
 42
1.0
  0
LWPOLYLINE
  5
21D7
330
1F
100
AcDbEntity
  8
SOLBET_Zbrojenie_Konstrukcja
100
AcDbPolyline
 90
        2
 70
     1
 43
0.3
 10
85.85537181685856
 20
158.3155361131893
 42
1.0
 10
86.15537181684691
 20
158.3155361131893
 42
1.0
  0
LWPOLYLINE
  5
21D8
330
1F
100
AcDbEntity
  8
SOLBET_Zbrojenie_Konstrukcja
100
AcDbPolyline
 90
        2
 70
     1
 43
0.3
 10
80.46072785362538
 20
158.3155361131893
 42
1.0
 10
80.76072785363692
 20
158.3155361131893
 42
1.0
  0
LINE
  5
21D9
330
1F
100
AcDbEntity
  8
SOLBET_Zbrojenie_Konstrukcja
100
AcDbLine
 10
82.90564792490966
 20
166.0429594242884
 30
0.0
 11
81.491434362537
 21
167.457172986661
 31
0.0
  0
LINE
  5
21DA
330
1F
100
AcDbEntity
  8
SOLBET_Zbrojenie_Konstrukcja
100
AcDbLine
 10
81.70564792489802
 20
164.8429594242884
 30
0.0
 11
80.29143436252537
 21
166.257172986661
 31
0.0
  0
LWPOLYLINE
  5
21DB
330
1F
100
AcDbEntity
  8
SOLBET_Zbrojenie_Konstrukcja
100
AcDbPolyline
 90
        5
 70
     0
 43
0.0
 10
86.29706565663843
 20
157.9993147128695
 10
86.29706565663843
 20
167.457172986661
 10
80.29143436252537
 20
167.457172986661
 10
80.29143436252537
 20
157.9993147128695
 10
86.29706565663843
 20
157.9993147128695
  0
LINE
  5
21DD
330
1F
100
AcDbEntity
  8
SOLBET_Wymiary_Opisy
100
AcDbLine
 10
67.31643860765678
 20
198.9649663135537
 30
0.0
 11
151.9192490763445
 21
198.9649663135537
 31
0.0
  0
LINE
  5
21E0
330
1F
100
AcDbEntity
  8
SOLBET_Tynki_Posadzki
100
AcDbLine
 10
92.71839379163623
 20
175.1226215464249
 30
0.0
 11
92.71839379163623
 21
174.6226215464249
 31
0.0
  0
ARC
  5
21E1
330
1F
100
AcDbEntity
  8
SOLBET_Tynki_Posadzki
100
AcDbCircle
 10
91.92032760043559
 20
175.1226215464249
 30
0.0
 40
1.5000521396288
100
AcDbArc
 50
0.0
 51
90.0
  0
LINE
  5
21E3
330
1F
100
AcDbEntity
  8
SOLBET_Izolacja
  6
Continuous
100
AcDbLine
 10
92.4203276004356
 20
174.6226215464249
 30
0.0
 11
91.4203276004356
 21
174.6226215464249
 31
0.0
  0
LINE
  5
21E6
330
1F
100
AcDbEntity
  8
SOLBET_Tynki_Posadzki
100
AcDbLine
 10
92.71839379163623
 20
175.1226215464249
 30
0.0
 11
151.9192490763445
 21
175.1226215464249
 31
0.0
  0
LINE
  5
21E9
330
1F
100
AcDbEntity
  8
SOLBET_Izolacja
  6
Continuous
100
AcDbLine
 10
92.4203276004356
 20
169.2493147128695
 30
0.0
 11
92.4203276004356
 21
174.6226215464249
 31
0.0
  0
LINE
  5
21EA
330
1F
100
AcDbEntity
  8
SOLBET_Izolacja
  6
Continuous
100
AcDbLine
 10
92.4203276004356
 20
171.749314712871
 30
0.0
 11
151.9192490763445
 21
171.749314712871
 31
0.0
  0
LINE
  5
21EB
330
1F
100
AcDbEntity
  8
SOLBET_Tynki_Posadzki
100
AcDbLine
 10
91.92032760043559
 20
174.6226215464249
 30
0.0
 11
91.92032760043559
 21
198.9649663135537
 31
0.0
  0
LWPOLYLINE
  5
21F0
102
{ACAD_REACTORS
330
2322
102
}
330
1F
100
AcDbEntity
  8
SOLBET_Tynki_Posadzki
100
AcDbPolyline
 90
        5
 70
     1
 43
0.0
 10
92.53514365010834
 20
172.1951540264429
 42
0.0737237824442244
 10
92.54589683332653
 20
172.1226215464249
 10
151.9192490763445
 20
172.1226215464249
 10
151.9192490763445
 20
174.6226215464249
 10
92.53514365010834
 20
174.6226215464249
1001
ASO_SCHRAFF
1005
0
1070
     1
1002
{
1070
     1
1005
0
1002
}
1002
{
1070
     2
1005
0
1002
}
1002
{
1070
     4
1000
AR-CONC
1040
0.01
1040
0.0
1070
     0
1000
T__SCHR
1070
   256
1000
_bylayer
1040
50.0
1070
     1
1002
}
  0
LINE
  5
21F4
330
1F
100
AcDbEntity
  8
SOLBET_Tynki_Posadzki
100
AcDbLine
 10
91.92032760043559
 20
156.7493147128695
 30
0.0
 11
91.92032760043559
 21
148.191619062275
 31
0.0
  0
LINE
  5
21F5
330
1F
100
AcDbEntity
  8
SOLBET_Tynki_Posadzki
100
AcDbLine
 10
91.92032760043559
 20
156.7493147128695
 30
0.0
 11
151.9192490763445
 21
156.7493147128695
 31
0.0
  0
LINE
  5
21F6
330
1F
100
AcDbEntity
  8
SOLBET_Tynki_Posadzki
100
AcDbLine
 10
91.92032760043559
 20
156.7493147128695
 30
0.0
 11
91.42232076796416
 21
157.2493147128695
 31
0.0
  0
LINE
  5
220B
330
1F
100
AcDbEntity
  8
SOLBET_Wymiary_Opisy
100
AcDbLine
 10
67.31643860765678
 20
148.191619062275
 30
0.0
 11
151.9192490763445
 21
148.191619062275
 31
0.0
  0
LINE
  5
220D
330
1F
100
AcDbEntity
  8
SOLBET_Wymiary_Opisy
100
AcDbLine
 10
316.9339725393692
 20
198.9649663135537
 30
0.0
 11
316.9339725393692
 21
148.191619062275
 31
0.0
  0
LINE
  5
220E
330
1F
100
AcDbEntity
  8
SOLBET_Wymiary_Opisy
100
AcDbLine
 10
232.3311620706817
 20
198.9649663135537
 30
0.0
 11
316.9339725393692
 21
198.9649663135537
 31
0.0
  0
LINE
  5
220F
330
1F
100
AcDbEntity
  8
SOLBET_Tynki_Posadzki
100
AcDbLine
 10
257.7331172546495
 20
175.1226215464249
 30
0.0
 11
257.7331172546495
 21
174.6226215464249
 31
0.0
  0
ARC
  5
2210
330
1F
100
AcDbEntity
  8
SOLBET_Tynki_Posadzki
100
AcDbCircle
 10
256.9350510634605
 20
175.1226215464249
 30
0.0
 40
1.5000521396288
100
AcDbArc
 50
0.0
 51
90.0
  0
LINE
  5
2212
330
1F
100
AcDbEntity
  8
SOLBET_Izolacja
  6
Continuous
100
AcDbLine
 10
257.4350510634605
 20
174.6226215464249
 30
0.0
 11
256.4350510634605
 21
174.6226215464249
 31
0.0
  0
LINE
  5
2214
330
1F
100
AcDbEntity
  8
SOLBET_Izolacja
  6
Continuous
100
AcDbLine
 10
257.4350510634605
 20
169.2493147128695
 30
0.0
 11
256.4350510634605
 21
169.2493147128695
 31
0.0
  0
LINE
  5
2215
330
1F
100
AcDbEntity
  8
SOLBET_Tynki_Posadzki
100
AcDbLine
 10
257.7331172546495
 20
175.1226215464249
 30
0.0
 11
316.9339725393692
 21
175.1226215464249
 31
0.0
  0
LINE
  5
2218
330
1F
100
AcDbEntity
  8
SOLBET_Izolacja
  6
Continuous
100
AcDbLine
 10
257.4350510634605
 20
169.2493147128695
 30
0.0
 11
257.4350510634605
 21
174.6226215464249
 31
0.0
  0
LINE
  5
2219
330
1F
100
AcDbEntity
  8
SOLBET_Izolacja
  6
Continuous
100
AcDbLine
 10
257.4350510634605
 20
171.749314712871
 30
0.0
 11
316.9339725393692
 21
171.749314712871
 31
0.0
  0
LINE
  5
221A
330
1F
100
AcDbEntity
  8
SOLBET_Tynki_Posadzki
100
AcDbLine
 10
256.9350510634605
 20
174.6226215464249
 30
0.0
 11
256.9350510634605
 21
198.9649663135537
 31
0.0
  0
LINE
  5
221B
330
1F
100
AcDbEntity
  8
SOLBET_Izolacja
  6
Continuous
100
AcDbLine
 10
256.9350510634605
 20
169.2493147128695
 30
0.0
 11
316.9339725393692
 21
169.2493147128695
 31
0.0
  0
LINE
  5
2221
330
1F
100
AcDbEntity
  8
SOLBET_Tynki_Posadzki
100
AcDbLine
 10
256.9350510634605
 20
156.7493147128695
 30
0.0
 11
256.9350510634605
 21
148.191619062275
 31
0.0
  0
LINE
  5
2222
330
1F
100
AcDbEntity
  8
SOLBET_Tynki_Posadzki
100
AcDbLine
 10
256.9350510634605
 20
156.7493147128695
 30
0.0
 11
316.9339725393692
 21
156.7493147128695
 31
0.0
  0
LINE
  5
2223
330
1F
100
AcDbEntity
  8
SOLBET_Tynki_Posadzki
100
AcDbLine
 10
256.9350510634605
 20
156.7493147128695
 30
0.0
 11
256.4370442309772
 21
157.1493147275815
 31
0.0
  0
LINE
  5
2224
330
1F
100
AcDbEntity
  8
SOLBET_Wymiary_Opisy
100
AcDbLine
 10
232.3311620706817
 20
148.191619062275
 30
0.0
 11
316.9339725393692
 21
148.191619062275
 31
0.0
  0
LINE
  5
2229
330
1F
100
AcDbEntity
  8
SOLBET_Beton
100
AcDbLine
 10
315.2521418570314
 20
163.4472999212256
 30
0.0
 11
316.4209426473484
 21
166.1008622067003
 31
0.0
  0
LINE
  5
222A
330
1F
100
AcDbEntity
  8
SOLBET_Beton
100
AcDbLine
 10
316.8785217264675
 20
166.3993147275815
 30
0.0
 11
316.9339725393692
 21
166.3993147275815
 31
0.0
  0
LINE
  5
222B
330
1F
100
AcDbEntity
  8
SOLBET_Beton
100
AcDbLine
 10
316.5591291367083
 20
158.3993147275815
 30
0.0
 11
316.9339725393692
 21
158.3993147275815
 31
0.0
  0
LINE
  5
222C
330
1F
100
AcDbEntity
  8
SOLBET_Beton
100
AcDbLine
 10
315.2097209361622
 20
161.7606592365014
 30
0.0
 11
316.5591291367083
 21
158.3993147275815
 31
0.0
  0
ARC
  5
222D
330
1F
100
AcDbEntity
  8
SOLBET_Beton
100
AcDbCircle
 10
316.8785217264675
 20
165.8993147275815
 30
0.0
 40
0.5
100
AcDbArc
 50
90.0
 51
156.2281976083626
  0
LINE
  5
222E
330
1F
100
AcDbEntity
  8
SOLBET_Beton
100
AcDbLine
 10
315.2097209361622
 20
163.2457524421069
 30
0.0
 11
315.2097209361622
 21
161.7606592365014
 31
0.0
  0
LINE
  5
2230
330
1F
100
AcDbEntity
  8
SOLBET_Beton
100
AcDbLine
 10
314.8757093599424
 20
157.1493147275815
 30
0.0
 11
316.9339725393692
 21
157.1493147275815
 31
0.0
  0
ARC
  5
2231
330
1F
100
AcDbEntity
  8
SOLBET_Beton
100
AcDbCircle
 10
316.3893398541615
 20
166.6493147275815
 30
0.0
 40
0.9999999999999786
100
AcDbArc
 50
90.0
 51
156.2281976083395
  0
LINE
  5
2232
330
1F
100
AcDbEntity
  8
SOLBET_Beton
100
AcDbLine
 10
315.4741816959003
 20
167.052409685819
 30
0.0
 11
313.6257093599539
 21
162.8557694053886
 31
0.0
  0
LINE
  5
2233
330
1F
100
AcDbEntity
  8
SOLBET_Beton
100
AcDbLine
 10
313.6257093599539
 20
162.8557694053886
 30
0.0
 11
313.6257093599539
 21
159.2493147275815
 31
0.0
  0
LINE
  5
2234
330
1F
100
AcDbEntity
  8
SOLBET_Beton
100
AcDbLine
 10
313.6257093599539
 20
159.2493147275815
 30
0.0
 11
314.8757093599424
 21
159.2493147275815
 31
0.0
  0
LINE
  5
2235
330
1F
100
AcDbEntity
  8
SOLBET_Beton
100
AcDbLine
 10
314.8757093599424
 20
159.2493147275815
 30
0.0
 11
314.8757093599424
 21
157.1493147275815
 31
0.0
  0
LINE
  5
223A
330
1F
100
AcDbEntity
  8
SOLBET_Beton
100
AcDbLine
 10
316.9339725393692
 20
167.6493147275815
 30
0.0
 11
316.3893398541615
 21
167.6493147275815
 31
0.0
  0
LWPOLYLINE
  5
223C
330
1F
100
AcDbEntity
  8
SOLBET_Zbrojenie_Konstrukcja
  6
Continuous
100
AcDbPolyline
 90
        6
 70
     0
 43
0.0
 10
127.0461297916894
 20
167.8706002756252
 10
80.546129791701
 20
167.8706002756252
 42
0.4142135623730951
 10
80.04612979170099
 20
167.3706002756252
 10
80.04612979170099
 20
159.8706002756252
 42
0.4142135623730964
 10
80.546129791701
 20
159.3706002756266
 10
97.0461297916894
 20
159.3706002756266
  0
LWPOLYLINE
  5
2245
330
1F
100
AcDbEntity
  8
SOLBET_Zbrojenie_Konstrukcja
100
AcDbPolyline
 90
        2
 70
     1
 43
0.3
 10
282.1094662281458
 20
168.1524479882512
 42
1.0
 10
282.4094662281458
 20
168.1524479882512
 42
1.0
  0
LWPOLYLINE
  5
224A
330
1F
100
AcDbEntity
  8
SOLBET_Zbrojenie_Konstrukcja
100
AcDbPolyline
 90
        2
 70
     1
 43
0.3
 10
311.6094662281343
 20
168.1524479882512
 42
1.0
 10
311.9094662281458
 20
168.1524479882512
 42
1.0
  0
LINE
  5
224D
330
1F
100
AcDbEntity
  8
SOLBET_Izolacja
100
AcDbLine
 10
71.92032760044719
 20
198.9649663135537
 30
0.0
 11
71.92032760044719
 21
148.191619062275
 31
0.0
  0
LINE
  5
224E
330
1F
100
AcDbEntity
  8
SOLBET_Zaprawy
100
AcDbLine
 10
71.63700579391491
 20
148.191619062275
 30
0.0
 11
71.63700579391491
 21
198.9649663135537
 31
0.0
  0
LINE
  5
224F
330
1F
100
AcDbEntity
  8
SOLBET_Tynki_Posadzki
100
AcDbLine
 10
71.1703276004356
 20
148.191619062275
 30
0.0
 11
71.1703276004356
 21
198.9649663135537
 31
0.0
  0
LINE
  5
2250
330
1F
100
AcDbEntity
  8
SOLBET_Zbrojenie_Konstrukcja
100
AcDbLine
 10
72.23378708324787
 20
188.5845913021488
 30
0.0
 11
72.23378708324787
 21
185.3353766679673
 31
0.0
  0
LINE
  5
2251
330
1F
100
AcDbEntity
  8
SOLBET_Zbrojenie_Konstrukcja
100
AcDbLine
 10
71.85873570090087
 20
186.9599839850588
 30
0.0
 11
85.61060956965127
 21
186.9599839850588
 31
0.0
  0
LINE
  5
2252
330
1F
100
AcDbEntity
  8
SOLBET_Zbrojenie_Konstrukcja
100
AcDbLine
 10
72.23378708324787
 20
152.1816840673736
 30
0.0
 11
72.23378708324787
 21
148.9324694331907
 31
0.0
  0
LINE
  5
2253
330
1F
100
AcDbEntity
  8
SOLBET_Zbrojenie_Konstrukcja
100
AcDbLine
 10
71.85873570090087
 20
150.5570767502807
 30
0.0
 11
85.61060956965127
 21
150.5570767502807
 31
0.0
  0
LWPOLYLINE
  5
2255
330
1F
100
AcDbEntity
  8
SOLBET_Zbrojenie_Konstrukcja
100
AcDbPolyline
 90
        2
 70
     1
 43
0.3
 10
245.4754513166502
 20
167.1319259371227
 42
1.0
 10
245.7754513166618
 20
167.1319259371227
 42
1.0
  0
LWPOLYLINE
  5
2256
330
1F
100
AcDbEntity
  8
SOLBET_Zbrojenie_Konstrukcja
100
AcDbPolyline
 90
        2
 70
     1
 43
0.3
 10
252.9789852064577
 20
167.1103062620413
 42
1.0
 10
253.278985206446
 20
167.1103062620413
 42
1.0
  0
LWPOLYLINE
  5
2257
330
1F
100
AcDbEntity
  8
SOLBET_Zbrojenie_Konstrukcja
100
AcDbPolyline
 90
        2
 70
     1
 43
0.3
 10
252.9789852064577
 20
158.3155361131893
 42
1.0
 10
253.278985206446
 20
158.3155361131893
 42
1.0
  0
LWPOLYLINE
  5
2258
330
1F
100
AcDbEntity
  8
SOLBET_Zbrojenie_Konstrukcja
100
AcDbPolyline
 90
        2
 70
     1
 43
0.3
 10
245.4754513166502
 20
158.3155361131893
 42
1.0
 10
245.7754513166618
 20
158.3155361131893
 42
1.0
  0
LINE
  5
2259
330
1F
100
AcDbEntity
  8
SOLBET_Zbrojenie_Konstrukcja
100
AcDbLine
 10
247.9203713879229
 20
166.0429594242884
 30
0.0
 11
246.5061578255503
 21
167.457172986661
 31
0.0
  0
LINE
  5
225A
330
1F
100
AcDbEntity
  8
SOLBET_Zbrojenie_Konstrukcja
100
AcDbLine
 10
246.7203713879229
 20
164.8429594242884
 30
0.0
 11
245.3061578255502
 21
166.257172986661
 31
0.0
  0
LWPOLYLINE
  5
225B
330
1F
100
AcDbEntity
  8
SOLBET_Zbrojenie_Konstrukcja
100
AcDbPolyline
 90
        5
 70
     0
 43
0.0
 10
253.4206790462493
 20
157.9993147128695
 10
253.4206790462493
 20
167.457172986661
 10
245.3061578255502
 20
167.457172986661
 10
245.3061578255502
 20
157.9993147128695
 10
253.4206790462493
 20
157.9993147128695
  0
LINE
  5
225C
330
1F
100
AcDbEntity
  8
SOLBET_Izolacja
  6
Continuous
100
AcDbLine
 10
244.4350510634605
 20
157.2493147128695
 30
0.0
 11
244.4350510634605
 21
169.2493147128695
 31
0.0
  0
LINE
  5
226E
330
1F
100
AcDbEntity
  8
SOLBET_Izolacja
100
AcDbLine
 10
236.9350510634605
 20
198.9649663135537
 30
0.0
 11
236.9350510634605
 21
148.191619062275
 31
0.0
  0
LINE
  5
226F
330
1F
100
AcDbEntity
  8
SOLBET_Zaprawy
100
AcDbLine
 10
236.6517292569282
 20
148.191619062275
 30
0.0
 11
236.6517292569282
 21
198.9649663135537
 31
0.0
  0
LINE
  5
2270
330
1F
100
AcDbEntity
  8
SOLBET_Tynki_Posadzki
100
AcDbLine
 10
236.1850510634605
 20
148.191619062275
 30
0.0
 11
236.1850510634605
 21
198.9649663135537
 31
0.0
  0
LINE
  5
2271
330
1F
100
AcDbEntity
  8
SOLBET_Zbrojenie_Konstrukcja
100
AcDbLine
 10
237.2485105462612
 20
188.5845913021488
 30
0.0
 11
237.2485105462612
 21
185.3353766679673
 31
0.0
  0
LINE
  5
2272
330
1F
100
AcDbEntity
  8
SOLBET_Zbrojenie_Konstrukcja
100
AcDbLine
 10
236.8734591639142
 20
186.9599839850588
 30
0.0
 11
250.6253330326646
 21
186.9599839850588
 31
0.0
  0
LINE
  5
2273
330
1F
100
AcDbEntity
  8
SOLBET_Zbrojenie_Konstrukcja
100
AcDbLine
 10
237.2485105462612
 20
152.1816840673736
 30
0.0
 11
237.2485105462612
 21
148.9324694331907
 31
0.0
  0
LINE
  5
2274
330
1F
100
AcDbEntity
  8
SOLBET_Zbrojenie_Konstrukcja
100
AcDbLine
 10
236.8734591639142
 20
150.5570767502807
 30
0.0
 11
250.6253330326646
 21
150.5570767502807
 31
0.0
  0
LWPOLYLINE
  5
2276
330
1F
100
AcDbEntity
  8
SOLBET_Ramka_05
100
AcDbPolyline
 90
        4
 70
     1
 43
0.0
 10
0.4146981668818626
 20
0.0
 10
334.7664722589718
 20
0.0
 10
334.7664722589718
 20
297.0
 10
0.4146981668818626
 20
297.0
  0
MTEXT
  5
2277
102
{ACAD_XDICTIONARY
360
2278
102
}
330
1F
100
AcDbEntity
  8
SOLBET_Wymiary_Opisy @ 1
100
AcDbMText
 10
17.00723558656022
 20
289.8967110907779
 30
0.0
 40
5.0
 41
204.8851404023062
 71
     1
 72
     5
  1
{\LDETAL 61\P}Oparcie stropu Teriva na \U+015Bcianach zewn\U+0119trznych warstwowych
  7
Solbet_5
 73
     1
 44
1.0
1001
AcadAnnotative
1000
AnnotativeData
1002
{
1070
     1
1070
     0
1002
}
1001
ACAD
1000
MTEXTBEGIN
1070
    73
1070
     1
1070
    44
1040
1.0
1070
    74
1070
     0
1000
MTEXTEND
  0
MTEXT
  5
228C
102
{ACAD_XDICTIONARY
360
228D
102
}
330
1F
100
AcDbEntity
  8
SOLBET_Wymiary_Opisy @ 1
100
AcDbMText
 10
63.51062284523198
 20
240.8391243745793
 30
0.0
 40
5.0
 41
124.2624847080697
 71
     1
 72
     5
  1
Na \U+015Bcianie zewn\U+0119trznej\Pprostopad\U+0142ej do kierunku belek
  7
Solbet_5
 73
     1
 44
1.0
1001
AcadAnnotative
1000
AnnotativeData
1002
{
1070
     1
1070
     0
1002
}
1001
ACAD
1000
MTEXTBEGIN
1070
    73
1070
     1
1070
    44
1040
1.0
1070
    74
1070
     0
1000
MTEXTEND
  0
MTEXT
  5
2291
102
{ACAD_XDICTIONARY
360
2292
102
}
330
1F
100
AcDbEntity
  8
SOLBET_Wymiary_Opisy @ 1
100
AcDbMText
 10
224.4880830010217
 20
241.3391243745793
 30
0.0
 40
5.0
 41
124.2624847080697
 71
     1
 72
     5
  1
Na \U+015Bcianie zewn\U+0119trznej\Pr\U+00F3wnoleg\U+0142ej do kierunku belek
  7
Solbet_5
 73
     1
 44
1.0
1001
AcadAnnotative
1000
AnnotativeData
1002
{
1070
     1
1070
     0
1002
}
1001
ACAD
1000
MTEXTBEGIN
1070
    73
1070
     1
1070
    44
1040
1.0
1070
    74
1070
     0
1000
MTEXTEND
  0
LINE
  5
2296
330
1F
100
AcDbEntity
  8
SOLBET_Zbrojenie_Konstrukcja
100
AcDbLine
 10
148.9203276004472
 20
165.7493147128696
 30
0.0
 11
151.9192490763524
 21
160.1263369455472
 31
0.0
  0
LINE
  5
2297
330
1F
100
AcDbEntity
  8
SOLBET_Zbrojenie_Konstrukcja
100
AcDbLine
 10
145.4536609337804
 20
159.2493147128695
 30
0.0
 11
148.9203276004472
 21
165.7493147128696
 31
0.0
  0
LINE
  5
2299
330
1F
100
AcDbEntity
  8
SOLBET_Zbrojenie_Konstrukcja
100
AcDbLine
 10
121.4536609337804
 20
159.2493147128695
 30
0.0
 11
124.9203276004472
 21
165.7493147128696
 31
0.0
  0
LINE
  5
229A
330
1F
100
AcDbEntity
  8
SOLBET_Zbrojenie_Konstrukcja
100
AcDbLine
 10
129.4536609337804
 20
159.2493147128695
 30
0.0
 11
132.9203276004469
 21
165.7493147128696
 31
0.0
  0
LINE
  5
229B
330
1F
100
AcDbEntity
  8
SOLBET_Zbrojenie_Konstrukcja
100
AcDbLine
 10
137.4536609337804
 20
159.2493147128695
 30
0.0
 11
140.9203276004471
 21
165.7493147128696
 31
0.0
  0
LINE
  5
229C
330
1F
100
AcDbEntity
  8
SOLBET_Zbrojenie_Konstrukcja
100
AcDbLine
 10
113.4536609337803
 20
159.2493147128695
 30
0.0
 11
116.9203276004472
 21
165.7493147128696
 31
0.0
  0
LINE
  5
229D
330
1F
100
AcDbEntity
  8
SOLBET_Zbrojenie_Konstrukcja
100
AcDbLine
 10
105.4536609337804
 20
159.2493147128695
 30
0.0
 11
108.9203276004472
 21
165.7493147128696
 31
0.0
  0
LINE
  5
229E
330
1F
100
AcDbEntity
  8
SOLBET_Zbrojenie_Konstrukcja
100
AcDbLine
 10
97.45366093378038
 20
159.2493147128695
 30
0.0
 11
100.9203276004472
 21
165.7493147128696
 31
0.0
  0
LINE
  5
229F
330
1F
100
AcDbEntity
  8
SOLBET_Zbrojenie_Konstrukcja
100
AcDbLine
 10
89.4536609337805
 20
159.2493147128695
 30
0.0
 11
92.92032760044719
 21
165.7493147128696
 31
0.0
  0
LINE
  5
22A0
330
1F
100
AcDbEntity
  8
SOLBET_Zbrojenie_Konstrukcja
100
AcDbLine
 10
92.92032760044719
 20
165.7493147128696
 30
0.0
 11
96.38699426711378
 21
159.2493147128695
 31
0.0
  0
LINE
  5
22A1
330
1F
100
AcDbEntity
  8
SOLBET_Zbrojenie_Konstrukcja
100
AcDbLine
 10
100.9203276004472
 20
165.7493147128696
 30
0.0
 11
104.3869942671137
 21
159.2493147128695
 31
0.0
  0
LINE
  5
22A2
330
1F
100
AcDbEntity
  8
SOLBET_Zbrojenie_Konstrukcja
100
AcDbLine
 10
108.9203276004472
 20
165.7493147128696
 30
0.0
 11
112.386994267114
 21
159.2493147128695
 31
0.0
  0
LINE
  5
22A3
330
1F
100
AcDbEntity
  8
SOLBET_Zbrojenie_Konstrukcja
100
AcDbLine
 10
116.9203276004472
 20
165.7493147128696
 30
0.0
 11
120.386994267114
 21
159.2493147128695
 31
0.0
  0
LINE
  5
22A4
330
1F
100
AcDbEntity
  8
SOLBET_Zbrojenie_Konstrukcja
100
AcDbLine
 10
151.9192490763524
 20
165.7493147128698
 30
0.0
 11
87.4203276004472
 21
165.7493147128695
 31
0.0
  0
LINE
  5
22A5
330
1F
100
AcDbEntity
  8
SOLBET_Zbrojenie_Konstrukcja
100
AcDbLine
 10
140.9203276004471
 20
165.7493147128696
 30
0.0
 11
144.3869942671139
 21
159.2493147128695
 31
0.0
  0
LINE
  5
22A6
330
1F
100
AcDbEntity
  8
SOLBET_Zbrojenie_Konstrukcja
100
AcDbLine
 10
132.9203276004469
 20
165.7493147128696
 30
0.0
 11
136.3869942671139
 21
159.2493147128695
 31
0.0
  0
LINE
  5
22A7
330
1F
100
AcDbEntity
  8
SOLBET_Zbrojenie_Konstrukcja
100
AcDbLine
 10
124.9203276004472
 20
165.7493147128696
 30
0.0
 11
128.3869942671139
 21
159.2493147128695
 31
0.0
  0
INSERT
  5
22AB
330
1F
100
AcDbEntity
  8
SOLBET_Beton
100
AcDbBlockReference
  2
*X3
 10
-482.2805882805093
 20
-298.7720263415575
 30
0.0
 41
50.0
 42
50.0
 43
50.0
1001
ASO_SCHRAFF
1005
0
1070
     0
1005
0
1001
ACAD
1000
HATCH
1002
{
1070
    16
1000
NET
1040
0.25
1040
0.7853981633974483
1002
}
  0
LINE
  5
22AC
330
1F
100
AcDbEntity
  8
SOLBET_Beton
100
AcDbLine
 10
308.4992768628595
 20
163.4472999212258
 30
0.0
 11
307.3304760725483
 21
166.1008622067001
 31
0.0
  0
LINE
  5
22AD
330
1F
100
AcDbEntity
  8
SOLBET_Beton
100
AcDbLine
 10
306.8728969934146
 20
166.3993147275815
 30
0.0
 11
298.6257093599423
 21
166.3993147275815
 31
0.0
  0
LINE
  5
22AE
330
1F
100
AcDbEntity
  8
SOLBET_Beton
100
AcDbLine
 10
307.1922895831747
 20
158.3993147275815
 30
0.0
 11
298.6257093599422
 21
158.3993147275815
 31
0.0
  0
LINE
  5
22AF
330
1F
100
AcDbEntity
  8
SOLBET_Beton
100
AcDbLine
 10
308.5416977837257
 20
161.7606592365023
 30
0.0
 11
307.1922895831747
 21
158.3993147275815
 31
0.0
  0
LINE
  5
22B0
330
1F
100
AcDbEntity
  8
SOLBET_Beton
100
AcDbLine
 10
295.6257093599425
 20
166.3993147275815
 30
0.0
 11
287.3785217264702
 21
166.3993147275815
 31
0.0
  0
LINE
  5
22B1
330
1F
100
AcDbEntity
  8
SOLBET_Beton
100
AcDbLine
 10
295.6257093599425
 20
158.3993147275815
 30
0.0
 11
287.0591291367101
 21
158.3993147275815
 31
0.0
  0
LINE
  5
22B2
330
1F
100
AcDbEntity
  8
SOLBET_Beton
100
AcDbLine
 10
297.6257093599423
 20
165.3993147275815
 30
0.0
 11
297.6257093599422
 21
159.3993147275815
 31
0.0
  0
LINE
  5
22B3
330
1F
100
AcDbEntity
  8
SOLBET_Beton
100
AcDbLine
 10
297.6257093599423
 20
165.3993147275815
 30
0.0
 11
298.6257093599423
 21
166.3993147275815
 31
0.0
  0
LINE
  5
22B4
330
1F
100
AcDbEntity
  8
SOLBET_Beton
100
AcDbLine
 10
297.6257093599422
 20
159.3993147275815
 30
0.0
 11
298.6257093599422
 21
158.3993147275815
 31
0.0
  0
LINE
  5
22B5
330
1F
100
AcDbEntity
  8
SOLBET_Beton
100
AcDbLine
 10
296.6257093599423
 20
165.3993147275815
 30
0.0
 11
296.6257093599424
 21
159.3993147275815
 31
0.0
  0
LINE
  5
22B6
330
1F
100
AcDbEntity
  8
SOLBET_Beton
100
AcDbLine
 10
296.6257093599423
 20
165.3993147275815
 30
0.0
 11
295.6257093599425
 21
166.3993147275815
 31
0.0
  0
LINE
  5
22B7
330
1F
100
AcDbEntity
  8
SOLBET_Beton
100
AcDbLine
 10
296.6257093599424
 20
159.3993147275815
 30
0.0
 11
295.6257093599425
 21
158.3993147275815
 31
0.0
  0
ARC
  5
22B8
330
1F
100
AcDbEntity
  8
SOLBET_Beton
100
AcDbCircle
 10
287.3785217264702
 20
165.8993147275815
 30
0.0
 40
0.5
100
AcDbArc
 50
90.0
 51
156.2281976083391
  0
ARC
  5
22B9
330
1F
100
AcDbEntity
  8
SOLBET_Beton
100
AcDbCircle
 10
306.8728969934146
 20
165.8993147275815
 30
0.0
 40
0.5
100
AcDbArc
 50
23.7718023916609
 51
90.0
  0
LINE
  5
22BA
330
1F
100
AcDbEntity
  8
SOLBET_Beton
100
AcDbLine
 10
308.5416977837257
 20
163.2457524421073
 30
0.0
 11
308.5416977837257
 21
161.7606592365023
 31
0.0
  0
LINE
  5
22BB
330
1F
100
AcDbEntity
  8
SOLBET_Beton
100
AcDbLine
 10
285.7097209361591
 20
163.3509904759733
 30
0.0
 11
286.9209426473365
 21
166.1008622067001
 31
0.0
  0
LINE
  5
22BC
330
1F
100
AcDbEntity
  8
SOLBET_Beton
100
AcDbLine
 10
285.7097209361591
 20
161.7606592365023
 30
0.0
 11
287.0591291367101
 21
158.3993147275815
 31
0.0
  0
LINE
  5
22BD
330
1F
100
AcDbEntity
  8
SOLBET_Beton
100
AcDbLine
 10
285.7097209361591
 20
163.3509904759733
 30
0.0
 11
285.7097209361591
 21
161.7606592365023
 31
0.0
  0
ARC
  5
22BE
330
1F
100
AcDbEntity
  8
SOLBET_Beton
100
AcDbCircle
 10
308.0416977837257
 20
163.2457524421073
 30
0.0
 40
0.5
100
AcDbArc
 50
0.0
 51
23.7718023916609
  0
LINE
  5
22C0
330
1F
100
AcDbEntity
  8
SOLBET_Beton
100
AcDbLine
 10
256.2521418570368
 20
163.4472999212258
 30
0.0
 11
257.4209426473479
 21
166.1008622067001
 31
0.0
  0
LINE
  5
22C1
330
1F
100
AcDbEntity
  8
SOLBET_Beton
100
AcDbLine
 10
257.8785217264817
 20
166.3993147275815
 30
0.0
 11
266.1257093599539
 21
166.3993147275815
 31
0.0
  0
LINE
  5
22C2
330
1F
100
AcDbEntity
  8
SOLBET_Beton
100
AcDbLine
 10
257.5591291367216
 20
158.3993147275815
 30
0.0
 11
266.125709359954
 21
158.3993147275815
 31
0.0
  0
LINE
  5
22C3
330
1F
100
AcDbEntity
  8
SOLBET_Beton
100
AcDbLine
 10
256.2097209361706
 20
161.7606592365023
 30
0.0
 11
257.5591291367216
 21
158.3993147275815
 31
0.0
  0
LINE
  5
22C4
330
1F
100
AcDbEntity
  8
SOLBET_Beton
100
AcDbLine
 10
269.1257093599538
 20
166.3993147275815
 30
0.0
 11
277.372896993426
 21
166.3993147275815
 31
0.0
  0
LINE
  5
22C5
330
1F
100
AcDbEntity
  8
SOLBET_Beton
100
AcDbLine
 10
269.1257093599538
 20
158.3993147275815
 30
0.0
 11
277.6922895831861
 21
158.3993147275815
 31
0.0
  0
LINE
  5
22C6
330
1F
100
AcDbEntity
  8
SOLBET_Beton
100
AcDbLine
 10
267.1257093599539
 20
165.3993147275815
 30
0.0
 11
267.125709359954
 21
159.3993147275815
 31
0.0
  0
LINE
  5
22C7
330
1F
100
AcDbEntity
  8
SOLBET_Beton
100
AcDbLine
 10
267.1257093599539
 20
165.3993147275815
 30
0.0
 11
266.1257093599539
 21
166.3993147275815
 31
0.0
  0
LINE
  5
22C8
330
1F
100
AcDbEntity
  8
SOLBET_Beton
100
AcDbLine
 10
267.125709359954
 20
159.3993147275815
 30
0.0
 11
266.125709359954
 21
158.3993147275815
 31
0.0
  0
LINE
  5
22C9
330
1F
100
AcDbEntity
  8
SOLBET_Beton
100
AcDbLine
 10
268.1257093599539
 20
165.3993147275815
 30
0.0
 11
268.1257093599538
 21
159.3993147275815
 31
0.0
  0
LINE
  5
22CA
330
1F
100
AcDbEntity
  8
SOLBET_Beton
100
AcDbLine
 10
268.1257093599539
 20
165.3993147275815
 30
0.0
 11
269.1257093599538
 21
166.3993147275815
 31
0.0
  0
LINE
  5
22CB
330
1F
100
AcDbEntity
  8
SOLBET_Beton
100
AcDbLine
 10
268.1257093599538
 20
159.3993147275815
 30
0.0
 11
269.1257093599538
 21
158.3993147275815
 31
0.0
  0
ARC
  5
22CC
330
1F
100
AcDbEntity
  8
SOLBET_Beton
100
AcDbCircle
 10
277.372896993426
 20
165.8993147275815
 30
0.0
 40
0.5
100
AcDbArc
 50
23.7718023916609
 51
90.0
  0
ARC
  5
22CD
330
1F
100
AcDbEntity
  8
SOLBET_Beton
100
AcDbCircle
 10
257.8785217264817
 20
165.8993147275815
 30
0.0
 40
0.5
100
AcDbArc
 50
90.0
 51
156.2281976083391
  0
LINE
  5
22CE
330
1F
100
AcDbEntity
  8
SOLBET_Beton
100
AcDbLine
 10
256.2097209361706
 20
163.2457524421073
 30
0.0
 11
256.2097209361706
 21
161.7606592365023
 31
0.0
  0
LINE
  5
22CF
330
1F
100
AcDbEntity
  8
SOLBET_Beton
100
AcDbLine
 10
279.0416977837371
 20
163.3509904759733
 30
0.0
 11
277.8304760725598
 21
166.1008622067001
 31
0.0
  0
LINE
  5
22D0
330
1F
100
AcDbEntity
  8
SOLBET_Beton
100
AcDbLine
 10
279.0416977837371
 20
161.7606592365023
 30
0.0
 11
277.6922895831861
 21
158.3993147275815
 31
0.0
  0
LINE
  5
22D1
330
1F
100
AcDbEntity
  8
SOLBET_Beton
100
AcDbLine
 10
279.0416977837371
 20
163.3509904759733
 30
0.0
 11
279.0416977837371
 21
161.7606592365023
 31
0.0
  0
ARC
  5
22D2
330
1F
100
AcDbEntity
  8
SOLBET_Beton
100
AcDbCircle
 10
256.7097209361706
 20
163.2457524421073
 30
0.0
 40
0.5
100
AcDbArc
 50
156.2281976083391
 51
180.0
  0
LINE
  5
22D4
330
1F
100
AcDbEntity
  8
SOLBET_Beton
100
AcDbLine
 10
255.8757093599539
 20
157.1493147275815
 30
0.0
 11
279.3757093599539
 21
157.1493147275815
 31
0.0
  0
LINE
  5
22D5
330
1F
100
AcDbEntity
  8
SOLBET_Beton
100
AcDbLine
 10
279.3757093599539
 20
157.1493147275815
 30
0.0
 11
279.3757093599539
 21
159.2493147275815
 31
0.0
  0
LINE
  5
22D6
330
1F
100
AcDbEntity
  8
SOLBET_Beton
100
AcDbLine
 10
279.3757093599539
 20
159.2493147275815
 30
0.0
 11
280.6257093599539
 21
159.2493147275815
 31
0.0
  0
LINE
  5
22D7
330
1F
100
AcDbEntity
  8
SOLBET_Beton
100
AcDbLine
 10
280.6257093599539
 20
159.2493147275815
 30
0.0
 11
280.6257093599539
 21
162.8557694053895
 31
0.0
  0
LINE
  5
22D8
330
1F
100
AcDbEntity
  8
SOLBET_Beton
100
AcDbLine
 10
280.6257093599539
 20
162.8557694053895
 30
0.0
 11
278.7772370240046
 21
167.0524096858187
 31
0.0
  0
ARC
  5
22D9
330
1F
100
AcDbEntity
  8
SOLBET_Beton
100
AcDbCircle
 10
277.862078865737
 20
166.6493147275815
 30
0.0
 40
1.000000000000066
100
AcDbArc
 50
23.77180239166536
 51
90.0
  0
LINE
  5
22DA
330
1F
100
AcDbEntity
  8
SOLBET_Beton
100
AcDbLine
 10
277.862078865737
 20
167.6493147275815
 30
0.0
 11
257.3893398541707
 21
167.6493147275815
 31
0.0
  0
ARC
  5
22DB
330
1F
100
AcDbEntity
  8
SOLBET_Beton
100
AcDbCircle
 10
257.3893398541707
 20
166.6493147275816
 30
0.0
 40
0.9999999999999147
100
AcDbArc
 50
90.0
 51
156.2281976083401
  0
LINE
  5
22DC
330
1F
100
AcDbEntity
  8
SOLBET_Beton
100
AcDbLine
 10
256.4741816959031
 20
167.0524096858187
 30
0.0
 11
254.6257093599539
 21
162.8557694053895
 31
0.0
  0
LINE
  5
22DD
330
1F
100
AcDbEntity
  8
SOLBET_Beton
100
AcDbLine
 10
254.6257093599539
 20
162.8557694053895
 30
0.0
 11
254.6257093599539
 21
159.2493147275815
 31
0.0
  0
LINE
  5
22DE
330
1F
100
AcDbEntity
  8
SOLBET_Beton
100
AcDbLine
 10
254.6257093599539
 20
159.2493147275815
 30
0.0
 11
255.8757093599539
 21
159.2493147275815
 31
0.0
  0
LINE
  5
22DF
330
1F
100
AcDbEntity
  8
SOLBET_Beton
100
AcDbLine
 10
255.8757093599539
 20
159.2493147275815
 30
0.0
 11
255.8757093599539
 21
157.1493147275815
 31
0.0
  0
LINE
  5
22E0
330
1F
100
AcDbEntity
  8
SOLBET_Beton
100
AcDbLine
 10
308.8757093599423
 20
157.1493147275815
 30
0.0
 11
285.3757093599423
 21
157.1493147275815
 31
0.0
  0
LINE
  5
22E1
330
1F
100
AcDbEntity
  8
SOLBET_Beton
100
AcDbLine
 10
285.3757093599423
 20
157.1493147275815
 30
0.0
 11
285.3757093599423
 21
159.2493147275815
 31
0.0
  0
LINE
  5
22E2
330
1F
100
AcDbEntity
  8
SOLBET_Beton
100
AcDbLine
 10
285.3757093599423
 20
159.2493147275815
 30
0.0
 11
284.1257093599423
 21
159.2493147275815
 31
0.0
  0
LINE
  5
22E3
330
1F
100
AcDbEntity
  8
SOLBET_Beton
100
AcDbLine
 10
284.1257093599423
 20
159.2493147275815
 30
0.0
 11
284.1257093599423
 21
162.8557694053895
 31
0.0
  0
LINE
  5
22E4
330
1F
100
AcDbEntity
  8
SOLBET_Beton
100
AcDbLine
 10
284.1257093599423
 20
162.8557694053895
 30
0.0
 11
285.9741816958916
 21
167.0524096858187
 31
0.0
  0
ARC
  5
22E5
330
1F
100
AcDbEntity
  8
SOLBET_Beton
100
AcDbCircle
 10
286.8893398541593
 20
166.6493147275815
 30
0.0
 40
1.000000000000066
100
AcDbArc
 50
90.0
 51
156.2281976083346
  0
LINE
  5
22E6
330
1F
100
AcDbEntity
  8
SOLBET_Beton
100
AcDbLine
 10
286.8893398541593
 20
167.6493147275815
 30
0.0
 11
307.3620788657256
 21
167.6493147275815
 31
0.0
  0
ARC
  5
22E7
330
1F
100
AcDbEntity
  8
SOLBET_Beton
100
AcDbCircle
 10
307.3620788657256
 20
166.6493147275816
 30
0.0
 40
0.9999999999999147
100
AcDbArc
 50
23.77180239165976
 51
90.0
  0
LINE
  5
22E8
330
1F
100
AcDbEntity
  8
SOLBET_Beton
100
AcDbLine
 10
308.2772370239932
 20
167.0524096858187
 30
0.0
 11
310.1257093599423
 21
162.8557694053895
 31
0.0
  0
LINE
  5
22E9
330
1F
100
AcDbEntity
  8
SOLBET_Beton
100
AcDbLine
 10
310.1257093599423
 20
162.8557694053895
 30
0.0
 11
310.1257093599423
 21
159.2493147275815
 31
0.0
  0
LINE
  5
22EA
330
1F
100
AcDbEntity
  8
SOLBET_Beton
100
AcDbLine
 10
310.1257093599423
 20
159.2493147275815
 30
0.0
 11
308.8757093599423
 21
159.2493147275815
 31
0.0
  0
LINE
  5
22EB
330
1F
100
AcDbEntity
  8
SOLBET_Beton
100
AcDbLine
 10
308.8757093599423
 20
159.2493147275815
 30
0.0
 11
308.8757093599423
 21
157.1493147275815
 31
0.0
  0
LWPOLYLINE
  5
2309
330
1F
100
AcDbEntity
  8
SOLBET_Bloczki
100
AcDbPolyline
 90
        4
 70
     0
 43
0.0
 10
79.42032777618408
 20
198.9649663135537
 10
79.42032760043559
 20
193.2493146716821
 10
91.42032777618409
 20
193.249314712871
 10
91.42032777618409
 20
198.9649663135537
  0
LWPOLYLINE
  5
2310
330
1F
100
AcDbEntity
  8
SOLBET_Bloczki
100
AcDbPolyline
 90
        4
 70
     0
 43
0.0
 10
79.42032760044651
 20
148.1916190978433
 10
79.42032760043559
 20
157.2493147128695
 10
91.4203276004356
 20
157.2493147128695
 10
91.42232076797336
 20
148.191619062275
  0
LWPOLYLINE
  5
2311
330
1F
100
AcDbEntity
  8
SOLBET_Bloczki
100
AcDbPolyline
 90
        4
 70
     0
 43
0.0
 10
244.4350510634605
 20
198.9649663135537
 10
244.4350510634605
 20
193.249314712871
 10
256.4350510634605
 20
193.249314712871
 10
256.4350510634605
 20
198.9649663135537
  0
LWPOLYLINE
  5
2312
330
1F
100
AcDbEntity
  8
SOLBET_Bloczki
100
AcDbPolyline
 90
        4
 70
     0
 43
0.0
 10
244.4350510634596
 20
148.191619062275
 10
244.4350510634605
 20
157.1493147275815
 10
256.4370442309772
 20
157.1493147275815
 10
256.4370442309772
 20
148.191619062275
  0
LINE
  5
2313
330
1F
100
AcDbEntity
  8
SOLBET_Beton
100
AcDbLine
 10
90.15599981371257
 20
167.7493147128709
 30
0.0
 11
90.15599981371257
 21
159.2493147275815
 31
0.0
  0
LINE
  5
2314
330
1F
100
AcDbEntity
  8
SOLBET_Beton
100
AcDbLine
 10
90.15599981371257
 20
159.2493147275815
 30
0.0
 11
151.9192490763524
 21
159.2493147275815
 31
0.0
  0
LINE
  5
2315
330
1F
100
AcDbEntity
  8
SOLBET_Beton
100
AcDbLine
 10
151.9192490763524
 20
159.2493147275815
 30
0.0
 11
151.9212422438728
 21
167.7493147128695
 31
0.0
  0
LINE
  5
2316
330
1F
100
AcDbEntity
  8
SOLBET_Beton
100
AcDbLine
 10
151.9212422438728
 20
167.7493147128695
 30
0.0
 11
90.15599981371257
 21
167.7493147128709
 31
0.0
  0
LINE
  5
2317
330
1F
100
AcDbEntity
  8
SOLBET_Beton
100
AcDbLine
 10
102.1559998137126
 20
167.7493147128706
 30
0.0
 11
102.1559998137126
 21
159.2493147275815
 31
0.0
  0
LINE
  5
2318
330
1F
100
AcDbEntity
  8
SOLBET_Beton
100
AcDbLine
 10
114.1559998137126
 20
167.7493147128704
 30
0.0
 11
114.1559998137126
 21
159.2493147275815
 31
0.0
  0
LINE
  5
2319
330
1F
100
AcDbEntity
  8
SOLBET_Beton
100
AcDbLine
 10
126.1559998137126
 20
167.7493147128701
 30
0.0
 11
126.1559998137126
 21
159.2493147275815
 31
0.0
  0
LINE
  5
231A
330
1F
100
AcDbEntity
  8
SOLBET_Beton
100
AcDbLine
 10
138.1559998137126
 20
167.7493147128709
 30
0.0
 11
138.1559998137126
 21
159.2493147275815
 31
0.0
  0
LINE
  5
231B
330
1F
100
AcDbEntity
  8
SOLBET_Beton
100
AcDbLine
 10
150.1559998137009
 20
167.7493147128695
 30
0.0
 11
150.1559998137126
 21
159.2493147275815
 31
0.0
  0
LINE
  5
231C
330
1F
100
AcDbEntity
  8
SOLBET_Beton
100
AcDbLine
 10
151.9212422438728
 20
162.7493147128696
 30
0.0
 11
90.15599981371257
 21
162.7493147128696
 31
0.0
  0
LINE
  5
231D
330
1F
100
AcDbEntity
  8
SOLBET_Beton
100
AcDbLine
 10
87.4203276004472
 20
157.2493147128695
 30
0.0
 11
87.4203276004472
 21
159.2493147128695
 31
0.0
  0
LINE
  5
231E
330
1F
100
AcDbEntity
  8
SOLBET_Beton
100
AcDbLine
 10
87.4203276004472
 20
159.2493147128695
 30
0.0
 11
151.9192490763524
 21
159.2493147275815
 31
0.0
  0
LINE
  5
231F
330
1F
100
AcDbEntity
  8
SOLBET_Beton
100
AcDbLine
 10
151.9192490763524
 20
159.2493147275815
 30
0.0
 11
151.9187800957551
 21
157.2493147128695
 31
0.0
  0
LINE
  5
2320
330
1F
100
AcDbEntity
  8
SOLBET_Beton
100
AcDbLine
 10
151.9187800957551
 20
157.2493147128695
 30
0.0
 11
87.4203276004472
 21
157.2493147128695
 31
0.0
  0
HATCH
  5
2322
330
1F
100
AcDbEntity
  8
SOLBET_Tynki_Posadzki
100
AcDbHatch
 10
0.0
 20
0.0
 30
0.0
210
0.0
220
0.0
230
1.0
  2
AR-CONC
 70
     0
 71
     1
 91
        1
 92
        1
 93
        5
 72
     2
 10
92.78514365011423
 20
172.195154026459
 40
0.2500000000058691
 50
180.0000000036803
 51
196.8657343098225
 73
     1
 72
     1
 10
92.54589683332653
 20
172.1226215464249
 11
151.9192490763445
 21
172.1226215464249
 72
     1
 10
151.9192490763445
 20
172.1226215464249
 11
151.9192490763445
 21
174.6226215464249
 72
     1
 10
151.9192490763445
 20
174.6226215464249
 11
92.53514365010834
 21
174.6226215464249
 72
     1
 10
92.53514365010834
 20
174.6226215464249
 11
92.53514365010834
 21
172.1951540264429
 97
        1
330
21F0
 75
     0
 76
     1
 52
0.0
 41
0.05
 77
     0
 78
    13
 53
50.0
 43
983.6704851146931
 44
17.16752620465876
 45
9.1092334498002
 46
-0.7969542769451543
 79
     2
 49
0.9525000000000002
 49
-10.4775
 53
355.0
 43
983.6704851146931
 44
17.16752620465876
 45
-1.762141298783349
 46
9.552832144108998
 79
     2
 49
0.762
 49
-8.381999999999999
 53
100.451
 43
984.4295851146931
 44
17.10111370465877
 45
7.347125083297962
 46
8.755834391014593
 79
     2
 49
0.8095
 49
-8.9045
 53
46.1842
 43
983.6704851146931
 44
19.70752620465876
 45
13.5539520446065
 46
-2.102116396636357
 79
     2
 49
1.428749999999999
 49
-15.71625
 53
96.6356
 43
984.7999801146931
 44
19.53235120465876
 45
11.87021172331186
 46
12.37127779450246
 79
     2
 49
1.21425
 49
-13.35675
 53
351.184
 43
983.6704851146931
 44
19.70752620465876
 45
11.87023029069669
 46
12.37125589302988
 79
     2
 49
1.143
 49
-12.573
 53
21.0
 43
984.9404851146932
 44
19.07252620465877
 45
7.580743991769164
 46
-5.113275925838125
 79
     2
 49
0.9525000000000002
 49
-10.4775
 53
326.0
 43
984.9404851146932
 44
19.07252620465877
 45
3.090101417382353
 46
9.209398306115962
 79
     2
 49
0.762
 49
-8.381999999999999
 53
71.45140000000001
 43
985.5722101146932
 44
18.64642120465877
 45
10.67082453850622
 46
4.096142885802872
 79
     2
 49
0.8095
 49
-8.9045
 53
37.5
 43
983.6704851146931
 44
17.16752620465876
 45
0.1544301625295909
 46
4.227751943657655
 79
     6
 49
0.0
 49
-8.2804
 49
0.0
 49
-8.509
 49
0.0
 49
-8.41375
 53
7.499999999999999
 43
983.6704851146931
 44
17.16752620465876
 45
3.340983125515287
 46
5.009028740905975
 79
     6
 49
0.0
 49
-4.851399999999999
 49
0.0
 49
-8.0899
 49
0.0
 49
-3.20675
 53
327.5
 43
980.8383851146931
 44
17.16752620465876
 45
6.77952975834357
 46
-0.2864371996336729
 79
     6
 49
0.0
 49
-3.175
 49
0.0
 49
-9.906
 49
0.0
 49
-13.1445
 53
317.5
 43
979.5683851146932
 44
17.16752620465876
 45
7.406459069300902
 46
1.27132455166665
 79
     6
 49
0.0
 49
-4.1275
 49
0.0
 49
-6.5786
 49
0.0
 49
-9.3345
 98
        1
 10
983.6704851146931
 20
17.16752620465876
1001
ACAD
1010
0.0
1020
0.0
1030
0.0
  0
LINE
  5
2333
330
1F
100
AcDbEntity
  8
SOLBET_Izolacja
100
AcDbLine
 10
91.42032777374891
 20
169.2493147422934
 30
0.0
 11
151.9192490885099
 21
169.249314668694
 31
0.0
  0
LINE
  5
2334
330
1F
100
AcDbEntity
  8
SOLBET_Izolacja
100
AcDbLine
 10
151.9192490885099
 20
169.249314668694
 30
0.0
 11
151.9192490885099
 21
171.749314712871
 31
0.0
  0
LINE
  5
2335
330
1F
100
AcDbEntity
  8
SOLBET_Izolacja
  6
BATTING
 48
0.12
100
AcDbLine
 10
151.9192490885099
 20
170.4993146907825
 30
0.0
 11
92.4203276004356
 21
170.4993146907825
 31
0.0
  0
LINE
  5
2336
330
1F
100
AcDbEntity
  8
SOLBET_Izolacja
  6
BATTING
 48
0.049
100
AcDbLine
 10
91.92032760043559
 20
174.6226215464249
 30
0.0
 11
91.92032760043559
 21
169.2493147128695
 31
0.0
  0
LINE
  5
2337
330
1F
100
AcDbEntity
  8
SOLBET_Izolacja
100
AcDbLine
 10
71.92032760044719
 20
148.191619062275
 30
0.0
 11
79.42032760044651
 21
148.191619062275
 31
0.0
  0
LINE
  5
2338
330
1F
100
AcDbEntity
  8
SOLBET_Izolacja
  6
BATTING
 48
0.36
100
AcDbLine
 10
75.67032760044686
 20
148.191619062275
 30
0.0
 11
75.67032760044686
 21
198.9649663135537
 31
0.0
  0
LWPOLYLINE
  5
233B
330
1F
100
AcDbEntity
  8
SOLBET_Zbrojenie_Konstrukcja
100
AcDbPolyline
 90
        4
 70
     1
 43
0.0
 10
279.3757093599424
 20
157.1493147275815
 10
285.3757093599423
 20
157.1493147275815
 10
285.3757093599423
 20
159.149314742293
 10
279.3757093599424
 20
159.149314742293
  0
LWPOLYLINE
  5
233C
330
1F
100
AcDbEntity
  8
SOLBET_Zbrojenie_Konstrukcja
100
AcDbPolyline
 90
        2
 70
     1
 43
0.3
 10
282.2257093599424
 20
165.4717549669427
 42
1.0
 10
282.5257093599423
 20
165.4717549669427
 42
1.0
  0
LINE
  5
233D
330
1F
100
AcDbEntity
  8
SOLBET_Zbrojenie_Konstrukcja
100
AcDbLine
 10
282.6417665734069
 20
165.6651178514449
 30
0.0
 11
284.288702395027
 21
158.350029855935
 31
0.0
  0
LWPOLYLINE
  5
233E
330
1F
100
AcDbEntity
  8
SOLBET_Zbrojenie_Konstrukcja
100
AcDbPolyline
 90
        2
 70
     1
 43
0.3
 10
280.0866479372451
 20
158.0121618335395
 42
1.0
 10
280.386647937245
 20
158.0121618335395
 42
1.0
  0
LWPOLYLINE
  5
233F
330
1F
100
AcDbEntity
  8
SOLBET_Zbrojenie_Konstrukcja
100
AcDbPolyline
 90
        2
 70
     1
 43
0.3
 10
284.6647707826397
 20
158.0121618335395
 42
-1.0
 10
284.3647707826396
 20
158.0121618335395
 42
-1.0
  0
LINE
  5
2340
330
1F
100
AcDbEntity
  8
SOLBET_Zbrojenie_Konstrukcja
100
AcDbLine
 10
284.288702395027
 20
158.350029855935
 30
0.0
 11
284.8508566514156
 21
158.350029855935
 31
0.0
  0
LINE
  5
2341
330
1F
100
AcDbEntity
  8
SOLBET_Zbrojenie_Konstrukcja
100
AcDbLine
 10
282.1096521464779
 20
165.6651178514449
 30
0.0
 11
280.4627163248578
 21
158.350029855935
 31
0.0
  0
LINE
  5
2342
330
1F
100
AcDbEntity
  8
SOLBET_Zbrojenie_Konstrukcja
100
AcDbLine
 10
280.4627163248578
 20
158.350029855935
 30
0.0
 11
279.9005620684692
 21
158.350029855935
 31
0.0
  0
LWPOLYLINE
  5
2343
330
1F
100
AcDbEntity
  8
SOLBET_Zbrojenie_Konstrukcja
100
AcDbPolyline
 90
        2
 70
     1
 43
0.3
 10
281.4681349161842
 20
158.0121618335395
 42
1.0
 10
281.7681349161842
 20
158.0121618335395
 42
1.0
  0
LWPOLYLINE
  5
2344
330
1F
100
AcDbEntity
  8
SOLBET_Zbrojenie_Konstrukcja
100
AcDbPolyline
 90
        2
 70
     1
 43
0.3
 10
283.2832838037006
 20
158.0121618335395
 42
-1.0
 10
282.9832838037006
 20
158.0121618335395
 42
-1.0
  0
LWPOLYLINE
  5
2345
330
1F
100
AcDbEntity
  8
SOLBET_Zbrojenie_Konstrukcja
100
AcDbPolyline
 90
        4
 70
     1
 43
0.0
 10
314.8757093599424
 20
157.1493147275815
 10
308.8757093599423
 20
157.1493147275815
 10
308.8757093599423
 20
159.149314742293
 10
314.8757093599424
 20
159.149314742293
  0
LWPOLYLINE
  5
2346
330
1F
100
AcDbEntity
  8
SOLBET_Zbrojenie_Konstrukcja
100
AcDbPolyline
 90
        2
 70
     1
 43
0.3
 10
312.0257093599423
 20
165.4717549669427
 42
-1.0
 10
311.7257093599424
 20
165.4717549669427
 42
-1.0
  0
LINE
  5
2347
330
1F
100
AcDbEntity
  8
SOLBET_Zbrojenie_Konstrukcja
100
AcDbLine
 10
311.6096521464777
 20
165.6651178514449
 30
0.0
 11
309.9627163248576
 21
158.350029855935
 31
0.0
  0
LWPOLYLINE
  5
2348
330
1F
100
AcDbEntity
  8
SOLBET_Zbrojenie_Konstrukcja
100
AcDbPolyline
 90
        2
 70
     1
 43
0.3
 10
314.1647707826396
 20
158.0121618335395
 42
-1.0
 10
313.8647707826397
 20
158.0121618335395
 42
-1.0
  0
LWPOLYLINE
  5
2349
330
1F
100
AcDbEntity
  8
SOLBET_Zbrojenie_Konstrukcja
100
AcDbPolyline
 90
        2
 70
     1
 43
0.3
 10
309.586647937245
 20
158.0121618335395
 42
1.0
 10
309.886647937245
 20
158.0121618335395
 42
1.0
  0
LINE
  5
234A
330
1F
100
AcDbEntity
  8
SOLBET_Zbrojenie_Konstrukcja
100
AcDbLine
 10
309.9627163248576
 20
158.350029855935
 30
0.0
 11
309.4005620684691
 21
158.350029855935
 31
0.0
  0
LINE
  5
234B
330
1F
100
AcDbEntity
  8
SOLBET_Zbrojenie_Konstrukcja
100
AcDbLine
 10
312.1417665734068
 20
165.6651178514449
 30
0.0
 11
313.7887023950269
 21
158.350029855935
 31
0.0
  0
LINE
  5
234C
330
1F
100
AcDbEntity
  8
SOLBET_Zbrojenie_Konstrukcja
100
AcDbLine
 10
313.7887023950269
 20
158.350029855935
 30
0.0
 11
314.3508566514155
 21
158.350029855935
 31
0.0
  0
LWPOLYLINE
  5
234D
330
1F
100
AcDbEntity
  8
SOLBET_Zbrojenie_Konstrukcja
100
AcDbPolyline
 90
        2
 70
     1
 43
0.3
 10
312.7832838037004
 20
158.0121618335395
 42
-1.0
 10
312.4832838037005
 20
158.0121618335395
 42
-1.0
  0
LWPOLYLINE
  5
234E
330
1F
100
AcDbEntity
  8
SOLBET_Zbrojenie_Konstrukcja
100
AcDbPolyline
 90
        2
 70
     1
 43
0.3
 10
310.9681349161841
 20
158.0121618335395
 42
1.0
 10
311.2681349161841
 20
158.0121618335395
 42
1.0
  0
LWPOLYLINE
  5
234F
102
{ACAD_REACTORS
330
2351
102
}
330
1F
100
AcDbEntity
  8
SOLBET_Tynki_Posadzki
100
AcDbPolyline
 90
        5
 70
     0
 43
0.0
 10
257.5606202963399
 20
172.1226215464249
 10
316.9339725393692
 20
172.1226215464249
 10
316.9339725393692
 20
174.6226215464249
 10
257.5498671131216
 20
174.6226215464249
 10
257.5498671131216
 20
172.1951540264429
  0
HATCH
  5
2351
330
1F
100
AcDbEntity
  8
SOLBET_Tynki_Posadzki
100
AcDbHatch
 10
0.0
 20
0.0
 30
0.0
210
0.0
220
0.0
230
1.0
  2
AR-CONC
 70
     0
 71
     1
 91
        1
 92
       33
 93
        4
 72
     1
 10
257.5606202963399
 20
172.1226215464249
 11
316.9339725393692
 21
172.1226215464249
 72
     1
 10
316.9339725393692
 20
172.1226215464249
 11
316.9339725393692
 21
174.6226215464249
 72
     1
 10
316.9339725393692
 20
174.6226215464249
 11
257.5498671131216
 21
174.6226215464249
 72
     1
 10
257.5498671131216
 20
174.6226215464249
 11
257.5498671131216
 21
172.1951540264429
 97
        1
330
234F
 75
     0
 76
     1
 52
0.0
 41
0.05
 77
     0
 78
    13
 53
50.0
 43
983.6704851146931
 44
17.16752620465876
 45
9.1092334498002
 46
-0.7969542769451543
 79
     2
 49
0.9525000000000002
 49
-10.4775
 53
355.0
 43
983.6704851146931
 44
17.16752620465876
 45
-1.762141298783349
 46
9.552832144108998
 79
     2
 49
0.762
 49
-8.381999999999999
 53
100.451
 43
984.4295851146931
 44
17.10111370465877
 45
7.347125083297962
 46
8.755834391014593
 79
     2
 49
0.8095
 49
-8.9045
 53
46.1842
 43
983.6704851146931
 44
19.70752620465876
 45
13.5539520446065
 46
-2.102116396636357
 79
     2
 49
1.428749999999999
 49
-15.71625
 53
96.6356
 43
984.7999801146931
 44
19.53235120465876
 45
11.87021172331186
 46
12.37127779450246
 79
     2
 49
1.21425
 49
-13.35675
 53
351.184
 43
983.6704851146931
 44
19.70752620465876
 45
11.87023029069669
 46
12.37125589302988
 79
     2
 49
1.143
 49
-12.573
 53
21.0
 43
984.9404851146932
 44
19.07252620465877
 45
7.580743991769164
 46
-5.113275925838125
 79
     2
 49
0.9525000000000002
 49
-10.4775
 53
326.0
 43
984.9404851146932
 44
19.07252620465877
 45
3.090101417382353
 46
9.209398306115962
 79
     2
 49
0.762
 49
-8.381999999999999
 53
71.45140000000001
 43
985.5722101146932
 44
18.64642120465877
 45
10.67082453850622
 46
4.096142885802872
 79
     2
 49
0.8095
 49
-8.9045
 53
37.5
 43
983.6704851146931
 44
17.16752620465876
 45
0.1544301625295909
 46
4.227751943657655
 79
     6
 49
0.0
 49
-8.2804
 49
0.0
 49
-8.509
 49
0.0
 49
-8.41375
 53
7.499999999999999
 43
983.6704851146931
 44
17.16752620465876
 45
3.340983125515287
 46
5.009028740905975
 79
     6
 49
0.0
 49
-4.851399999999999
 49
0.0
 49
-8.0899
 49
0.0
 49
-3.20675
 53
327.5
 43
980.8383851146931
 44
17.16752620465876
 45
6.77952975834357
 46
-0.2864371996336729
 79
     6
 49
0.0
 49
-3.175
 49
0.0
 49
-9.906
 49
0.0
 49
-13.1445
 53
317.5
 43
979.5683851146932
 44
17.16752620465876
 45
7.406459069300902
 46
1.27132455166665
 79
     6
 49
0.0
 49
-4.1275
 49
0.0
 49
-6.5786
 49
0.0
 49
-9.3345
 98
        1
 10
983.6704851146931
 20
17.16752620465876
1001
ACAD
1010
0.0
1020
0.0
1030
0.0
  0
LINE
  5
2374
330
1F
100
AcDbEntity
  8
SOLBET_Izolacja
  6
BATTING
 48
0.049
100
AcDbLine
 10
256.9350510634605
 20
174.6226215464249
 30
0.0
 11
256.9350510634605
 21
169.2493147128696
 31
0.0
  0
LINE
  5
2375
330
1F
100
AcDbEntity
  8
SOLBET_Izolacja
100
AcDbLine
 10
316.9339725393692
 20
169.2493147128695
 30
0.0
 11
316.9339725393692
 21
171.749314712871
 31
0.0
  0
LINE
  5
2376
330
1F
100
AcDbEntity
  8
SOLBET_Izolacja
  6
BATTING
 48
0.12
100
AcDbLine
 10
316.9339725393692
 20
170.4993147128702
 30
0.0
 11
257.4350510634605
 21
170.4993147128702
 31
0.0
  0
LINE
  5
2377
330
1F
100
AcDbEntity
  8
SOLBET_Izolacja
100
AcDbLine
 10
236.9350510634605
 20
198.9649663135537
 30
0.0
 11
244.4350510634605
 21
198.9649663135537
 31
0.0
  0
LINE
  5
2378
330
1F
100
AcDbEntity
  8
SOLBET_Izolacja
100
AcDbLine
 10
236.9350510634605
 20
148.191619062275
 30
0.0
 11
244.4350510634605
 21
148.191619062275
 31
0.0
  0
LINE
  5
2379
330
1F
100
AcDbEntity
  8
SOLBET_Izolacja
  6
BATTING
 48
0.36
100
AcDbLine
 10
240.6850510634605
 20
148.191619062275
 30
0.0
 11
240.6850510634605
 21
198.9649663135537
 31
0.0
  0
LEADER
  5
23B6
330
1F
100
AcDbEntity
  8
SOLBET_Wymiary_Opisy
100
AcDbLeader
  3
Solbet$7
 73
     0
 75
     1
 40
3.25
 41
27.75
 76
     3
 10
83.5273772580806
 20
161.21912332768
 30
0.0
 10
63.57923003882558
 20
123.574475632759
 30
0.0
 10
61.07923003882558
 20
123.574475632759
 30
0.0
340
23B7
213
1.177601578005123
223
-0.1753245211093599
233
0.0
1001
ACAD
1000
DSTYLE
1002
{
1070
   147
1040
0.625
1070
    77
1070
     1
1002
}
  0
MTEXT
  5
23B7
102
{ACAD_XDICTIONARY
360
274B
102
}
102
{ACAD_REACTORS
330
23B6
102
}
330
1F
100
AcDbEntity
  8
SOLBET_Wymiary_Opisy
100
AcDbMText
 10
59.27662846082046
 20
127.6248001538684
 30
0.0
 40
2.5
 41
0.0
 71
     3
 72
     1
  1
Wieniec \U+017Celbetowy
  7
Solbet_2_5
 73
     1
 44
1.0
1001
ACAD
1000
MTEXTBEGIN
1070
    73
1070
     1
1070
    44
1040
1.0
1070
    74
1070
     0
1000
MTEXTEND
  0
LEADER
  5
23B8
330
1F
100
AcDbEntity
  8
SOLBET_Wymiary_Opisy
100
AcDbLeader
  3
Solbet$7
 73
     0
 74
     0
 75
     1
 40
7.666666666666666
 41
34.75
 76
     3
 10
89.42002795472024
 20
167.8706002756252
 30
0.0
 10
107.9680587561994
 20
183.8909328394414
 30
0.0
 10
110.4680587561994
 20
183.8909328394414
 30
0.0
340
23B9
213
1.177601578005123
223
-0.1753245211093599
233
0.0
1001
ACAD
1000
DSTYLE
1002
{
1070
   147
1040
0.625
1070
    77
1070
     1
1002
}
  0
MTEXT
  5
23B9
102
{ACAD_XDICTIONARY
360
274D
102
}
102
{ACAD_REACTORS
330
23B8
102
}
330
1F
100
AcDbEntity
  8
SOLBET_Wymiary_Opisy
100
AcDbMText
 10
109.9154571781943
 20
192.3579240272174
 30
0.0
 40
2.5
 41
0.0
 71
     1
 72
     1
  1
Zbrojenie g\U+00F3rne\Pstrefy przypodporowej
  7
Solbet_2_5
 73
     1
 44
1.0
1001
ACAD
1000
MTEXTBEGIN
1070
    73
1070
     1
1070
    44
1040
1.0
1070
    74
1070
     0
1000
MTEXTEND
  0
LEADER
  5
23BC
330
1F
100
AcDbEntity
  8
SOLBET_Wymiary_Opisy
100
AcDbLeader
  3
Solbet$7
 73
     0
 74
     0
 75
     1
 40
7.666666666666666
 41
34.75
 76
     3
 10
282.3900204129359
 20
168.2263100545219
 30
0.0
 10
274.9893158129379
 20
186.1070011993064
 30
0.0
 10
277.4893158129379
 20
186.1070011993064
 30
0.0
340
23BD
213
1.177601578005123
223
-0.1753245211093599
233
0.0
1001
ACAD
1000
DSTYLE
1002
{
1070
   147
1040
0.625
1070
    77
1070
     1
1002
}
  0
MTEXT
  5
23BD
102
{ACAD_XDICTIONARY
360
274F
102
}
102
{ACAD_REACTORS
330
23BC
102
}
330
1F
100
AcDbEntity
  8
SOLBET_Wymiary_Opisy
100
AcDbMText
 10
276.9367142349328
 20
194.5739923870824
 30
0.0
 40
2.5
 41
0.0
 71
     1
 72
     1
  1
Zbrojenie g\U+00F3rne\Pstrefy przypodporowej
  7
Solbet_2_5
 73
     1
 44
1.0
1001
ACAD
1000
MTEXTBEGIN
1070
    73
1070
     1
1070
    44
1040
1.0
1070
    74
1070
     0
1000
MTEXTEND
  0
LEADER
  5
23C2
330
1F
100
AcDbEntity
  8
SOLBET_Wymiary_Opisy
100
AcDbLeader
  3
Solbet$7
 73
     0
 75
     1
 40
3.25
 41
27.75
 76
     3
 10
249.5026738368559
 20
159.6552887024086
 30
0.0
 10
220.6424993653471
 20
131.1364089380681
 30
0.0
 10
218.1424993653471
 20
131.1364089380681
 30
0.0
340
23C3
213
1.177601578005123
223
-0.1753245211093599
233
0.0
1001
ACAD
1000
DSTYLE
1002
{
1070
   147
1040
0.625
1070
    77
1070
     1
1002
}
  0
MTEXT
  5
23C3
102
{ACAD_XDICTIONARY
360
2751
102
}
102
{ACAD_REACTORS
330
23C2
102
}
330
1F
100
AcDbEntity
  8
SOLBET_Wymiary_Opisy
100
AcDbMText
 10
216.339897787342
 20
135.1867334591775
 30
0.0
 40
2.5
 41
0.0
 71
     3
 72
     1
  1
Wieniec \U+017Celbetowy
  7
Solbet_2_5
 73
     1
 44
1.0
1001
ACAD
1000
MTEXTBEGIN
1070
    73
1070
     1
1070
    44
1040
1.0
1070
    74
1070
     0
1000
MTEXTEND
  0
CIRCLE
  5
23C6
330
1F
100
AcDbEntity
  8
SOLBET_Wymiary_Opisy
100
AcDbCircle
 10
147.6255403991472
 20
170.4993146907825
 30
0.0
 40
6.72794034480946
  0
LEADER
  5
23C7
330
1F
100
AcDbEntity
  8
SOLBET_Wymiary_Opisy
100
AcDbLeader
  3
Solbet$7
 73
     0
 74
     0
 75
     1
 40
5.0
 41
4.0
 76
     3
 10
151.2471140692641
 20
176.1693574979604
 30
0.0
 10
154.2182642700806
 20
180.1678442370044
 30
0.0
 10
156.7182642700807
 20
180.1678442370044
 30
0.0
213
0.8103787685154202
223
-0.1753245211093599
233
0.0
1001
ACAD
1000
DSTYLE
1002
{
1070
   341
1005
1EF2
1070
   147
1040
0.625
1070
    77
1070
     1
1002
}
  0
MTEXT
  5
23C8
102
{ACAD_REACTORS
330
23C7
102
}
330
1F
100
AcDbEntity
  8
SOLBET_Wymiary_Opisy
100
AcDbMText
 10
160.5328855015652
 20
185.9681687581137
 30
0.0
 40
5.0
 41
0.0
 71
     3
 72
     1
  1
A
  7
Solbet_5
 73
     1
 44
1.0
1001
ACAD
1000
MTEXTBEGIN
1070
    73
1070
     1
1070
    44
1040
1.0
1070
    74
1070
     0
1000
MTEXTEND
  0
LEADER
  5
23C9
330
1F
100
AcDbEntity
  8
SOLBET_Wymiary_Opisy
100
AcDbLeader
  3
Solbet$7
 73
     0
 74
     0
 75
     1
 40
3.25
 41
20.25
 76
     3
 10
119.9551822781335
 20
156.5042089376737
 30
0.0
 10
125.833604268373
 20
124.746829434614
 30
0.0
 10
128.333604268373
 20
124.746829434614
 30
0.0
340
23CA
213
1.177601578005123
223
-0.1753245211093599
233
0.0
1001
ACAD
1000
DSTYLE
1002
{
1070
   147
1040
0.625
1070
    77
1070
     1
1002
}
  0
MTEXT
  5
23CA
102
{ACAD_REACTORS
330
23C9
102
}
330
1F
100
AcDbEntity
  8
SOLBET_Wymiary_Opisy
100
AcDbMText
 10
148.0310026903679
 20
128.7971539557234
 30
0.0
 40
2.5
 41
0.0
 71
     3
 72
     1
  1
Tynk SOLBET
  7
Solbet_2_5
 73
     1
 44
1.0
1001
ACAD
1000
MTEXTBEGIN
1070
    73
1070
     1
1070
    44
1040
1.0
1070
    74
1070
     0
1000
MTEXTEND
  0
LEADER
  5
23CB
330
1F
100
AcDbEntity
  8
SOLBET_Wymiary_Opisy
100
AcDbLeader
  3
Solbet$7
 73
     0
 74
     0
 75
     1
 40
3.25
 41
19.5
 76
     3
 10
130.6890548735123
 20
162.2542089376737
 30
0.0
 10
138.855926724155
 20
132.4617479075371
 30
0.0
 10
141.355926724155
 20
132.4617479075371
 30
0.0
340
23CC
213
1.177601578005123
223
-0.1753245211093599
233
0.0
1001
ACAD
1000
DSTYLE
1002
{
1070
   147
1040
0.625
1070
    77
1070
     1
1002
}
  0
MTEXT
  5
23CC
102
{ACAD_REACTORS
330
23CB
102
}
330
1F
100
AcDbEntity
  8
SOLBET_Wymiary_Opisy
100
AcDbMText
 10
160.3033251461498
 20
136.5120724286465
 30
0.0
 40
2.5
 41
0.0
 71
     3
 72
     1
  1
Strop Teriva
  7
Solbet_2_5
 73
     1
 44
1.0
1001
ACAD
1000
MTEXTBEGIN
1070
    73
1070
     1
1070
    44
1040
1.0
1070
    74
1070
     0
1000
MTEXTEND
  0
LEADER
  5
23CD
330
1F
100
AcDbEntity
  8
SOLBET_Wymiary_Opisy
100
AcDbLeader
  3
Solbet$7
 73
     0
 74
     0
 75
     1
 40
3.5
 41
37.25
 76
     3
 10
114.1515973461951
 20
79.19300948104939
 30
0.0
 10
136.1940077512832
 20
88.31261420172387
 30
0.0
 10
138.6940077512832
 20
88.31261420172387
 30
0.0
213
1.177601578005123
223
-0.1753245211093599
233
0.0
1001
ACAD
1000
DSTYLE
1002
{
1070
   147
1040
0.625
1070
    77
1070
     1
1002
}
  0
MTEXT
  5
23CE
102
{ACAD_XDICTIONARY
360
2753
102
}
102
{ACAD_REACTORS
330
23CD
102
}
330
1F
100
AcDbEntity
  8
SOLBET_Wymiary_Opisy
100
AcDbMText
 10
138.1414061732781
 20
92.61293872283323
 30
0.0
 40
2.5
 41
0.0
 71
     1
 72
     1
  1
Warstwa wyko\U+0144czeniowa
  7
Solbet_2_5
 73
     1
 44
1.0
1001
ACAD
1000
MTEXTBEGIN
1070
    73
1070
     1
1070
    44
1040
1.0
1070
    74
1070
     0
1000
MTEXTEND
  0
LEADER
  5
23CF
330
1F
100
AcDbEntity
  8
SOLBET_Wymiary_Opisy
100
AcDbLeader
  3
Solbet$7
 73
     0
 74
     0
 75
     1
 40
3.25
 41
32.5
 76
     3
 10
112.0506926402487
 20
71.42689066463055
 30
0.0
 10
135.0164061732781
 20
82.07140767113315
 30
0.0
 10
137.5164061732781
 20
82.07140767113315
 30
0.0
213
0.0
223
-0.2322806831707567
233
0.0
1001
ACAD
1000
DSTYLE
1002
{
1070
   147
1040
0.625
1070
    77
1070
     1
1002
}
  0
MTEXT
  5
23D0
102
{ACAD_REACTORS
330
23CF
102
}
330
1F
100
AcDbEntity
  8
SOLBET_Wymiary_Opisy
100
AcDbMText
 10
138.1414061732781
 20
86.17868835430391
 30
0.0
 40
2.5
 41
0.0
 71
     1
 72
     1
  1
Wylewka jastrychowa
  7
Solbet_2_5
 73
     1
 44
1.0
1001
ACAD
1000
MTEXTBEGIN
1070
    73
1070
     1
1070
    44
1040
1.0
1070
    74
1070
     0
1000
MTEXTEND
  0
LEADER
  5
23D1
330
1F
100
AcDbEntity
  8
SOLBET_Wymiary_Opisy
100
AcDbLeader
  3
Solbet$7
 73
     0
 74
     0
 75
     1
 40
3.25
 41
19.75
 76
     3
 10
114.0892414739479
 20
64.53323096494068
 30
0.0
 10
135.1808660695819
 20
74.84449686398125
 30
0.0
 10
137.6808660695819
 20
74.84449686398125
 30
0.0
213
0.0
223
-0.2322806831707567
233
0.0
1001
ACAD
1000
DSTYLE
1002
{
1070
   147
1040
0.625
1070
    77
1070
     1
1002
}
  0
MTEXT
  5
23D2
102
{ACAD_REACTORS
330
23D1
102
}
330
1F
100
AcDbEntity
  8
SOLBET_Wymiary_Opisy
100
AcDbMText
 10
138.1414061732781
 20
78.54171105154842
 30
0.0
 40
2.5
 41
0.0
 71
     1
 72
     1
  1
Hydroizolacja
  7
Solbet_2_5
 73
     1
 44
1.0
1001
ACAD
1000
MTEXTBEGIN
1070
    73
1070
     1
1070
    44
1040
1.0
1070
    74
1070
     0
1000
MTEXTEND
  0
LEADER
  5
23D3
330
1F
100
AcDbEntity
  8
SOLBET_Wymiary_Opisy
100
AcDbLeader
  3
Solbet$7
 73
     0
 74
     0
 75
     1
 40
3.25
 41
36.5
 76
     3
 10
117.1693825736001
 20
55.65889637992136
 30
0.0
 10
135.0164061732781
 20
65.90232856612061
 30
0.0
 10
137.5164061732781
 20
65.90232856612061
 30
0.0
213
0.0
223
-0.2322806831707567
233
0.0
1001
ACAD
1000
DSTYLE
1002
{
1070
   147
1040
0.625
1070
    77
1070
     1
1002
}
  0
MTEXT
  5
23D4
102
{ACAD_XDICTIONARY
360
2755
102
}
102
{ACAD_REACTORS
330
23D3
102
}
330
1F
100
AcDbEntity
  8
SOLBET_Wymiary_Opisy
100
AcDbMText
 10
138.1414061732781
 20
70.22158815658923
 30
0.0
 40
2.5
 41
0.0
 71
     1
 72
     1
  1
P\U+0142yty izolacyjne twarde
  7
Solbet_2_5
 73
     1
 44
1.0
1001
ACAD
1000
MTEXTBEGIN
1070
    73
1070
     1
1070
    44
1040
1.0
1070
    74
1070
     0
1000
MTEXTEND
  0
LINE
  5
23D5
330
1F
100
AcDbEntity
  8
SOLBET_Wymiary_Opisy
100
AcDbLine
 10
124.1109827771566
 20
80.42056856485624
 30
0.0
 11
124.1109827771566
 21
25.45611685809734
 31
0.0
  0
LINE
  5
23D6
330
1F
100
AcDbEntity
  8
SOLBET_Izolacja
100
AcDbLine
 10
80.22463683755052
 20
51.05403439708021
 30
0.0
 11
124.1109827771566
 21
51.05403439708021
 31
0.0
  0
LINE
  5
23D7
330
1F
100
AcDbEntity
  8
SOLBET_Izolacja
100
AcDbLine
 10
80.22463683755052
 20
63.55403439708016
 30
0.0
 11
124.1109827771566
 21
63.55403439708021
 31
0.0
  0
LINE
  5
23D8
330
1F
100
AcDbEntity
  8
SOLBET_Tynki_Posadzki
100
AcDbLine
 10
88.83982969960163
 20
80.42056856485624
 30
0.0
 11
124.1109827771566
 21
80.42056856485624
 31
0.0
  0
LINE
  5
23D9
330
1F
100
AcDbEntity
  8
SOLBET_Emulsje_Folie
100
AcDbLine
 10
80.42489833359161
 20
64.53323096494068
 30
0.0
 11
124.1109827771566
 21
64.53323096494068
 31
0.0
  0
HATCH
  5
23DA
330
1F
100
AcDbEntity
  8
SOLBET_Tynki_Posadzki
100
AcDbHatch
 10
0.0
 20
0.0
 30
0.0
210
0.0
220
0.0
230
1.0
  2
AR-CONC
 70
     0
 71
     0
 91
        1
 92
        5
 93
        4
 72
     2
 10
113.2786385935084
 20
57.30403439708033
 40
33.63970172404727
 50
142.2031821742316
 51
166.0379938227853
 73
     1
 72
     1
 10
80.63279038602297
 20
65.42056856485721
 11
124.1109827771563
 21
65.42056856485721
 72
     1
 10
124.1109827771566
 20
65.42056856485721
 11
124.1109827771572
 21
77.92056856485607
 72
     1
 10
124.1109827771571
 20
77.92056856485607
 11
86.69691459012984
 21
77.92056856485607
 97
        0
 75
     0
 76
     1
 52
0.0
 41
0.03
 77
     0
 78
    13
 53
50.0
 43
750.2068337139122
 44
-19.82798438165736
 45
5.46554006988012
 46
-0.4781725661670926
 79
     2
 49
0.5715
 49
-6.2865
 53
355.0
 43
750.2068337139122
 44
-19.82798438165736
 45
-1.057284779270009
 46
5.731699286465398
 79
     2
 49
0.4572
 49
-5.029199999999999
 53
100.451
 43
750.6622937139121
 44
-19.86783188165737
 45
4.408275049978777
 46
5.253500634608755
 79
     2
 49
0.4857000000000001
 49
-5.342699999999999
 53
46.1842
 43
750.2068337139122
 44
-18.30398438165736
 45
8.132371226763897
 46
-1.261269837981814
 79
     2
 49
0.8572499999999999
 49
-9.429749999999998
 53
96.6356
 43
750.8845307139121
 44
-18.40908938165737
 45
7.122127033987114
 46
7.422766676701476
 79
     2
 49
0.7285500000000001
 49
-8.014049999999999
 53
351.184
 43
750.2068337139122
 44
-18.30398438165736
 45
7.122138174418017
 46
7.422753535817929
 79
     2
 49
0.6858
 49
-7.5438
 53
21.0
 43
750.9688337139122
 44
-18.68498438165736
 45
4.548446395061498
 46
-3.067965555502874
 79
     2
 49
0.5715
 49
-6.2865
 53
326.0
 43
750.9688337139122
 44
-18.68498438165736
 45
1.854060850429411
 46
5.525638983669577
 79
     2
 49
0.4572
 49
-5.029199999999999
 53
71.45140000000001
 43
751.3478687139121
 44
-18.94064738165736
 45
6.402494723103733
 46
2.457685731481723
 79
     2
 49
0.4857000000000001
 49
-5.342699999999999
 53
37.5
 43
750.2068337139122
 44
-19.82798438165736
 45
0.0926580975177545
 46
2.536651166194593
 79
     6
 49
0.0
 49
-4.968239999999999
 49
0.0
 49
-5.1054
 49
0.0
 49
-5.04825
 53
7.499999999999999
 43
750.2068337139122
 44
-19.82798438165736
 45
2.004589875309172
 46
3.005417244543585
 79
     6
 49
0.0
 49
-2.910839999999999
 49
0.0
 49
-4.853939999999999
 49
0.0
 49
-1.92405
 53
327.5
 43
748.5075737139121
 44
-19.82798438165736
 45
4.067717855006141
 46
-0.1718623197802037
 79
     6
 49
0.0
 49
-1.905
 49
0.0
 49
-5.943599999999999
 49
0.0
 49
-7.886699999999999
 53
317.5
 43
747.7455737139122
 44
-19.82798438165736
 45
4.443875441580541
 46
0.7627947309999904
 79
     6
 49
0.0
 49
-2.476499999999999
 49
0.0
 49
-3.947159999999999
 49
0.0
 49
-5.600699999999999
 47
0.0387476598051738
 98
        1
 10
103.5814271377004
 20
71.51810686247102
1001
ACAD
1010
0.0
1020
0.0
1030
0.0
  0
LWPOLYLINE
  5
23DB
330
1F
100
AcDbEntity
  8
SOLBET_Tynki_Posadzki
100
AcDbPolyline
 90
        4
 70
     0
 43
0.0
 10
80.63279038602297
 20
65.42056856485721
 10
124.1109827771566
 20
65.42056856485721
 10
124.1109827771571
 20
77.92056856485624
 10
86.69691459013041
 20
77.92056856485624
1001
ASO_SCHRAFF
1005
0
1070
     1
1002
{
1070
     1
1005
0
1002
}
1002
{
1070
     2
1005
0
1002
}
1002
{
1070
     4
1000
AR-CONC
1040
0.01
1040
0.0
1070
     0
1000
T__SCHR
1070
   256
1000
_bylayer
1040
50.0
1070
     1
1002
}
  0
LWPOLYLINE
  5
23DC
330
1F
100
AcDbEntity
  8
SOLBET_Beton
100
AcDbPolyline
 90
        3
 70
     0
 43
0.0
 10
81.04386519602632
 20
47.68379967562816
 10
124.1109827771566
 20
47.68379967562816
 10
124.1109827771566
 20
25.45611685809717
  0
LINE
  5
23DD
330
1F
100
AcDbEntity
  8
SOLBET_Izolacja
  6
BATTING
 48
0.6
100
AcDbLine
 10
79.63893686946142
 20
57.30403439708021
 30
0.0
 11
124.1109827771566
 21
57.30403439708021
 31
0.0
  0
ARC
  5
23DE
330
1F
100
AcDbEntity
  8
SOLBET_Wymiary_Opisy
100
AcDbCircle
 10
113.2786385935084
 20
57.30403439708021
 30
0.0
 40
33.6397017240473
100
AcDbArc
 50
136.5926968744823
 51
288.7845676764008
  0
MTEXT
  5
23DF
102
{ACAD_XDICTIONARY
360
2651
102
}
330
1F
100
AcDbEntity
  8
SOLBET_Wymiary_Opisy
100
AcDbMText
 10
89.50763722728892
 20
109.0868828949504
 30
0.0
 40
5.0
 41
30.77919768571883
 71
     1
 72
     5
  1
\pxqc;A\P(5 : 1)
  7
Solbet_5
 73
     1
 44
1.0
1001
ACAD
1000
MTEXTBEGIN
1070
    73
1070
     1
1070
    44
1040
1.0
1070
    74
1070
     0
1000
MTEXTEND
1000
ACAD_MTEXT_DEFINED_HEIGHT_BEGIN
1070
    46
1040
23.42535011036716
1000
ACAD_MTEXT_DEFINED_HEIGHT_END
  0
LINE
  5
23E0
330
1F
100
AcDbEntity
  8
SOLBET_Beton
100
AcDbLine
 10
116.9087543362476
 20
47.68379967562816
 30
0.0
 11
116.9087543362476
 21
23.86077211934798
 31
0.0
  0
LINE
  5
23E1
330
1F
100
AcDbEntity
  8
SOLBET_Zbrojenie_Konstrukcja
100
AcDbLine
 10
124.1109827771566
 20
40.26512916050615
 30
0.0
 11
84.27337630505599
 21
40.26512916050615
 31
0.0
  0
LINE
  5
23E2
330
1F
100
AcDbEntity
  8
SOLBET_Zbrojenie_Konstrukcja
100
AcDbLine
 10
110.5336650644061
 20
40.26512916050615
 30
0.0
 11
119.8208395481247
 21
24.30662330541594
 31
0.0
  0
LINE
  5
23E3
330
1F
100
AcDbEntity
  8
SOLBET_Zbrojenie_Konstrukcja
100
AcDbLine
 10
110.5336650644061
 20
40.26512916050615
 30
0.0
 11
102.1648464731633
 21
25.55323666239914
 31
0.0
  0
LINE
  5
24F8
330
1F
100
AcDbEntity
  8
SOLBET_Izolacja
100
AcDbLine
 10
79.42032777618408
 20
198.9649663135537
 30
0.0
 11
79.42032777618408
 21
148.191619062275
 31
0.0
  0
LINE
  5
24F9
330
1F
100
AcDbEntity
  8
SOLBET_Beton
100
AcDbLine
 10
87.4203276004472
 20
157.2493147128695
 30
0.0
 11
79.42032777618408
 21
157.2493147128695
 31
0.0
  0
LINE
  5
24FA
330
1F
100
AcDbEntity
  8
SOLBET_Beton
100
AcDbLine
 10
79.42032777618408
 20
157.2493147128695
 30
0.0
 11
79.42032777618419
 21
169.2493147422935
 31
0.0
  0
LINE
  5
24FB
330
1F
100
AcDbEntity
  8
SOLBET_Beton
100
AcDbLine
 10
79.42032777618419
 20
169.2493147422935
 30
0.0
 11
151.9192490763445
 21
169.249314668694
 31
0.0
  0
LINE
  5
24FC
330
1F
100
AcDbEntity
  8
SOLBET_Beton
100
AcDbLine
 10
151.9192490763445
 20
169.249314668694
 30
0.0
 11
151.9192490763445
 21
159.2493146936438
 31
0.0
  0
LINE
  5
24FE
330
1F
100
AcDbEntity
  8
SOLBET_Beton
100
AcDbLine
 10
151.9192490763524
 20
159.2493147275815
 30
0.0
 11
87.4203276004472
 21
159.2493147275815
 31
0.0
  0
LINE
  5
24FF
330
1F
100
AcDbEntity
  8
SOLBET_Beton
100
AcDbLine
 10
87.4203276004472
 20
159.2493147275815
 30
0.0
 11
87.4203276004472
 21
157.2493147128695
 31
0.0
  0
INSERT
  5
26C5
330
1F
100
AcDbEntity
  8
SOLBET_Bloczki
100
AcDbBlockReference
  2
SOLBET_Bloczek_Optimal_240x240x590_G_KG500_PRA
 10
79.42032777618408
 20
169.2493147422935
 30
0.0
  0
INSERT
  5
26C6
330
1F
100
AcDbEntity
  8
SOLBET_Bloczki
100
AcDbBlockReference
  2
SOLBET_Bloczek_Optimal_240x240x590_G_KG500_PRA
 10
79.42032795193256
 20
181.2493147011061
 30
0.0
  0
INSERT
  5
26C7
330
1F
100
AcDbEntity
  8
SOLBET_Bloczki
100
AcDbBlockReference
  2
SOLBET_Bloczek_Optimal_240x240x590_G_KG500_PRA
 10
244.4350510634605
 20
169.2493147128695
 30
0.0
  0
INSERT
  5
26C8
330
1F
100
AcDbEntity
  8
SOLBET_Bloczki
100
AcDbBlockReference
  2
SOLBET_Bloczek_Optimal_240x240x590_G_KG500_PRA
 10
244.435051239209
 20
181.2493146716822
 30
0.0
  0
MTEXT
  5
2707
102
{ACAD_XDICTIONARY
360
2708
102
}
330
1F
100
AcDbEntity
  8
SOLBET_Wymiary_Opisy
100
AcDbMText
 10
301.6689614924635
 20
7.273150535415538
 30
0.0
 40
5.0
 41
0.0
 71
     1
 72
     5
  1
Skala 1:20
  7
Solbet_5
 73
     1
 44
1.0
1001
ACAD
1000
MTEXTBEGIN
1070
    73
1070
     1
1070
    44
1040
1.0
1070
    74
1070
     0
1000
MTEXTEND
1000
ACAD_MTEXT_DEFINED_HEIGHT_BEGIN
1070
    46
1040
5.395147572682731
1000
ACAD_MTEXT_DEFINED_HEIGHT_END
  0
LWPOLYLINE
  5
270A
330
1F
100
AcDbEntity
  8
SOLBET_Ramka_05
100
AcDbPolyline
 90
        4
 70
     1
 43
0.0
 10
298.6502953715497
 20
9.804221198935465
 10
334.7664722589718
 20
9.804221198935465
 10
334.7664722589718
 20
0.0
 10
298.6502953715497
 20
0.0
  0
ENDSEC
  0
SECTION
  2
OBJECTS
  0
DICTIONARY
  5
C
330
0
100
AcDbDictionary
281
     1
  3
ACAD_COLOR
350
6B
  3
ACAD_GROUP
350
D
  3
ACAD_LAYOUT
350
1A
  3
ACAD_MATERIAL
350
6A
  3
ACAD_MLEADERSTYLE
350
12D
  3
ACAD_MLINESTYLE
350
17
  3
ACAD_PLOTSETTINGS
350
19
  3
ACAD_PLOTSTYLENAME
350
E
  3
ACAD_SCALELIST
350
10C
  3
ACAD_TABLESTYLE
350
7E
  3
ACAD_VISUALSTYLE
350
EF
  3
ACDB_RECOMPOSE_DATA
350
15D
  3
AcDbVariableDictionary
350
5E
  3
DWGPROPS
350
273B
  0
DICTIONARY
  5
443
330
8
100
AcDbDictionary
280
     1
281
     1
  0
DICTIONARY
  5
3E5
330
2
100
AcDbDictionary
280
     1
281
     1
  3
ACAD_LAYERFILTERS
360
1883
  3
ACLYDICTIONARY
360
1882
  0
DICTIONARY
  5
13C
330
10
100
AcDbDictionary
280
     1
281
     1
  3
ADSK_XREC_LAYER_RECONCILED
360
3F4
  0
DICTIONARY
  5
403
330
3DD
100
AcDbDictionary
280
     1
281
     1
  3
ADSK_XREC_LAYER_RECONCILED
360
404
  0
DICTIONARY
  5
405
330
3DF
100
AcDbDictionary
280
     1
281
     1
  3
ADSK_XREC_LAYER_RECONCILED
360
406
  0
DICTIONARY
  5
407
330
3E0
100
AcDbDictionary
280
     1
281
     1
  3
ADSK_XREC_LAYER_RECONCILED
360
408
  0
DICTIONARY
  5
409
330
3E1
100
AcDbDictionary
280
     1
281
     1
  3
ADSK_XREC_LAYER_RECONCILED
360
40A
  0
DICTIONARY
  5
40B
330
3E2
100
AcDbDictionary
280
     1
281
     1
  3
ADSK_XREC_LAYER_RECONCILED
360
40C
  0
DICTIONARY
  5
40F
330
3E4
100
AcDbDictionary
280
     1
281
     1
  3
ADSK_XREC_LAYER_RECONCILED
360
410
  0
DICTIONARY
  5
411
330
3E8
100
AcDbDictionary
280
     1
281
     1
  3
ADSK_XREC_LAYER_RECONCILED
360
412
  0
DICTIONARY
  5
264F
330
264E
100
AcDbDictionary
280
     1
281
     1
  3
ASDK_XREC_ANNO_SCALE_INFO
360
2650
  0
DICTIONARY
  5
4A3
330
1F
100
AcDbDictionary
280
     1
281
     1
  3
ACAD_SORTENTS
360
4A4
  0
DICTIONARY
  5
22F9
330
22EE
100
AcDbDictionary
280
     1
281
     1
  3
ACAD_SORTENTS
360
22FA
  0
DICTIONARY
  5
26C1
330
26B6
100
AcDbDictionary
280
     1
281
     1
  3
ACAD_SORTENTS
360
26C2
  0
DICTIONARY
  5
2278
330
2277
100
AcDbDictionary
280
     1
281
     1
  3
ACAD_MTEXT_RT
360
2748
  3
AcDbContextDataManager
360
2279
  0
DICTIONARY
  5
228D
330
228C
100
AcDbDictionary
280
     1
281
     1
  3
ACAD_MTEXT_RT
360
2749
  3
AcDbContextDataManager
360
228E
  0
DICTIONARY
  5
2292
330
2291
100
AcDbDictionary
280
     1
281
     1
  3
ACAD_MTEXT_RT
360
274A
  3
AcDbContextDataManager
360
2293
  0
DICTIONARY
  5
274B
330
23B7
100
AcDbDictionary
280
     1
281
     1
  3
ACAD_MTEXT_RT
360
274C
  0
DICTIONARY
  5
274D
330
23B9
100
AcDbDictionary
280
     1
281
     1
  3
ACAD_MTEXT_RT
360
274E
  0
DICTIONARY
  5
274F
330
23BD
100
AcDbDictionary
280
     1
281
     1
  3
ACAD_MTEXT_RT
360
2750
  0
DICTIONARY
  5
2751
330
23C3
100
AcDbDictionary
280
     1
281
     1
  3
ACAD_MTEXT_RT
360
2752
  0
DICTIONARY
  5
2753
330
23CE
100
AcDbDictionary
280
     1
281
     1
  3
ACAD_MTEXT_RT
360
2754
  0
DICTIONARY
  5
2755
330
23D4
100
AcDbDictionary
280
     1
281
     1
  3
ACAD_MTEXT_RT
360
2756
  0
DICTIONARY
  5
2651
330
23DF
100
AcDbDictionary
280
     1
281
     1
  3
ACAD_MTEXT_2008_RT
360
2652
  0
DICTIONARY
  5
2708
330
2707
100
AcDbDictionary
280
     1
281
     1
  3
ACAD_MTEXT_2008_RT
360
2709
  0
DICTIONARY
  5
6B
102
{ACAD_REACTORS
330
C
102
}
330
C
100
AcDbDictionary
281
     1
  0
DICTIONARY
  5
D
102
{ACAD_REACTORS
330
C
102
}
330
C
100
AcDbDictionary
281
     1
  0
DICTIONARY
  5
1A
102
{ACAD_REACTORS
330
C
102
}
330
C
100
AcDbDictionary
281
     1
  3
Arkusz1
350
D3
  3
Arkusz2
350
D7
  3
Model
350
22
  0
DICTIONARY
  5
6A
102
{ACAD_REACTORS
330
C
102
}
330
C
100
AcDbDictionary
281
     1
  3
ByBlock
350
ED
  3
ByLayer
350
EC
  3
Global
350
EE
  0
DICTIONARY
  5
12D
102
{ACAD_REACTORS
330
C
102
}
330
C
100
AcDbDictionary
281
     1
  3
Standard
350
12E
  0
DICTIONARY
  5
17
102
{ACAD_REACTORS
330
C
102
}
330
C
100
AcDbDictionary
281
     1
  3
SOLBET_IZOLACJA
350
7E9
  3
Standard
350
18
  0
DICTIONARY
  5
19
102
{ACAD_REACTORS
330
C
102
}
330
C
100
AcDbDictionary
281
     1
  0
ACDBDICTIONARYWDFLT
  5
E
102
{ACAD_REACTORS
330
C
102
}
330
C
100
AcDbDictionary
281
     1
  3
Normal
350
F
100
AcDbDictionaryWithDefault
340
F
  0
DICTIONARY
  5
10C
102
{ACAD_REACTORS
330
C
102
}
330
C
100
AcDbDictionary
281
     1
  3
A0
350
10D
  3
A1
350
188
  3
A2
350
189
  3
A3
350
18A
  3
A4
350
18B
  3
A5
350
18C
  3
A6
350
18D
  3
A7
350
18E
  3
A8
350
18F
  3
A9
350
190
  3
B0
350
191
  3
B1
350
192
  3
B2
350
193
  3
B3
350
194
  3
B4
350
195
  3
B5
350
196
  3
B6
350
197
  3
B7
350
198
  3
B8
350
199
  3
B9
350
19A
  3
C0
350
19B
  3
C1
350
19C
  3
C2
350
19D
  3
C3
350
19E
  3
C4
350
19F
  3
C5
350
1A0
  3
C6
350
1A1
  3
C7
350
1A2
  3
C8
350
1A3
  3
C9
350
1A4
  3
D0
350
1A5
  3
D1
350
1A6
  3
D2
350
1A7
  0
DICTIONARY
  5
7E
102
{ACAD_REACTORS
330
C
102
}
330
C
100
AcDbDictionary
281
     1
  3
Standard
350
7F
  0
DICTIONARY
  5
EF
102
{ACAD_REACTORS
330
C
102
}
330
C
100
AcDbDictionary
281
     1
  3
2dWireframe
350
F5
  3
3D Hidden
350
F7
  3
3dWireframe
350
F6
  3
Basic
350
F4
  3
Brighten
350
FB
  3
ColorChange
350
FF
  3
Conceptual
350
F8
  3
Dim
350
FA
  3
Facepattern
350
FE
  3
Flat
350
F0
  3
FlatWithEdges
350
F1
  3
Gouraud
350
F2
  3
GouraudWithEdges
350
F3
  3
Linepattern
350
FD
  3
Realistic
350
F9
  3
Thicken
350
FC
  0
XRECORD
  5
15D
102
{ACAD_REACTORS
330
C
102
}
330
C
100
AcDbXrecord
280
     1
 90
        1
330
7F
330
2277
330
228C
330
2291
330
23DF
  0
DICTIONARY
  5
5E
102
{ACAD_REACTORS
330
C
102
}
330
C
100
AcDbDictionary
281
     1
  3
CANNOSCALE
350
146
  3
CMLEADERSTYLE
350
145
  3
CTABLESTYLE
350
84
  3
DIMASSOC
350
5F
  3
HIDETEXT
350
63
  3
INDEXCTL
350
466
  3
LIGHTINGUNITS
350
464
  3
MSLTSCALE
350
463
  3
PSOLHEIGHT
350
273A
  3
PSOLWIDTH
350
2739
  3
SORTENTS
350
465
  0
XRECORD
  5
273B
102
{ACAD_REACTORS
330
C
102
}
330
C
100
AcDbXrecord
280
     1
  1
DWGPROPS COOKIE
  2

  3

  4

  6

  7

  8
Olus
  9

300
=
301
=
302
=
303
=
304
=
305
=
306
=
307
=
308
=
309
=
 40
0.4629668865740741
 41
2454690.075573148
 42
2454848.876894618
  1

 90
        0
  0
DICTIONARY
  5
1883
102
{ACAD_REACTORS
330
3E5
102
}
330
3E5
100
AcDbDictionary
281
     1
  0
DICTIONARY
  5
1882
102
{ACAD_REACTORS
330
3E5
102
}
330
3E5
100
AcDbDictionary
281
     1
1001
ACAD
1000
<All
  0
XRECORD
  5
3F4
102
{ACAD_REACTORS
330
13C
102
}
330
13C
100
AcDbXrecord
280
     1
290
     1
  0
XRECORD
  5
404
102
{ACAD_REACTORS
330
403
102
}
330
403
100
AcDbXrecord
280
     1
290
     1
  0
XRECORD
  5
406
102
{ACAD_REACTORS
330
405
102
}
330
405
100
AcDbXrecord
280
     1
290
     1
  0
XRECORD
  5
408
102
{ACAD_REACTORS
330
407
102
}
330
407
100
AcDbXrecord
280
     1
290
     1
  0
XRECORD
  5
40A
102
{ACAD_REACTORS
330
409
102
}
330
409
100
AcDbXrecord
280
     1
290
     1
  0
XRECORD
  5
40C
102
{ACAD_REACTORS
330
40B
102
}
330
40B
100
AcDbXrecord
280
     1
290
     1
  0
XRECORD
  5
410
102
{ACAD_REACTORS
330
40F
102
}
330
40F
100
AcDbXrecord
280
     1
290
     1
  0
XRECORD
  5
412
102
{ACAD_REACTORS
330
411
102
}
330
411
100
AcDbXrecord
280
     1
290
     1
  0
XRECORD
  5
2650
102
{ACAD_REACTORS
330
264F
102
}
330
264F
100
AcDbXrecord
280
     1
 70
     1
340
10D
340
3DF
 70
    -1
  0
SORTENTSTABLE
  5
4A4
102
{ACAD_REACTORS
330
4A3
102
}
330
4A3
100
AcDbSortentsTable
330
1F
331
22B9
  5
2297
331
2272
  5
231C
331
2347
  5
22AB
331
22C1
  5
223E
331
234F
  5
22C4
331
22C9
  5
224A
331
2310
  5
2339
331
21D7
  5
21ED
331
222E
  5
22B9
331
2318
  5
2341
331
22D1
  5
2252
331
229A
  5
21D8
331
2377
  5
2375
331
2320
  5
2349
331
22D9
  5
225A
331
2253
  5
22DE
331
22A2
  5
21E0
331
225B
  5
22E5
331
22E1
  5
229E
331
2338
  5
234F
331
22E9
  5
22A6
331
22B2
  5
2273
331
220F
  5
2226
331
2340
  5
2267
331
22BA
  5
2298
331
2273
  5
231D
331
2348
  5
22AD
331
22C2
  5
223F
331
2309
  5
2338
331
22CA
  5
224B
331
2311
  5
233A
331
21D8
  5
21EE
331
2319
  5
2342
331
22D2
  5
2253
331
229B
  5
21D9
331
2378
  5
2376
331
22DA
  5
225B
331
22A3
  5
21E1
331
22E2
  5
229F
331
225C
  5
22E6
331
22AB
  5
21E9
331
22EA
  5
22A7
331
22B3
  5
2274
331
21E0
  5
21F6
331
21F0
  5
220B
331
2341
  5
2268
331
22BB
  5
2299
331
2274
  5
231E
331
2349
  5
22AE
331
22C3
  5
2240
331
2351
  5
22C3
331
228C
  5
2322
331
22CB
  5
224C
331
2312
  5
233B
331
2210
  5
2227
331
2218
  5
222F
331
21D9
  5
21EF
331
231A
  5
2343
331
224D
  5
22D8
331
229C
  5
21DA
331
2322
  5
220A
331
2379
  5
2377
331
22DB
  5
225C
331
2255
  5
22DF
331
22A4
  5
21E2
331
22E3
  5
22A0
331
22AC
  5
226D
331
22EB
  5
22A8
331
22B4
  5
2275
331
21E1
  5
21F9
331
2230
  5
22BB
331
21E9
  5
2201
331
2342
  5
226A
331
22BC
  5
229A
331
234A
  5
22AF
331
22C4
  5
2245
331
22CC
  5
224D
331
2313
  5
233C
331
2219
  5
2230
331
2221
  5
2236
331
21DA
  5
21F0
331
2229
  5
22B4
331
231B
  5
2344
331
22D4
  5
2255
331
224E
  5
22D9
331
229D
  5
21DB
331
22DC
  5
225D
331
2256
  5
22E0
331
22A5
  5
21E3
331
2333
  5
234A
331
22E4
  5
22A1
331
22AD
  5
226E
331
233B
  5
2261
331
22B5
  5
2277
331
226E
  5
2318
331
2231
  5
22BC
331
21EA
  5
2202
331
2343
  5
226B
331
22BD
  5
229B
331
2276
  5
231F
331
234B
  5
22B0
331
22C5
  5
2246
331
22CD
  5
224E
331
2314
  5
233D
331
2296
  5
21D4
331
2212
  5
2228
331
221A
  5
2231
331
2222
  5
2237
331
21DB
  5
21F1
331
222A
  5
22B5
331
231C
  5
2345
331
22D5
  5
2256
331
224F
  5
22DA
331
229E
  5
21DC
331
22DD
  5
225E
331
2257
  5
22E1
331
22A6
  5
21E4
331
2334
  5
234B
331
22E5
  5
22A2
331
22AE
  5
226F
331
233C
  5
2262
331
22B6
  5
228C
331
226F
  5
2319
331
21E3
  5
21FB
331
2232
  5
22BD
331
21EB
  5
2203
331
223A
  5
22C2
331
220B
  5
2350
331
2344
  5
226C
331
22BE
  5
229C
331
2277
  5
2320
331
234C
  5
22B1
331
22C6
  5
2247
331
22CE
  5
224F
331
2315
  5
233E
331
2297
  5
21D5
331
221B
  5
2232
331
21D4
  5
21EA
331
2223
  5
223A
331
222B
  5
22B6
331
231D
  5
2346
331
2374
  5
2351
331
22D6
  5
2257
331
2250
  5
22DB
331
229F
  5
21DD
331
22DE
  5
225F
331
2258
  5
22E2
331
22A7
  5
21E5
331
2335
  5
234C
331
22E6
  5
22A3
331
22AF
  5
2270
331
233D
  5
2263
331
22B7
  5
2291
331
2233
  5
22BE
331
21F4
  5
220E
331
2270
  5
231A
331
2345
  5
22A9
331
234D
  5
22B2
331
22C7
  5
2248
331
22CF
  5
2250
331
2316
  5
233F
331
2214
  5
222B
331
21D5
  5
21EB
331
2224
  5
2379
331
21DD
  5
21F3
331
222C
  5
22B7
331
231E
  5
2347
331
2375
  5
2352
331
2251
  5
22DC
331
22A0
  5
21DE
331
22D7
  5
2258
331
2259
  5
22E3
331
22DF
  5
2260
331
2336
  5
234D
331
22E7
  5
22A4
331
22B0
  5
2271
331
233E
  5
2265
331
2234
  5
22BF
331
223C
  5
22C8
331
21F5
  5
220F
331
220D
  5
2374
331
22B8
  5
2296
331
2271
  5
231B
331
2346
  5
22AA
331
22C0
  5
223C
331
234E
  5
22B3
331
22C8
  5
2249
331
2291
  5
2333
331
2317
  5
2340
331
2215
  5
222C
331
21D6
  5
21EC
331
222D
  5
22B8
331
22D0
  5
2251
331
224A
  5
22D5
331
2299
  5
21D7
331
231F
  5
2348
331
2376
  5
2353
331
22D8
  5
2259
331
2252
  5
22DD
331
22A1
  5
21DF
331
225A
  5
22E4
331
22E0
  5
229D
331
2337
  5
234E
331
22E8
  5
22A5
331
22B1
  5
2272
331
233F
  5
2266
331
21E6
  5
21FE
331
2235
  5
22C0
331
2245
  5
22D0
331
21F6
  5
2210
331
220E
  5
2378
  0
SORTENTSTABLE
  5
22FA
102
{ACAD_REACTORS
330
22F9
102
}
330
22F9
100
AcDbSortentsTable
330
22EE
  0
SORTENTSTABLE
  5
26C2
102
{ACAD_REACTORS
330
26C1
102
}
330
26C1
100
AcDbSortentsTable
330
26B6
  0
XRECORD
  5
2748
102
{ACAD_REACTORS
330
2278
102
}
330
2278
100
AcDbXrecord
280
     1
 40
331607.0
  1
{\LDETAL 61\P}Oparcie stropu Teriva na ścianach zewnętrznych warstwowych
  0
DICTIONARY
  5
2279
102
{ACAD_REACTORS
330
2278
102
}
330
2278
100
AcDbDictionary
281
     1
  3
ACDB_ANNOTATIONSCALES
350
227A
  0
XRECORD
  5
2749
102
{ACAD_REACTORS
330
228D
102
}
330
228D
100
AcDbXrecord
280
     1
 40
239015.0
  1
Na ścianie zewnętrznej\Pprostopadłej do kierunku belek
  0
DICTIONARY
  5
228E
102
{ACAD_REACTORS
330
228D
102
}
330
228D
100
AcDbDictionary
281
     1
  3
ACDB_ANNOTATIONSCALES
350
228F
  0
XRECORD
  5
274A
102
{ACAD_REACTORS
330
2292
102
}
330
2292
100
AcDbXrecord
280
     1
 40
263140.0
  1
Na ścianie zewnętrznej\Prównoległej do kierunku belek
  0
DICTIONARY
  5
2293
102
{ACAD_REACTORS
330
2292
102
}
330
2292
100
AcDbDictionary
281
     1
  3
ACDB_ANNOTATIONSCALES
350
2294
  0
XRECORD
  5
274C
102
{ACAD_REACTORS
330
274B
102
}
330
274B
100
AcDbXrecord
280
     1
 40
25446.0
  1
Wieniec żelbetowy
  0
XRECORD
  5
274E
102
{ACAD_REACTORS
330
274D
102
}
330
274D
100
AcDbXrecord
280
     1
 40
100191.0
  1
Zbrojenie górne\Pstrefy przypodporowej
  0
XRECORD
  5
2750
102
{ACAD_REACTORS
330
274F
102
}
330
274F
100
AcDbXrecord
280
     1
 40
100191.0
  1
Zbrojenie górne\Pstrefy przypodporowej
  0
XRECORD
  5
2752
102
{ACAD_REACTORS
330
2751
102
}
330
2751
100
AcDbXrecord
280
     1
 40
25446.0
  1
Wieniec żelbetowy
  0
XRECORD
  5
2754
102
{ACAD_REACTORS
330
2753
102
}
330
2753
100
AcDbXrecord
280
     1
 40
34960.0
  1
Warstwa wykończeniowa
  0
XRECORD
  5
2756
102
{ACAD_REACTORS
330
2755
102
}
330
2755
100
AcDbXrecord
280
     1
 40
42625.0
  1
Płyty izolacyjne twarde
  0
XRECORD
  5
2652
102
{ACAD_REACTORS
330
2651
102
}
330
2651
100
AcDbXrecord
280
     1
 40
24693.0
  1
\pxqc;A\P(5 : 1)
  0
XRECORD
  5
2709
102
{ACAD_REACTORS
330
2708
102
}
330
2708
100
AcDbXrecord
280
     1
 40
24748.0
  1
\pxqc;C\P(5 : 1)
  0
LAYOUT
  5
D3
102
{ACAD_XDICTIONARY
360
273F
102
}
102
{ACAD_REACTORS
330
1A
102
}
330
1A
100
AcDbPlotSettings
  1

  2
C:\Documents and Settings\basas\Application Data\Autodesk\AutoCAD 2005\R16.1\enu\plotters\Default Windows System Printer.pc3
  4

  6

 40
0.0
 41
0.0
 42
0.0
 43
0.0
 44
0.0
 45
0.0
 46
0.0
 47
0.0
 48
0.0
 49
0.0
140
0.0
141
0.0
142
1.0
143
1.0
 70
   688
 72
     0
 73
     0
 74
     5
  7

 75
    16
147
1.0
148
0.0
149
0.0
100
AcDbLayout
  1
Arkusz1
 70
     1
 71
     1
 10
0.0
 20
0.0
 11
12.0
 21
9.0
 12
0.0
 22
0.0
 32
0.0
 14
0.0
 24
0.0
 34
0.0
 15
0.0
 25
0.0
 35
0.0
146
0.0
 13
0.0
 23
0.0
 33
0.0
 16
1.0
 26
0.0
 36
0.0
 17
0.0
 27
1.0
 37
0.0
 76
     0
330
D2
  0
LAYOUT
  5
D7
102
{ACAD_XDICTIONARY
360
2741
102
}
102
{ACAD_REACTORS
330
1A
102
}
330
1A
100
AcDbPlotSettings
  1

  2
C:\Documents and Settings\basas\Application Data\Autodesk\AutoCAD 2005\R16.1\enu\plotters\Default Windows System Printer.pc3
  4

  6

 40
0.0
 41
0.0
 42
0.0
 43
0.0
 44
0.0
 45
0.0
 46
0.0
 47
0.0
 48
0.0
 49
0.0
140
0.0
141
0.0
142
1.0
143
1.0
 70
   688
 72
     0
 73
     0
 74
     5
  7

 75
    16
147
1.0
148
0.0
149
0.0
100
AcDbLayout
  1
Arkusz2
 70
     1
 71
     2
 10
0.0
 20
0.0
 11
12.0
 21
9.0
 12
0.0
 22
0.0
 32
0.0
 14
0.0
 24
0.0
 34
0.0
 15
0.0
 25
0.0
 35
0.0
146
0.0
 13
0.0
 23
0.0
 33
0.0
 16
1.0
 26
0.0
 36
0.0
 17
0.0
 27
1.0
 37
0.0
 76
     0
330
D6
  0
LAYOUT
  5
22
102
{ACAD_XDICTIONARY
360
273C
102
}
102
{ACAD_REACTORS
330
1A
102
}
330
1A
100
AcDbPlotSettings
  1

  2
none_device
  4
Letter_(8.50_x_11.00_Inches)
  6

 40
6.349999904632568
 41
6.349999904632568
 42
6.350006103515625
 43
6.350006103515625
 44
215.8999938964844
 45
279.3999938964844
 46
11.54999923706054
 47
-13.65000009536743
 48
0.0
 49
0.0
140
210.0
141
297.0
142
1.0
143
1.0
 70
 11936
 72
     1
 73
     0
 74
     4
  7

 75
     0
147
0.9999999999999998
148
0.0
149
0.0
100
AcDbLayout
  1
Model
 70
     1
 71
     0
 10
0.0
 20
0.0
 11
12.0
 21
9.0
 12
0.0
 22
0.0
 32
0.0
 14
0.0
 24
0.0
 34
0.0
 15
0.0
 25
0.0
 35
0.0
146
0.0
 13
0.0
 23
0.0
 33
0.0
 16
1.0
 26
0.0
 36
0.0
 17
0.0
 27
1.0
 37
0.0
 76
     0
330
1F
331
EA
1001
ACAD_PSEXT
1000
Brak
1000
Brak
1000
Nie można zastosować.
1000
Arkusz nie zostanie wydrukowany dopóki nie wybrano konfiguracji plotera.
1070
     0
  0
MATERIAL
  5
ED
102
{ACAD_XDICTIONARY
360
2745
102
}
102
{ACAD_REACTORS
330
6A
102
}
330
6A
100
AcDbMaterial
  1
ByBlock
 73
     2
 78
     2
172
     2
176
     2
270
     2
274
     2
  0
MATERIAL
  5
EC
102
{ACAD_XDICTIONARY
360
2743
102
}
102
{ACAD_REACTORS
330
6A
102
}
330
6A
100
AcDbMaterial
  1
ByLayer
 73
     2
 78
     2
172
     2
176
     2
270
     2
274
     2
  0
MATERIAL
  5
EE
102
{ACAD_XDICTIONARY
360
173
102
}
102
{ACAD_REACTORS
330
6A
102
}
330
6A
100
AcDbMaterial
  1
Global
 73
     2
 43
0.0007999999797903
 43
0.0
 43
0.0
 43
0.0
 43
0.0
 43
0.0007999999797903
 43
0.0
 43
0.0
 43
0.0
 43
0.0
 43
1.0
 43
0.0
 43
0.0
 43
0.0
 43
0.0
 43
1.0
 78
     2
172
     2
 49
0.0007999999797903
 49
0.0
 49
0.0
 49
0.0
 49
0.0
 49
0.0007999999797903
 49
0.0
 49
0.0
 49
0.0
 49
0.0
 49
1.0
 49
0.0
 49
0.0
 49
0.0
 49
0.0
 49
1.0
176
     2
142
0.0007999999797903
142
0.0
142
0.0
142
0.0
142
0.0
142
0.0007999999797903
142
0.0
142
0.0
142
0.0
142
0.0
142
1.0
142
0.0
142
0.0
142
0.0
142
0.0
142
1.0
270
     2
144
0.0007999999797903
144
0.0
144
0.0
144
0.0
144
0.0
144
0.0007999999797903
144
0.0
144
0.0
144
0.0
144
0.0
144
1.0
144
0.0
144
0.0
144
0.0
144
0.0
144
1.0
274
     2
1001
ACAD
1070
    -1
1070
     3
1070
     0
1000

1071
        0
1070
     0
  0
ACAD_PROXY_OBJECT
  5
12E
102
{ACAD_REACTORS
330
12D
102
}
330
12D
100
AcDbProxyObject
 90
      499
 91
      508
 95
       23
 70
     0
 93
      618
310
40901902A4063FBFFFFFE0000000000000020400000000000020404254DD185B99185C99000000000000000104090140501A0000000000000410000000000000004102576400000000000003903F
340
14
340
0
340
11
340
0
 94
        0
1001
ACAD_MLEADERVER
1070
     2
1001
ACAD
1000
AcRTDxfName
1000
MLEADERSTYLE
1000
AcRTDxfName
1000
MLEADERSTYLE
  0
MLINESTYLE
  5
7E9
102
{ACAD_REACTORS
330
17
102
}
330
17
100
AcDbMlineStyle
  2
SOLBET_IZOLACJA
 70
   272
  3

 62
   256
 51
90.0
 52
90.0
 71
     2
 49
0.008
 62
   256
  6
BYLAYER
 49
-0.008
 62
   256
  6
BYLAYER
  0
MLINESTYLE
  5
18
102
{ACAD_REACTORS
330
17
102
}
330
17
100
AcDbMlineStyle
  2
STANDARD
 70
     0
  3

 62
   256
 51
90.0
 52
90.0
 71
     2
 49
0.5
 62
   256
  6
BYLAYER
 49
-0.5
 62
   256
  6
BYLAYER
  0
ACDBPLACEHOLDER
  5
F
102
{ACAD_REACTORS
330
E
102
}
330
E
  0
ACAD_PROXY_OBJECT
  5
10D
102
{ACAD_REACTORS
330
10C
102
}
330
10C
100
AcDbProxyObject
 90
      499
 91
      507
 95
       23
 70
     0
 93
       49
310
904313A31005FF
 94
        0
1001
ACAD
1000
AcRTDxfName
1000
SCALE
1000
AcRTDxfName
1000
SCALE
  0
ACAD_PROXY_OBJECT
  5
188
102
{ACAD_REACTORS
330
10C
102
}
330
10C
100
AcDbProxyObject
 90
      499
 91
      507
 95
       23
 70
     0
 93
      113
310
904313A3200400000000000000407F
 94
        0
1001
ACAD
1000
AcRTDxfName
1000
SCALE
1000
AcRTDxfName
1000
SCALE
  0
ACAD_PROXY_OBJECT
  5
189
102
{ACAD_REACTORS
330
10C
102
}
330
10C
100
AcDbProxyObject
 90
      499
 91
      507
 95
       23
 70
     0
 93
      113
310
904313A3400400000000000010407F
 94
        0
1001
ACAD
1000
AcRTDxfName
1000
SCALE
1000
AcRTDxfName
1000
SCALE
  0
ACAD_PROXY_OBJECT
  5
18A
102
{ACAD_REACTORS
330
10C
102
}
330
10C
100
AcDbProxyObject
 90
      499
 91
      507
 95
       23
 70
     0
 93
      113
310
904313A3500400000000000014407F
 94
        0
1001
ACAD
1000
AcRTDxfName
1000
SCALE
1000
AcRTDxfName
1000
SCALE
  0
ACAD_PROXY_OBJECT
  5
18B
102
{ACAD_REACTORS
330
10C
102
}
330
10C
100
AcDbProxyObject
 90
      499
 91
      507
 95
       23
 70
     0
 93
      113
310
904313A3800400000000000020407F
 94
        0
1001
ACAD
1000
AcRTDxfName
1000
SCALE
1000
AcRTDxfName
1000
SCALE
  0
ACAD_PROXY_OBJECT
  5
18C
102
{ACAD_REACTORS
330
10C
102
}
330
10C
100
AcDbProxyObject
 90
      499
 91
      507
 95
       23
 70
     0
 93
      121
310
905313A313000400000000000024407F
 94
        0
1001
ACAD
1000
AcRTDxfName
1000
SCALE
1000
AcRTDxfName
1000
SCALE
  0
ACAD_PROXY_OBJECT
  5
18D
102
{ACAD_REACTORS
330
10C
102
}
330
10C
100
AcDbProxyObject
 90
      499
 91
      507
 95
       23
 70
     0
 93
      121
310
905313A313600400000000000030407F
 94
        0
1001
ACAD
1000
AcRTDxfName
1000
SCALE
1000
AcRTDxfName
1000
SCALE
  0
ACAD_PROXY_OBJECT
  5
18E
102
{ACAD_REACTORS
330
10C
102
}
330
10C
100
AcDbProxyObject
 90
      499
 91
      507
 95
       23
 70
     0
 93
      121
310
905313A323000400000000000034407F
 94
        0
1001
ACAD
1000
AcRTDxfName
1000
SCALE
1000
AcRTDxfName
1000
SCALE
  0
ACAD_PROXY_OBJECT
  5
18F
102
{ACAD_REACTORS
330
10C
102
}
330
10C
100
AcDbProxyObject
 90
      499
 91
      507
 95
       23
 70
     0
 93
      121
310
905313A33300040000000000003E407F
 94
        0
1001
ACAD
1000
AcRTDxfName
1000
SCALE
1000
AcRTDxfName
1000
SCALE
  0
ACAD_PROXY_OBJECT
  5
190
102
{ACAD_REACTORS
330
10C
102
}
330
10C
100
AcDbProxyObject
 90
      499
 91
      507
 95
       23
 70
     0
 93
      121
310
905313A343000400000000000044407F
 94
        0
1001
ACAD
1000
AcRTDxfName
1000
SCALE
1000
AcRTDxfName
1000
SCALE
  0
ACAD_PROXY_OBJECT
  5
191
102
{ACAD_REACTORS
330
10C
102
}
330
10C
100
AcDbProxyObject
 90
      499
 91
      507
 95
       23
 70
     0
 93
      121
310
905313A353000400000000000049407F
 94
        0
1001
ACAD
1000
AcRTDxfName
1000
SCALE
1000
AcRTDxfName
1000
SCALE
  0
ACAD_PROXY_OBJECT
  5
192
102
{ACAD_REACTORS
330
10C
102
}
330
10C
100
AcDbProxyObject
 90
      499
 91
      507
 95
       23
 70
     0
 93
      129
310
906313A31303000400000000000059407F
 94
        0
1001
ACAD
1000
AcRTDxfName
1000
SCALE
1000
AcRTDxfName
1000
SCALE
  0
ACAD_PROXY_OBJECT
  5
193
102
{ACAD_REACTORS
330
10C
102
}
330
10C
100
AcDbProxyObject
 90
      499
 91
      507
 95
       23
 70
     0
 93
      113
310
904323A3100000000000000001017F
 94
        0
1001
ACAD
1000
AcRTDxfName
1000
SCALE
1000
AcRTDxfName
1000
SCALE
  0
ACAD_PROXY_OBJECT
  5
194
102
{ACAD_REACTORS
330
10C
102
}
330
10C
100
AcDbProxyObject
 90
      499
 91
      507
 95
       23
 70
     0
 93
      113
310
904343A3100000000000000041017F
 94
        0
1001
ACAD
1000
AcRTDxfName
1000
SCALE
1000
AcRTDxfName
1000
SCALE
  0
ACAD_PROXY_OBJECT
  5
195
102
{ACAD_REACTORS
330
10C
102
}
330
10C
100
AcDbProxyObject
 90
      499
 91
      507
 95
       23
 70
     0
 93
      113
310
904383A3100000000000000081017F
 94
        0
1001
ACAD
1000
AcRTDxfName
1000
SCALE
1000
AcRTDxfName
1000
SCALE
  0
ACAD_PROXY_OBJECT
  5
196
102
{ACAD_REACTORS
330
10C
102
}
330
10C
100
AcDbProxyObject
 90
      499
 91
      507
 95
       23
 70
     0
 93
      121
310
90531303A3100000000000000091017F
 94
        0
1001
ACAD
1000
AcRTDxfName
1000
SCALE
1000
AcRTDxfName
1000
SCALE
  0
ACAD_PROXY_OBJECT
  5
197
102
{ACAD_REACTORS
330
10C
102
}
330
10C
100
AcDbProxyObject
 90
      499
 91
      507
 95
       23
 70
     0
 93
      129
310
9063130303A3100000000000000165017F
 94
        0
1001
ACAD
1000
AcRTDxfName
1000
SCALE
1000
AcRTDxfName
1000
SCALE
  0
ACAD_PROXY_OBJECT
  5
198
102
{ACAD_REACTORS
330
10C
102
}
330
10C
100
AcDbProxyObject
 90
      499
 91
      507
 95
       23
 70
     0
 93
      265
310
90F312F31323822203D2031272D302200000000000000200FC00000000000028407F
 94
        0
1001
ACAD
1000
AcRTDxfName
1000
SCALE
1000
AcRTDxfName
1000
SCALE
  0
ACAD_PROXY_OBJECT
  5
199
102
{ACAD_REACTORS
330
10C
102
}
330
10C
100
AcDbProxyObject
 90
      499
 91
      507
 95
       23
 70
     0
 93
      257
310
90E312F363422203D2031272D302200000000000000240FC00000000000028407F
 94
        0
1001
ACAD
1000
AcRTDxfName
1000
SCALE
1000
AcRTDxfName
1000
SCALE
  0
ACAD_PROXY_OBJECT
  5
19A
102
{ACAD_REACTORS
330
10C
102
}
330
10C
100
AcDbProxyObject
 90
      499
 91
      507
 95
       23
 70
     0
 93
      257
310
90E312F333222203D2031272D302200000000000000280FC00000000000028407F
 94
        0
1001
ACAD
1000
AcRTDxfName
1000
SCALE
1000
AcRTDxfName
1000
SCALE
  0
ACAD_PROXY_OBJECT
  5
19B
102
{ACAD_REACTORS
330
10C
102
}
330
10C
100
AcDbProxyObject
 90
      499
 91
      507
 95
       23
 70
     0
 93
      257
310
90E312F313622203D2031272D3022000000000000002C0FC00000000000028407F
 94
        0
1001
ACAD
1000
AcRTDxfName
1000
SCALE
1000
AcRTDxfName
1000
SCALE
  0
ACAD_PROXY_OBJECT
  5
19C
102
{ACAD_REACTORS
330
10C
102
}
330
10C
100
AcDbProxyObject
 90
      499
 91
      507
 95
       23
 70
     0
 93
      257
310
90E332F333222203D2031272D3022000000000000002E0FC00000000000028407F
 94
        0
1001
ACAD
1000
AcRTDxfName
1000
SCALE
1000
AcRTDxfName
1000
SCALE
  0
ACAD_PROXY_OBJECT
  5
19D
102
{ACAD_REACTORS
330
10C
102
}
330
10C
100
AcDbProxyObject
 90
      499
 91
      507
 95
       23
 70
     0
 93
      249
310
90D312F3822203D2031272D302200000000000000300FC00000000000028407F
 94
        0
1001
ACAD
1000
AcRTDxfName
1000
SCALE
1000
AcRTDxfName
1000
SCALE
  0
ACAD_PROXY_OBJECT
  5
19E
102
{ACAD_REACTORS
330
10C
102
}
330
10C
100
AcDbProxyObject
 90
      499
 91
      507
 95
       23
 70
     0
 93
      257
310
90E332F313622203D2031272D302200000000000000320FC00000000000028407F
 94
        0
1001
ACAD
1000
AcRTDxfName
1000
SCALE
1000
AcRTDxfName
1000
SCALE
  0
ACAD_PROXY_OBJECT
  5
19F
102
{ACAD_REACTORS
330
10C
102
}
330
10C
100
AcDbProxyObject
 90
      499
 91
      507
 95
       23
 70
     0
 93
      249
310
90D312F3422203D2031272D302200000000000000340FC00000000000028407F
 94
        0
1001
ACAD
1000
AcRTDxfName
1000
SCALE
1000
AcRTDxfName
1000
SCALE
  0
ACAD_PROXY_OBJECT
  5
1A0
102
{ACAD_REACTORS
330
10C
102
}
330
10C
100
AcDbProxyObject
 90
      499
 91
      507
 95
       23
 70
     0
 93
      249
310
90D332F3822203D2031272D302200000000000000360FC00000000000028407F
 94
        0
1001
ACAD
1000
AcRTDxfName
1000
SCALE
1000
AcRTDxfName
1000
SCALE
  0
ACAD_PROXY_OBJECT
  5
1A1
102
{ACAD_REACTORS
330
10C
102
}
330
10C
100
AcDbProxyObject
 90
      499
 91
      507
 95
       23
 70
     0
 93
      249
310
90D312F3222203D2031272D302200000000000000380FC00000000000028407F
 94
        0
1001
ACAD
1000
AcRTDxfName
1000
SCALE
1000
AcRTDxfName
1000
SCALE
  0
ACAD_PROXY_OBJECT
  5
1A2
102
{ACAD_REACTORS
330
10C
102
}
330
10C
100
AcDbProxyObject
 90
      499
 91
      507
 95
       23
 70
     0
 93
      249
310
90D332F3422203D2031272D3022000000000000003A0FC00000000000028407F
 94
        0
1001
ACAD
1000
AcRTDxfName
1000
SCALE
1000
AcRTDxfName
1000
SCALE
  0
ACAD_PROXY_OBJECT
  5
1A3
102
{ACAD_REACTORS
330
10C
102
}
330
10C
100
AcDbProxyObject
 90
      499
 91
      507
 95
       23
 70
     0
 93
      169
310
90B3122203D2031272D302200400000000000028407F
 94
        0
1001
ACAD
1000
AcRTDxfName
1000
SCALE
1000
AcRTDxfName
1000
SCALE
  0
ACAD_PROXY_OBJECT
  5
1A4
102
{ACAD_REACTORS
330
10C
102
}
330
10C
100
AcDbProxyObject
 90
      499
 91
      507
 95
       23
 70
     0
 93
      265
310
90F312D312F3222203D2031272D3022000000000000003E0FC00000000000028407F
 94
        0
1001
ACAD
1000
AcRTDxfName
1000
SCALE
1000
AcRTDxfName
1000
SCALE
  0
ACAD_PROXY_OBJECT
  5
1A5
102
{ACAD_REACTORS
330
10C
102
}
330
10C
100
AcDbProxyObject
 90
      499
 91
      507
 95
       23
 70
     0
 93
      233
310
90B3322203D2031272D3022000000000000000210000000000000028407F
 94
        0
1001
ACAD
1000
AcRTDxfName
1000
SCALE
1000
AcRTDxfName
1000
SCALE
  0
ACAD_PROXY_OBJECT
  5
1A6
102
{ACAD_REACTORS
330
10C
102
}
330
10C
100
AcDbProxyObject
 90
      499
 91
      507
 95
       23
 70
     0
 93
      233
310
90B3622203D2031272D3022000000000000000610000000000000028407F
 94
        0
1001
ACAD
1000
AcRTDxfName
1000
SCALE
1000
AcRTDxfName
1000
SCALE
  0
ACAD_PROXY_OBJECT
  5
1A7
102
{ACAD_REACTORS
330
10C
102
}
330
10C
100
AcDbProxyObject
 90
      499
 91
      507
 95
       23
 70
     0
 93
      257
310
90E31272D3022203D2031272D3022000000000000000A10000000000000028407F
 94
        0
1001
ACAD
1000
AcRTDxfName
1000
SCALE
1000
AcRTDxfName
1000
SCALE
  0
TABLESTYLE
  5
7F
102
{ACAD_XDICTIONARY
360
162
102
}
102
{ACAD_REACTORS
330
7E
102
}
330
7E
100
AcDbTableStyle
  3
Standard
 70
     0
 71
     0
 40
1.5
 41
1.5
280
     0
281
     0
  7
Standard
140
4.5
170
     2
 62
     0
 63
     7
283
     0
274
    -2
284
     1
 64
     0
275
    -2
285
     1
 65
     0
276
    -2
286
     1
 66
     0
277
    -2
287
     1
 67
     0
278
    -2
288
     1
 68
     0
279
    -2
289
     1
 69
     0
  7
Standard
140
6.0
170
     5
 62
     0
 63
     7
283
     0
274
    -2
284
     1
 64
     0
275
    -2
285
     1
 65
     0
276
    -2
286
     1
 66
     0
277
    -2
287
     1
 67
     0
278
    -2
288
     1
 68
     0
279
    -2
289
     1
 69
     0
  7
Standard
140
4.5
170
     5
 62
     0
 63
     7
283
     0
274
    -2
284
     1
 64
     0
275
    -2
285
     1
 65
     0
276
    -2
286
     1
 66
     0
277
    -2
287
     1
 67
     0
278
    -2
288
     1
 68
     0
279
    -2
289
     1
 69
     0
  0
VISUALSTYLE
  5
F5
102
{ACAD_REACTORS
330
EF
102
}
330
EF
100
AcDbVisualStyle
  2
2dWireframe
 70
     4
 71
     0
 72
     2
 73
     1
 90
        0
 40
-0.6
 41
-30.0
 62
     5
 63
     7
 74
     1
 91
        4
 64
     7
 65
   257
 75
     1
175
     1
 42
1.0
 92
        0
 66
   257
 43
1.0
 76
     1
 77
     6
 78
     2
 67
     7
 79
     5
170
     0
171
     0
290
     0
174
     0
 93
        1
 44
0.0
173
     0
291
     0
 45
0.0
1001
ACAD
1000
AcDbSavedByObjectVersion
1070
     0
  0
VISUALSTYLE
  5
F7
102
{ACAD_REACTORS
330
EF
102
}
330
EF
100
AcDbVisualStyle
  2
3D Hidden
 70
     6
 71
     1
 72
     2
 73
     2
 90
        0
 40
-0.6
 41
-30.0
 62
     5
 63
     7
 74
     2
 91
        2
 64
     7
 65
   257
 75
     2
175
     1
 42
40.0
 92
        0
 66
   257
 43
1.0
 76
     1
 77
     6
 78
     2
 67
     7
 79
     3
170
     0
171
     0
290
     0
174
     0
 93
        1
 44
0.0
173
     0
291
     0
 45
0.0
1001
ACAD
1000
AcDbSavedByObjectVersion
1070
     0
  0
VISUALSTYLE
  5
F6
102
{ACAD_REACTORS
330
EF
102
}
330
EF
100
AcDbVisualStyle
  2
3dWireframe
 70
     5
 71
     0
 72
     2
 73
     1
 90
        0
 40
-0.6
 41
-30.0
 62
     5
 63
     7
 74
     1
 91
        4
 64
     7
 65
   257
 75
     1
175
     1
 42
1.0
 92
        0
 66
   257
 43
1.0
 76
     1
 77
     6
 78
     2
 67
     7
 79
     5
170
     0
171
     0
290
     0
174
     0
 93
        1
 44
0.0
173
     0
291
     0
 45
0.0
1001
ACAD
1000
AcDbSavedByObjectVersion
1070
     0
  0
VISUALSTYLE
  5
F4
102
{ACAD_REACTORS
330
EF
102
}
330
EF
100
AcDbVisualStyle
  2
Basic
 70
     7
 71
     1
 72
     0
 73
     1
 90
        0
 40
-0.6
 41
-30.0
 62
     5
 63
     7
 74
     0
 91
        4
 64
     7
 65
   257
 75
     1
175
     1
 42
1.0
 92
        8
 66
     7
 43
1.0
 76
     1
 77
     6
 78
     2
 67
     7
 79
     5
170
     0
171
     0
290
     0
174
     0
 93
        1
 44
0.0
173
     0
291
     1
 45
0.0
1001
ACAD
1000
AcDbSavedByObjectVersion
1070
     0
  0
VISUALSTYLE
  5
FB
102
{ACAD_REACTORS
330
EF
102
}
330
EF
100
AcDbVisualStyle
  2
Brighten
 70
    12
 71
     2
 72
     2
 73
     1
 90
        0
 40
-0.6
 41
-30.0
 62
     5
 63
     7
 74
     1
 91
        4
 64
     7
 65
   257
 75
     1
175
     1
 42
1.0
 92
        8
 66
     7
 43
1.0
 76
     1
 77
     6
 78
     2
 67
     7
 79
     5
170
     0
171
     0
290
     0
174
     0
 93
        1
 44
50.0
173
     0
291
     1
 45
0.0
1001
ACAD
1000
AcDbSavedByObjectVersion
1070
     0
  0
VISUALSTYLE
  5
FF
102
{ACAD_REACTORS
330
EF
102
}
330
EF
100
AcDbVisualStyle
  2
ColorChange
 70
    16
 71
     2
 72
     2
 73
     3
 90
        0
 40
-0.6
 41
-30.0
 62
     5
 63
     8
 74
     1
 91
        4
 64
     7
 65
   257
 75
     1
175
     1
 42
1.0
 92
        8
 66
     8
 43
1.0
 76
     1
 77
     6
 78
     2
 67
     7
 79
     5
170
     0
171
     0
290
     0
174
     0
 93
        1
 44
0.0
173
     0
291
     1
 45
0.0
1001
ACAD
1000
AcDbSavedByObjectVersion
1070
     0
  0
VISUALSTYLE
  5
F8
102
{ACAD_REACTORS
330
EF
102
}
330
EF
100
AcDbVisualStyle
  2
Conceptual
 70
     9
 71
     3
 72
     2
 73
     1
 90
        0
 40
-0.6
 41
-30.0
 62
     5
 63
     7
 74
     2
 91
        2
 64
     7
 65
   257
 75
     1
175
     1
 42
40.0
 92
        8
 66
     7
 43
1.0
 76
     1
 77
     6
 78
     2
 67
     7
 79
     3
170
     0
171
     0
290
     0
174
     0
 93
        1
 44
0.0
173
     0
291
     0
 45
0.0
1001
ACAD
1000
AcDbSavedByObjectVersion
1070
     0
  0
VISUALSTYLE
  5
FA
102
{ACAD_REACTORS
330
EF
102
}
330
EF
100
AcDbVisualStyle
  2
Dim
 70
    11
 71
     2
 72
     2
 73
     1
 90
        0
 40
-0.6
 41
-30.0
 62
     5
 63
     7
 74
     1
 91
        4
 64
     7
 65
   257
 75
     1
175
     1
 42
1.0
 92
        8
 66
     7
 43
1.0
 76
     1
 77
     6
 78
     2
 67
     7
 79
     5
170
     0
171
     0
290
     0
174
     0
 93
        1
 44
-50.0
173
     0
291
     1
 45
0.0
1001
ACAD
1000
AcDbSavedByObjectVersion
1070
     0
  0
VISUALSTYLE
  5
FE
102
{ACAD_REACTORS
330
EF
102
}
330
EF
100
AcDbVisualStyle
  2
Facepattern
 70
    15
 71
     2
 72
     2
 73
     1
 90
        0
 40
-0.6
 41
-30.0
 62
     5
 63
     7
 74
     1
 91
        4
 64
     7
 65
   257
 75
     1
175
     1
 42
1.0
 92
        8
 66
     7
 43
1.0
 76
     1
 77
     6
 78
     2
 67
     7
 79
     5
170
     0
171
     0
290
     0
174
     0
 93
        1
 44
0.0
173
     0
291
     1
 45
0.0
1001
ACAD
1000
AcDbSavedByObjectVersion
1070
     0
  0
VISUALSTYLE
  5
F0
102
{ACAD_REACTORS
330
EF
102
}
330
EF
100
AcDbVisualStyle
  2
Flat
 70
     0
 71
     2
 72
     1
 73
     1
 90
        2
 40
-0.6
 41
30.0
 62
     5
 63
     7
 74
     0
 91
        4
 64
     7
 65
   257
 75
     1
175
     1
 42
1.0
 92
        8
 66
     7
 43
1.0
 76
     1
 77
     6
 78
     2
 67
     7
 79
     5
170
     0
171
     0
290
     0
174
     0
 93
        1
 44
0.0
173
     0
291
     1
 45
0.0
1001
ACAD
1000
AcDbSavedByObjectVersion
1070
     0
  0
VISUALSTYLE
  5
F1
102
{ACAD_REACTORS
330
EF
102
}
330
EF
100
AcDbVisualStyle
  2
FlatWithEdges
 70
     1
 71
     2
 72
     1
 73
     1
 90
        2
 40
-0.6
 41
30.0
 62
     5
 63
     7
 74
     1
 91
        4
 64
     7
 65
   257
 75
     1
175
     1
 42
1.0
 92
        0
 66
   257
 43
1.0
 76
     1
 77
     6
 78
     2
 67
     7
 79
     5
170
     0
171
     0
290
     0
174
     0
 93
        1
 44
0.0
173
     0
291
     1
 45
0.0
1001
ACAD
1000
AcDbSavedByObjectVersion
1070
     0
  0
VISUALSTYLE
  5
F2
102
{ACAD_REACTORS
330
EF
102
}
330
EF
100
AcDbVisualStyle
  2
Gouraud
 70
     2
 71
     2
 72
     2
 73
     1
 90
        2
 40
-0.6
 41
30.0
 62
     5
 63
     7
 74
     0
 91
        4
 64
     7
 65
   257
 75
     1
175
     1
 42
1.0
 92
        0
 66
     7
 43
1.0
 76
     1
 77
     6
 78
     2
 67
     7
 79
     5
170
     0
171
     0
290
     0
174
     0
 93
        1
 44
0.0
173
     0
291
     1
 45
0.0
1001
ACAD
1000
AcDbSavedByObjectVersion
1070
     0
  0
VISUALSTYLE
  5
F3
102
{ACAD_REACTORS
330
EF
102
}
330
EF
100
AcDbVisualStyle
  2
GouraudWithEdges
 70
     3
 71
     2
 72
     2
 73
     1
 90
        2
 40
-0.6
 41
30.0
 62
     5
 63
     7
 74
     1
 91
        4
 64
     7
 65
   257
 75
     1
175
     1
 42
1.0
 92
        0
 66
   257
 43
1.0
 76
     1
 77
     6
 78
     2
 67
     7
 79
     5
170
     0
171
     0
290
     0
174
     0
 93
        1
 44
0.0
173
     0
291
     1
 45
0.0
1001
ACAD
1000
AcDbSavedByObjectVersion
1070
     0
  0
VISUALSTYLE
  5
FD
102
{ACAD_REACTORS
330
EF
102
}
330
EF
100
AcDbVisualStyle
  2
Linepattern
 70
    14
 71
     2
 72
     2
 73
     1
 90
        0
 40
-0.6
 41
-30.0
 62
     5
 63
     7
 74
     1
 91
        4
 64
     7
 65
   257
 75
     7
175
     7
 42
1.0
 92
        8
 66
     7
 43
1.0
 76
     1
 77
     6
 78
     2
 67
     7
 79
     5
170
     0
171
     0
290
     0
174
     0
 93
        1
 44
0.0
173
     0
291
     1
 45
0.0
1001
ACAD
1000
AcDbSavedByObjectVersion
1070
     0
  0
VISUALSTYLE
  5
F9
102
{ACAD_REACTORS
330
EF
102
}
330
EF
100
AcDbVisualStyle
  2
Realistic
 70
     8
 71
     2
 72
     2
 73
     1
 90
        0
 40
-0.6
 41
-30.0
 62
     5
 63
     7
 74
     1
 91
        0
 64
     7
 65
   257
 75
     1
175
     1
 42
1.0
 92
        8
 66
     8
 43
1.0
 76
     1
 77
     6
 78
     2
 67
     7
 79
     5
170
     0
171
     0
290
     0
174
     0
 93
       13
 44
0.0
173
     0
291
     0
 45
0.0
1001
ACAD
1000
AcDbSavedByObjectVersion
1070
     0
  0
VISUALSTYLE
  5
FC
102
{ACAD_REACTORS
330
EF
102
}
330
EF
100
AcDbVisualStyle
  2
Thicken
 70
    13
 71
     2
 72
     2
 73
     1
 90
        0
 40
-0.6
 41
-30.0
 62
     5
 63
     7
 74
     1
 91
        4
 64
     7
 65
   257
 75
     1
175
     1
 42
1.0
 92
       12
 66
     7
 43
1.0
 76
     1
 77
     6
 78
     2
 67
     7
 79
     5
170
     0
171
     0
290
     0
174
     0
 93
        1
 44
0.0
173
     0
291
     1
 45
0.0
1001
ACAD
1000
AcDbSavedByObjectVersion
1070
     0
  0
DICTIONARYVAR
  5
146
102
{ACAD_REACTORS
330
5E
102
}
330
5E
100
DictionaryVariables
280
     0
  1
1:1
  0
DICTIONARYVAR
  5
145
102
{ACAD_REACTORS
330
5E
102
}
330
5E
100
DictionaryVariables
280
     0
  1
STANDARD
  0
DICTIONARYVAR
  5
84
102
{ACAD_REACTORS
330
5E
102
}
330
5E
100
DictionaryVariables
280
     0
  1
STANDARD
  0
DICTIONARYVAR
  5
5F
102
{ACAD_REACTORS
330
5E
102
}
330
5E
100
DictionaryVariables
280
     0
  1
2
  0
DICTIONARYVAR
  5
63
102
{ACAD_REACTORS
330
5E
102
}
330
5E
100
DictionaryVariables
280
     0
  1
1
  0
DICTIONARYVAR
  5
466
102
{ACAD_REACTORS
330
5E
102
}
330
5E
100
DictionaryVariables
280
     0
  1
0
  0
DICTIONARYVAR
  5
464
102
{ACAD_REACTORS
330
5E
102
}
330
5E
100
DictionaryVariables
280
     0
  1
2
  0
DICTIONARYVAR
  5
463
102
{ACAD_REACTORS
330
5E
102
}
330
5E
100
DictionaryVariables
280
     0
  1
1
  0
DICTIONARYVAR
  5
273A
102
{ACAD_REACTORS
330
5E
102
}
330
5E
100
DictionaryVariables
280
     0
  1
80.000000
  0
DICTIONARYVAR
  5
2739
102
{ACAD_REACTORS
330
5E
102
}
330
5E
100
DictionaryVariables
280
     0
  1
5.000000
  0
DICTIONARYVAR
  5
465
102
{ACAD_REACTORS
330
5E
102
}
330
5E
100
DictionaryVariables
280
     0
  1
127
  0
DICTIONARY
  5
227A
102
{ACAD_REACTORS
330
2279
102
}
330
2279
100
AcDbDictionary
281
     1
  0
DICTIONARY
  5
228F
102
{ACAD_REACTORS
330
228E
102
}
330
228E
100
AcDbDictionary
281
     1
  0
DICTIONARY
  5
2294
102
{ACAD_REACTORS
330
2293
102
}
330
2293
100
AcDbDictionary
281
     1
  0
DICTIONARY
  5
273F
330
D3
100
AcDbDictionary
280
     1
281
     1
  3
ACAD_XREC_ROUNDTRIP
360
2740
  0
DICTIONARY
  5
2741
330
D7
100
AcDbDictionary
280
     1
281
     1
  3
ACAD_XREC_ROUNDTRIP
360
2742
  0
DICTIONARY
  5
273C
330
22
100
AcDbDictionary
280
     1
281
     1
  3
ACAD_XREC_ROUNDTRIP
360
273D
  0
DICTIONARY
  5
2745
330
ED
100
AcDbDictionary
280
     1
281
     1
  3
ACAD_XREC_ROUNDTRIP
360
2746
  0
DICTIONARY
  5
2743
330
EC
100
AcDbDictionary
280
     1
281
     1
  3
ACAD_XREC_ROUNDTRIP
360
2744
  0
DICTIONARY
  5
173
330
EE
100
AcDbDictionary
280
     1
281
     1
  3
ACAD_XREC_ROUNDTRIP
360
2747
  3
BUMPTILE
360
175
  3
DIFFUSETILE
360
174
  3
OPACITYTILE
360
176
  3
REFLECTIONTILE
360
177
  0
DICTIONARY
  5
162
330
7F
100
AcDbDictionary
280
     1
281
     1
  3
ACAD_ROUNDTRIP_2008_TABLESTYLE_CELLSTYLEMAP
360
264D
  3
ACAD_XREC_ROUNDTRIP
360
273E
  0
XRECORD
  5
2740
102
{ACAD_REACTORS
330
273F
102
}
330
273F
100
AcDbXrecord
280
     1
102
SHADEPLOT
 70
     0
102
SHADEPLOTRESLEVEL
 70
     2
102
SHADEPLOTCUSTOMDPI
 70
   300
  0
XRECORD
  5
2742
102
{ACAD_REACTORS
330
2741
102
}
330
2741
100
AcDbXrecord
280
     1
102
SHADEPLOT
 70
     0
102
SHADEPLOTRESLEVEL
 70
     2
102
SHADEPLOTCUSTOMDPI
 70
   300
  0
XRECORD
  5
273D
102
{ACAD_REACTORS
330
273C
102
}
330
273C
100
AcDbXrecord
280
     1
102
SHADEPLOT
 70
     0
102
SHADEPLOTRESLEVEL
 70
     2
102
SHADEPLOTCUSTOMDPI
 70
   300
  0
XRECORD
  5
2746
102
{ACAD_REACTORS
330
2745
102
}
330
2745
100
AcDbXrecord
280
     1
102
MATERIAL
148
0.0
149
0.0
149
0.0
 93
        0
 94
       63
282
     0
 72
     1
 77
     1
171
     1
175
     1
179
     1
273
     0
  0
XRECORD
  5
2744
102
{ACAD_REACTORS
330
2743
102
}
330
2743
100
AcDbXrecord
280
     1
102
MATERIAL
148
0.0
149
0.0
149
0.0
 93
        0
 94
       63
282
     0
 72
     1
 77
     1
171
     1
175
     1
179
     1
273
     0
  0
XRECORD
  5
2747
102
{ACAD_REACTORS
330
173
102
}
330
173
100
AcDbXrecord
280
     1
102
MATERIAL
148
0.0
149
0.0
149
0.0
 93
        0
 94
       63
282
     0
 72
     1
 77
     1
171
     1
175
     1
179
     1
273
     0
  0
XRECORD
  5
175
102
{ACAD_REACTORS
330
173
102
}
330
173
100
AcDbXrecord
280
     1
270
     1
271
     1
  0
XRECORD
  5
174
102
{ACAD_REACTORS
330
173
102
}
330
173
100
AcDbXrecord
280
     1
270
     1
271
     1
  0
XRECORD
  5
176
102
{ACAD_REACTORS
330
173
102
}
330
173
100
AcDbXrecord
280
     1
270
     1
271
     1
  0
XRECORD
  5
177
102
{ACAD_REACTORS
330
173
102
}
330
173
100
AcDbXrecord
280
     1
270
     1
271
     1
  0
ACAD_PROXY_OBJECT
  5
264D
102
{ACAD_REACTORS
330
162
102
}
330
162
100
AcDbProxyObject
 90
      499
 91
      509
 95
       23
 70
     0
 93
     5304
310
40D054060020000020000003200101A000080002A5058000000C10000000000000006101010000000000003E0FC000000000000F83F0000000000003E0FC000000000000F83F02B5E8DC0F42B1CFC0AD7A3703D0AC73F419019018000000C1003FBFFFFFE0000000000003C8FD029018000000C1003FBFFFFFE00000000000
310
03C8FD049018000000C1003FBFFFFFE0000000000003C8FD089018000000C1003FBFFFFFE0000000000003C8FD109018000000C1003FBFFFFFE0000000000003C8FD209018000000C1003FBFFFFFE0000000000003C8FD01405075F5449544C450041501A8000000C800406800020000A94160000003040000000000000012
310
40404000000000000F83F0000000000003E0FC000000000000F83F0000000000003E0FC0AD7A3703D0AC73F02B5E8DC0F42B1CFD0640640600000030400FEFFFFFF8000000000000F23F40A40600000030400FEFFFFFF8000000000000F23F41240600000030400FEFFFFFF8000000000000F23F42240600000030400FEFFF
310
FFF8000000000000F23F44240600000030400FEFFFFFF8000000000000F23F48240600000030400FEFFFFFF8000000000000F23F409014217D2115051115480105406A0000003200101A000080002A5028000000C10000000000000004901010000000000003E0FC000000000000F83F0000000000003E0FC000000000000F
310
83F02B5E8DC0F42B1CFC0AD7A3703D0AC73F419019018000000C1003FBFFFFFE0000000000003C8FD029018000000C1003FBFFFFFE0000000000003C8FD049018000000C1003FBFFFFFE0000000000003C8FD089018000000C1003FBFFFFFE0000000000003C8FD109018000000C1003FBFFFFFE0000000000003C8FD20901
310
8000000C1003FBFFFFFE0000000000003C8FD03409065F444154410000
340
11
340
14
340
14
340
14
340
14
340
14
340
14
340
11
340
14
340
14
340
14
340
14
340
14
340
14
340
11
340
14
340
14
340
14
340
14
340
14
340
14
 94
        0
1001
ACAD
1000
AcRTDxfName
1000
CELLSTYLEMAP
1000
AcRTDxfName
1000
CELLSTYLEMAP
  0
XRECORD
  5
273E
102
{ACAD_REACTORS
330
162
102
}
330
162
100
AcDbXrecord
280
     1
102
ACAD_ROUNDTRIP_PRE2007_TABLESTYLE
 90
      512
 91
        0
  1

 92
      512
 93
        0
  2

 94
      512
 95
        0
  3

  0
ENDSEC
  0
EOF
