  0
SECTION
  2
HEADER
  9
$ACADVER
  1
AC1015
  9
$ACADMAINTVER
 70
    20
  9
$DWGCODEPAGE
  3
ANSI_1250
  9
$INSBASE
 10
0.0
 20
0.0
 30
0.0
  9
$EXTMIN
 10
1.902475058820527
 20
-0.004528679247187
 30
-0.0000000000112498
  9
$EXTMAX
 10
336.2644502660807
 20
297.0045328285427
 30
0.0000000000002956
  9
$LIMMIN
 10
1.907573280842825
 20
0.0
  9
$LIMMAX
 10
336.2593473729328
 20
297.0
  9
$ORTHOMODE
 70
     0
  9
$REGENMODE
 70
     1
  9
$FILLMODE
 70
     1
  9
$QTEXTMODE
 70
     0
  9
$MIRRTEXT
 70
     0
  9
$LTSCALE
 40
1.0
  9
$ATTMODE
 70
     2
  9
$TEXTSIZE
 40
5.0
  9
$TRACEWID
 40
1.0
  9
$TEXTSTYLE
  7
Solbet_5
  9
$CLAYER
  8
SOLBET_Bloczki
  9
$CELTYPE
  6
ByLayer
  9
$CECOLOR
 62
   256
  9
$CELTSCALE
 40
1.0
  9
$DISPSILH
 70
     0
  9
$DIMSCALE
 40
1.0
  9
$DIMASZ
 40
2.5
  9
$DIMEXO
 40
0.0
  9
$DIMDLI
 40
3.75
  9
$DIMRND
 40
0.0
  9
$DIMDLE
 40
0.0
  9
$DIMEXE
 40
1.25
  9
$DIMTP
 40
0.0
  9
$DIMTM
 40
0.0
  9
$DIMTXT
 40
2.5
  9
$DIMCEN
 40
2.5
  9
$DIMTSZ
 40
0.0
  9
$DIMTOL
 70
     0
  9
$DIMLIM
 70
     0
  9
$DIMTIH
 70
     0
  9
$DIMTOH
 70
     0
  9
$DIMSE1
 70
     0
  9
$DIMSE2
 70
     0
  9
$DIMTAD
 70
     1
  9
$DIMZIN
 70
     8
  9
$DIMBLK
  1

  9
$DIMASO
 70
     1
  9
$DIMSHO
 70
     1
  9
$DIMPOST
  1

  9
$DIMAPOST
  1

  9
$DIMALT
 70
     0
  9
$DIMALTD
 70
     3
  9
$DIMALTF
 40
0.03937007874016
  9
$DIMLFAC
 40
1.0
  9
$DIMTOFL
 70
     1
  9
$DIMTVP
 40
0.0
  9
$DIMTIX
 70
     0
  9
$DIMSOXD
 70
     0
  9
$DIMSAH
 70
     0
  9
$DIMBLK1
  1

  9
$DIMBLK2
  1

  9
$DIMSTYLE
  2
Solbet
  9
$DIMCLRD
 70
     0
  9
$DIMCLRE
 70
     0
  9
$DIMCLRT
 70
     0
  9
$DIMTFAC
 40
1.0
  9
$DIMGAP
 40
0.625
  9
$DIMJUST
 70
     0
  9
$DIMSD1
 70
     0
  9
$DIMSD2
 70
     0
  9
$DIMTOLJ
 70
     0
  9
$DIMTZIN
 70
     8
  9
$DIMALTZ
 70
     0
  9
$DIMALTTZ
 70
     0
  9
$DIMUPT
 70
     0
  9
$DIMDEC
 70
     2
  9
$DIMTDEC
 70
     2
  9
$DIMALTU
 70
     2
  9
$DIMALTTD
 70
     3
  9
$DIMTXSTY
  7
Solbet_2_5
  9
$DIMAUNIT
 70
     0
  9
$DIMADEC
 70
     0
  9
$DIMALTRND
 40
0.0
  9
$DIMAZIN
 70
     0
  9
$DIMDSEP
 70
    44
  9
$DIMATFIT
 70
     3
  9
$DIMFRAC
 70
     0
  9
$DIMLDRBLK
  1

  9
$DIMLUNIT
 70
     2
  9
$DIMLWD
 70
    -2
  9
$DIMLWE
 70
    -2
  9
$DIMTMOVE
 70
     0
  9
$LUNITS
 70
     2
  9
$LUPREC
 70
     4
  9
$SKETCHINC
 40
1.0
  9
$FILLETRAD
 40
0.0
  9
$AUNITS
 70
     0
  9
$AUPREC
 70
     0
  9
$MENU
  1
.
  9
$ELEVATION
 40
0.0
  9
$PELEVATION
 40
0.0
  9
$THICKNESS
 40
0.0
  9
$LIMCHECK
 70
     0
  9
$CHAMFERA
 40
0.0
  9
$CHAMFERB
 40
0.0
  9
$CHAMFERC
 40
0.0
  9
$CHAMFERD
 40
0.0
  9
$SKPOLY
 70
     0
  9
$TDCREATE
 40
2454690.075573148
  9
$TDUCREATE
 40
2454690.033906482
  9
$TDUPDATE
 40
2454848.877234607
  9
$TDUUPDATE
 40
2454848.835567940
  9
$TDINDWG
 40
0.4845595949
  9
$TDUSRTIMER
 40
0.4845550694
  9
$USRTIMER
 70
     1
  9
$ANGBASE
 50
0.0
  9
$ANGDIR
 70
     0
  9
$PDMODE
 70
     0
  9
$PDSIZE
 40
0.0
  9
$PLINEWID
 40
0.0
  9
$SPLFRAME
 70
     0
  9
$SPLINETYPE
 70
     6
  9
$SPLINESEGS
 70
     8
  9
$HANDSEED
  5
273C
  9
$SURFTAB1
 70
     6
  9
$SURFTAB2
 70
     6
  9
$SURFTYPE
 70
     6
  9
$SURFU
 70
     6
  9
$SURFV
 70
     6
  9
$UCSBASE
  2

  9
$UCSNAME
  2

  9
$UCSORG
 10
0.0
 20
0.0
 30
0.0
  9
$UCSXDIR
 10
1.0
 20
0.0
 30
0.0
  9
$UCSYDIR
 10
0.0
 20
1.0
 30
0.0
  9
$UCSORTHOREF
  2

  9
$UCSORTHOVIEW
 70
     0
  9
$UCSORGTOP
 10
0.0
 20
0.0
 30
0.0
  9
$UCSORGBOTTOM
 10
0.0
 20
0.0
 30
0.0
  9
$UCSORGLEFT
 10
0.0
 20
0.0
 30
0.0
  9
$UCSORGRIGHT
 10
0.0
 20
0.0
 30
0.0
  9
$UCSORGFRONT
 10
0.0
 20
0.0
 30
0.0
  9
$UCSORGBACK
 10
0.0
 20
0.0
 30
0.0
  9
$PUCSBASE
  2

  9
$PUCSNAME
  2

  9
$PUCSORG
 10
0.0
 20
0.0
 30
0.0
  9
$PUCSXDIR
 10
1.0
 20
0.0
 30
0.0
  9
$PUCSYDIR
 10
0.0
 20
1.0
 30
0.0
  9
$PUCSORTHOREF
  2

  9
$PUCSORTHOVIEW
 70
     0
  9
$PUCSORGTOP
 10
0.0
 20
0.0
 30
0.0
  9
$PUCSORGBOTTOM
 10
0.0
 20
0.0
 30
0.0
  9
$PUCSORGLEFT
 10
0.0
 20
0.0
 30
0.0
  9
$PUCSORGRIGHT
 10
0.0
 20
0.0
 30
0.0
  9
$PUCSORGFRONT
 10
0.0
 20
0.0
 30
0.0
  9
$PUCSORGBACK
 10
0.0
 20
0.0
 30
0.0
  9
$USERI1
 70
     0
  9
$USERI2
 70
     0
  9
$USERI3
 70
     0
  9
$USERI4
 70
     0
  9
$USERI5
 70
     0
  9
$USERR1
 40
0.0
  9
$USERR2
 40
0.0
  9
$USERR3
 40
0.0
  9
$USERR4
 40
0.0
  9
$USERR5
 40
0.0
  9
$WORLDVIEW
 70
     1
  9
$SHADEDGE
 70
     3
  9
$SHADEDIF
 70
    70
  9
$TILEMODE
 70
     1
  9
$MAXACTVP
 70
    64
  9
$PINSBASE
 10
0.0
 20
0.0
 30
0.0
  9
$PLIMCHECK
 70
     0
  9
$PEXTMIN
 10
0.0
 20
0.0
 30
0.0
  9
$PEXTMAX
 10
0.0
 20
0.0
 30
0.0
  9
$PLIMMIN
 10
0.0
 20
0.0
  9
$PLIMMAX
 10
12.0
 20
9.0
  9
$UNITMODE
 70
     0
  9
$VISRETAIN
 70
     1
  9
$PLINEGEN
 70
     0
  9
$PSLTSCALE
 70
     1
  9
$TREEDEPTH
 70
  3020
  9
$CMLSTYLE
  2
SOLBET_IZOLACJA
  9
$CMLJUST
 70
     0
  9
$CMLSCALE
 40
20.0
  9
$PROXYGRAPHICS
 70
     1
  9
$MEASUREMENT
 70
     1
  9
$CELWEIGHT
370
    -1
  9
$ENDCAPS
280
     0
  9
$JOINSTYLE
280
     0
  9
$LWDISPLAY
290
     1
  9
$INSUNITS
 70
     4
  9
$HYPERLINKBASE
  1

  9
$STYLESHEET
  1

  9
$XEDIT
290
     1
  9
$CEPSNTYPE
380
     0
  9
$PSTYLEMODE
290
     1
  9
$FINGERPRINTGUID
  2
{6B12AB33-8E39-428E-8E85-461C8D99A3CB}
  9
$VERSIONGUID
  2
{231649FA-83A6-4762-8244-9D03779DE917}
  9
$EXTNAMES
290
     1
  9
$PSVPSCALE
 40
0.0
  9
$OLESTARTUP
290
     0
  0
ENDSEC
  0
SECTION
  2
CLASSES
  0
CLASS
  1
ACDBDICTIONARYWDFLT
  2
AcDbDictionaryWithDefault
  3
ObjectDBX Classes
 90
        0
280
     0
281
     0
  0
CLASS
  1
ACDBPLACEHOLDER
  2
AcDbPlaceHolder
  3
ObjectDBX Classes
 90
        0
280
     0
281
     0
  0
CLASS
  1
LAYOUT
  2
AcDbLayout
  3
ObjectDBX Classes
 90
        0
280
     0
281
     0
  0
CLASS
  1
DICTIONARYVAR
  2
AcDbDictionaryVar
  3
ObjectDBX Classes
 90
        0
280
     0
281
     0
  0
CLASS
  1
TABLESTYLE
  2
AcDbTableStyle
  3
ObjectDBX Classes
 90
     4095
280
     0
281
     0
  0
CLASS
  1
MATERIAL
  2
AcDbMaterial
  3
ObjectDBX Classes
 90
     1024
280
     0
281
     0
  0
CLASS
  1
VISUALSTYLE
  2
AcDbVisualStyle
  3
ObjectDBX Classes
 90
     4095
280
     0
281
     0
  0
CLASS
  1
SCALE
  2
AcDbScale
  3
ObjectDBX Classes
 90
     1153
280
     0
281
     0
  0
CLASS
  1
MLEADERSTYLE
  2
AcDbMLeaderStyle
  3
ACDB_MLEADERSTYLE_CLASS
 90
     4095
280
     0
281
     0
  0
CLASS
  1
CELLSTYLEMAP
  2
AcDbCellStyleMap
  3
ObjectDBX Classes
 90
     1152
280
     0
281
     0
  0
CLASS
  1
DIMASSOC
  2
AcDbDimAssoc
  3
"AcDbDimAssoc|Product Desc:     AcDim ARX App For Dimension|Company:          Autodesk, Inc.|WEB Address:      www.autodesk.com"
 90
    32768
280
     0
281
     0
  0
CLASS
  1
SORTENTSTABLE
  2
AcDbSortentsTable
  3
ObjectDBX Classes
 90
        0
280
     0
281
     0
  0
CLASS
  1
MULTILEADER
  2
AcDbMLeader
  3
ACDB_MLEADER_CLASS
 90
    33793
280
     0
281
     1
  0
CLASS
  1
ACDB_MTEXTOBJECTCONTEXTDATA_CLASS
  2
AcDbMTextObjectContextData
  3
ObjectDBX Classes
 90
    33921
280
     0
281
     0
  0
ENDSEC
  0
SECTION
  2
TABLES
  0
TABLE
  2
VPORT
  5
8
102
{ACAD_XDICTIONARY
360
443
102
}
330
0
100
AcDbSymbolTable
 70
     1
  0
VPORT
  5
EA
330
8
100
AcDbSymbolTableRecord
100
AcDbViewportTableRecord
  2
*Active
 70
     0
 10
0.0
 20
0.0
 11
1.0
 21
1.0
 12
169.0834626624505
 22
148.5000020746477
 13
0.0
 23
0.0
 14
10.0
 24
10.0
 15
10.0
 25
10.0
 16
0.0
 26
0.0
 36
1.0
 17
0.0
 27
0.0
 37
0.0
 40
300.3091621912098
 41
1.74582560296846
 42
50.0
 43
0.0
 44
0.0
 50
0.0
 51
0.0
 71
     0
 72
  1000
 73
     1
 74
     3
 75
     0
 76
     0
 77
     0
 78
     0
281
     0
 65
     1
110
0.0
120
0.0
130
0.0
111
1.0
121
0.0
131
0.0
112
0.0
122
1.0
132
0.0
 79
     0
146
0.0
  0
ENDTAB
  0
TABLE
  2
LTYPE
  5
5
330
0
100
AcDbSymbolTable
 70
     2
  0
LTYPE
  5
14
330
5
100
AcDbSymbolTableRecord
100
AcDbLinetypeTableRecord
  2
ByBlock
 70
     0
  3

 72
    65
 73
     0
 40
0.0
  0
LTYPE
  5
15
330
5
100
AcDbSymbolTableRecord
100
AcDbLinetypeTableRecord
  2
ByLayer
 70
     0
  3

 72
    65
 73
     0
 40
0.0
  0
LTYPE
  5
16
330
5
100
AcDbSymbolTableRecord
100
AcDbLinetypeTableRecord
  2
Continuous
 70
     0
  3
Solid line
 72
    65
 73
     0
 40
0.0
  0
LTYPE
  5
982
330
5
100
AcDbSymbolTableRecord
100
AcDbLinetypeTableRecord
  2
BATTING
 70
     0
  3
Batting SSSSSSSSSSSSSSSSSSSSSSSSSSSSSSSSSSSSSSSSSSSSSSS
 72
    65
 73
     4
 40
10.16254
 49
0.00254
 74
     0
 49
-2.54
 74
     4
 75
   134
340
7E7
 46
2.54
 50
0.0
 44
-2.54
 45
0.0
 49
-5.08
 74
     4
 75
   134
340
7E7
 46
2.54
 50
180.0
 44
2.54
 45
0.0
 49
-2.54
 74
     0
  0
ENDTAB
  0
TABLE
  2
LAYER
  5
2
102
{ACAD_XDICTIONARY
360
3E5
102
}
330
0
100
AcDbSymbolTable
 70
    11
  0
LAYER
  5
10
102
{ACAD_XDICTIONARY
360
13C
102
}
330
2
100
AcDbSymbolTableRecord
100
AcDbLayerTableRecord
  2
0
 70
     0
 62
     7
  6
Continuous
370
    -3
390
F
  0
LAYER
  5
2BB
330
2
100
AcDbSymbolTableRecord
100
AcDbLayerTableRecord
  2
DEFPOINTS
 70
     0
 62
     7
  6
Continuous
290
     0
370
    -3
390
F
  0
LAYER
  5
3DD
102
{ACAD_XDICTIONARY
360
403
102
}
330
2
100
AcDbSymbolTableRecord
100
AcDbLayerTableRecord
  2
SOLBET_Bloczki
 70
     0
 62
   140
  6
Continuous
370
    -3
390
F
1001
AcAecLayerStandard
1000

1000

  0
LAYER
  5
3DF
102
{ACAD_XDICTIONARY
360
405
102
}
330
2
100
AcDbSymbolTableRecord
100
AcDbLayerTableRecord
  2
SOLBET_Wymiary_Opisy
 70
     0
 62
     1
  6
Continuous
370
    -3
390
F
1001
AcAecLayerStandard
1000

1000

  0
LAYER
  5
3E0
102
{ACAD_XDICTIONARY
360
407
102
}
330
2
100
AcDbSymbolTableRecord
100
AcDbLayerTableRecord
  2
SOLBET_Beton
 70
     0
 62
     9
  6
Continuous
370
    -3
390
F
1001
AcAecLayerStandard
1000

1000

  0
LAYER
  5
3E1
102
{ACAD_XDICTIONARY
360
409
102
}
330
2
100
AcDbSymbolTableRecord
100
AcDbLayerTableRecord
  2
SOLBET_Izolacja
 70
     0
 62
    40
  6
Continuous
370
    -3
390
F
1001
AcAecLayerStandard
1000

1000

  0
LAYER
  5
3E2
102
{ACAD_XDICTIONARY
360
40B
102
}
330
2
100
AcDbSymbolTableRecord
100
AcDbLayerTableRecord
  2
SOLBET_Zbrojenie_Konstrukcja
 70
     0
 62
     7
  6
Continuous
370
    -3
390
F
1001
AcAecLayerStandard
1000

1000

  0
LAYER
  5
3E4
102
{ACAD_XDICTIONARY
360
40F
102
}
330
2
100
AcDbSymbolTableRecord
100
AcDbLayerTableRecord
  2
SOLBET_Tynki_Posadzki
 70
     0
 62
     3
  6
Continuous
370
    -3
390
F
1001
AcAecLayerStandard
1000

1000

  0
LAYER
  5
3E8
102
{ACAD_XDICTIONARY
360
411
102
}
330
2
100
AcDbSymbolTableRecord
100
AcDbLayerTableRecord
  2
SOLBET_Ramka_05
 70
     0
 62
     2
  6
Continuous
370
    -3
390
F
1001
AcAecLayerStandard
1000

1000

  0
LAYER
  5
4E2
330
2
100
AcDbSymbolTableRecord
100
AcDbLayerTableRecord
  2
SOLBET_Emulsje_Folie
 70
     0
 62
     6
  6
Continuous
370
    -3
390
F
1001
AcAecLayerStandard
1000

1000

  0
LAYER
  5
263B
102
{ACAD_XDICTIONARY
360
263C
102
}
330
2
100
AcDbSymbolTableRecord
100
AcDbLayerTableRecord
  2
SOLBET_Wymiary_Opisy @ 1
 70
     0
 62
     1
  6
Continuous
370
    -3
390
F
1001
AcAecLayerStandard
1000

1000

1001
AcadAnnotativeDecomposition
1000
AnnotativeData
1002
{
1070
     1
1070
     1
1002
}
  0
ENDTAB
  0
TABLE
  2
STYLE
  5
3
330
0
100
AcDbSymbolTable
 70
     5
  0
STYLE
  5
11
330
3
100
AcDbSymbolTableRecord
100
AcDbTextStyleTableRecord
  2
Standard
 70
     0
 40
0.0
 41
1.0
 50
0.0
 71
     0
 42
2.5
  3
txt.shx
  4

  0
STYLE
  5
7D7
330
3
100
AcDbSymbolTableRecord
100
AcDbTextStyleTableRecord
  2
Solbet_5
 70
     0
 40
5.0
 41
1.0
 50
0.0
 71
     0
 42
5.0
  3
isocpeur.ttf
  4

1001
ACAD
1000
ISOCPEUR
1071
       34
  0
STYLE
  5
7D9
330
3
100
AcDbSymbolTableRecord
100
AcDbTextStyleTableRecord
  2
Solbet_2_5
 70
     0
 40
2.5
 41
1.0
 50
0.0
 71
     0
 42
2.5
  3
isocpeur.ttf
  4

1001
ACAD
1000
ISOCPEUR
1071
       34
  0
STYLE
  5
7E7
330
3
100
AcDbSymbolTableRecord
100
AcDbTextStyleTableRecord
  2

 70
     1
 40
0.0
 41
1.0
 50
0.0
 71
     0
 42
2.5
  3
ltypeshp.shx
  4

  0
STYLE
  5
2236
330
3
100
AcDbSymbolTableRecord
100
AcDbTextStyleTableRecord
  2
Solbet_1
 70
     0
 40
1.0
 41
1.0
 50
0.0
 71
     0
 42
2.5
  3
isocpeur.ttf
  4

1001
ACAD
1000
ISOCPEUR
1071
       34
  0
ENDTAB
  0
TABLE
  2
VIEW
  5
6
330
0
100
AcDbSymbolTable
 70
     0
  0
ENDTAB
  0
TABLE
  2
UCS
  5
7
330
0
100
AcDbSymbolTable
 70
     0
  0
ENDTAB
  0
TABLE
  2
APPID
  5
9
330
0
100
AcDbSymbolTable
 70
    13
  0
APPID
  5
12
330
9
100
AcDbSymbolTableRecord
100
AcDbRegAppTableRecord
  2
ACAD
 70
     0
  0
APPID
  5
9E
330
9
100
AcDbSymbolTableRecord
100
AcDbRegAppTableRecord
  2
ACAD_PSEXT
 70
     0
  0
APPID
  5
133
330
9
100
AcDbSymbolTableRecord
100
AcDbRegAppTableRecord
  2
AcadAnnoPO
 70
     0
  0
APPID
  5
134
330
9
100
AcDbSymbolTableRecord
100
AcDbRegAppTableRecord
  2
AcadAnnotative
 70
     0
  0
APPID
  5
135
330
9
100
AcDbSymbolTableRecord
100
AcDbRegAppTableRecord
  2
ACAD_DSTYLE_DIMJAG
 70
     0
  0
APPID
  5
136
330
9
100
AcDbSymbolTableRecord
100
AcDbRegAppTableRecord
  2
ACAD_DSTYLE_DIMTALN
 70
     0
  0
APPID
  5
165
330
9
100
AcDbSymbolTableRecord
100
AcDbRegAppTableRecord
  2
ACAD_MLEADERVER
 70
     0
  0
APPID
  5
2C4
330
9
100
AcDbSymbolTableRecord
100
AcDbRegAppTableRecord
  2
ASO_SCHRAFF
 70
     0
  0
APPID
  5
3DE
330
9
100
AcDbSymbolTableRecord
100
AcDbRegAppTableRecord
  2
AcAecLayerStandard
 70
     0
  0
APPID
  5
7DE
330
9
100
AcDbSymbolTableRecord
100
AcDbRegAppTableRecord
  2
ACAD_EXEMPT_FROM_CAD_STANDARDS
 70
     0
  0
APPID
  5
948
330
9
100
AcDbSymbolTableRecord
100
AcDbRegAppTableRecord
  2
ACAD_DSTYLE_DIMBREAK
 70
     0
  0
APPID
  5
1D0A
330
9
100
AcDbSymbolTableRecord
100
AcDbRegAppTableRecord
  2
AcadAnnotativeDecomposition
 70
     0
  0
APPID
  5
2237
330
9
100
AcDbSymbolTableRecord
100
AcDbRegAppTableRecord
  2
AcDbAttr
 70
     0
  0
ENDTAB
  0
TABLE
  2
DIMSTYLE
  5
A
330
0
100
AcDbSymbolTable
 70
     2
100
AcDbDimStyleTable
 71
     1
340
949
  0
DIMSTYLE
105
949
330
A
100
AcDbSymbolTableRecord
100
AcDbDimStyleTableRecord
  2
Solbet
 70
     0
 41
2.5
 42
0.0
 43
3.75
 44
1.25
 73
     0
 74
     0
 77
     1
 78
     8
140
2.5
141
2.5
143
0.03937007874016
147
0.625
171
     3
172
     1
271
     2
272
     2
274
     3
278
    44
283
     0
284
     8
340
7D9
1001
ACAD_DSTYLE_DIMBREAK
1070
   391
1040
3.75
1001
ACAD_DSTYLE_DIMJAG
1070
   388
1040
1.5
1001
ACAD_DSTYLE_DIMTALN
1070
   392
1070
     0
  0
DIMSTYLE
105
954
330
A
100
AcDbSymbolTableRecord
100
AcDbDimStyleTableRecord
  2
Solbet$7
 70
     0
 41
2.5
 42
0.0
 43
3.75
 44
1.25
 73
     0
 74
     0
 77
     1
 78
     8
140
2.5
141
2.5
143
0.03937007874016
147
0.625
171
     3
172
     1
271
     2
272
     2
274
     3
278
    44
283
     0
284
     8
340
7D9
341
958
1001
ACAD_DSTYLE_DIMBREAK
1070
   391
1040
3.75
1001
ACAD_DSTYLE_DIMJAG
1070
   388
1040
1.5
1001
ACAD_DSTYLE_DIMTALN
1070
   392
1070
     0
  0
ENDTAB
  0
TABLE
  2
BLOCK_RECORD
  5
1
330
0
100
AcDbSymbolTable
 70
     6
  0
BLOCK_RECORD
  5
1F
102
{ACAD_XDICTIONARY
360
4A3
102
}
330
1
100
AcDbSymbolTableRecord
100
AcDbBlockTableRecord
  2
*Model_Space
340
22
  0
BLOCK_RECORD
  5
D2
330
1
100
AcDbSymbolTableRecord
100
AcDbBlockTableRecord
  2
*Paper_Space
340
D3
  0
BLOCK_RECORD
  5
D6
330
1
100
AcDbSymbolTableRecord
100
AcDbBlockTableRecord
  2
*Paper_Space0
340
D7
  0
BLOCK_RECORD
  5
958
330
1
100
AcDbSymbolTableRecord
100
AcDbBlockTableRecord
  2
_DotSmall
340
0
102
{BLKREFS
331
2364
102
}
  0
BLOCK_RECORD
  5
1EF2
330
1
100
AcDbSymbolTableRecord
100
AcDbBlockTableRecord
  2
_None
340
0
  0
BLOCK_RECORD
  5
2238
102
{ACAD_XDICTIONARY
360
2243
102
}
330
1
100
AcDbSymbolTableRecord
100
AcDbBlockTableRecord
  2
SOLBET_Bloczek_OPTIMAL_240x240x590_brak_PRA
340
0
1001
ACAD
1000
DesignCenter Data
1002
{
1070
     1
1070
     4
1002
}
  0
BLOCK_RECORD
  5
269F
102
{ACAD_XDICTIONARY
360
26AA
102
}
330
1
100
AcDbSymbolTableRecord
100
AcDbBlockTableRecord
  2
SOLBET_Bloczek_Optimal_240x240x590_G_KG500_PRA
340
0
102
{BLKREFS
331
26AE
331
26AF
331
26B0
331
26B1
102
}
1001
ACAD
1000
DesignCenter Data
1002
{
1070
     1
1070
     4
1002
}
  0
ENDTAB
  0
ENDSEC
  0
SECTION
  2
BLOCKS
  0
BLOCK
  5
20
330
1F
100
AcDbEntity
  8
0
100
AcDbBlockBegin
  2
*Model_Space
 70
     0
 10
0.0
 20
0.0
 30
0.0
  3
*Model_Space
  1

  0
ENDBLK
  5
21
330
1F
100
AcDbEntity
  8
0
100
AcDbBlockEnd
  0
BLOCK
  5
D4
330
D2
100
AcDbEntity
 67
     1
  8
0
100
AcDbBlockBegin
  2
*Paper_Space
 70
     0
 10
0.0
 20
0.0
 30
0.0
  3
*Paper_Space
  1

  0
ENDBLK
  5
D5
330
D2
100
AcDbEntity
 67
     1
  8
0
100
AcDbBlockEnd
  0
BLOCK
  5
D8
330
D6
100
AcDbEntity
 67
     1
  8
0
100
AcDbBlockBegin
  2
*Paper_Space0
 70
     0
 10
0.0
 20
0.0
 30
0.0
  3
*Paper_Space0
  1

  0
ENDBLK
  5
D9
330
D6
100
AcDbEntity
 67
     1
  8
0
100
AcDbBlockEnd
  0
BLOCK
  5
95A
330
958
100
AcDbEntity
  8
0
100
AcDbBlockBegin
  2
_DotSmall
 70
     0
 10
0.0
 20
0.0
 30
0.0
  3
_DotSmall
  1

  0
LWPOLYLINE
  5
959
330
958
100
AcDbEntity
  8
0
  6
ByBlock
 62
     0
100
AcDbPolyline
 90
        2
 70
     1
 43
0.5
 10
-0.0625
 20
0.0
 42
1.0
 10
0.0625
 20
0.0
 42
1.0
  0
ENDBLK
  5
95B
330
958
100
AcDbEntity
  8
0
100
AcDbBlockEnd
  0
BLOCK
  5
1EF3
330
1EF2
100
AcDbEntity
  8
0
100
AcDbBlockBegin
  2
_None
 70
     0
 10
0.0
 20
0.0
 30
0.0
  3
_None
  1

  0
ENDBLK
  5
1EF4
330
1EF2
100
AcDbEntity
  8
0
100
AcDbBlockEnd
  0
BLOCK
  5
2245
330
2238
100
AcDbEntity
  8
0
100
AcDbBlockBegin
  2
SOLBET_Bloczek_OPTIMAL_240x240x590_brak_PRA
 70
     2
 10
0.0
 20
0.0
 30
0.0
  3
SOLBET_Bloczek_OPTIMAL_240x240x590_brak_PRA
  1

  0
ATTDEF
  5
2239
330
2238
100
AcDbEntity
  8
SOLBET_Wymiary_Opisy
100
AcDbText
 10
0.0000001757484824
 20
4.927022981232882
 30
0.0
 40
0.9913121336814832
  1
240x240x590
  7
Solbet_1
100
AcDbAttributeDefinition
  3

  2
WYMIARY
 70
     3
1001
AcDbAttr
1070
     0
1070
     1
  0
ATTDEF
  5
223A
330
2238
100
AcDbEntity
  8
SOLBET_Wymiary_Opisy
100
AcDbText
 10
0.0000001757484824
 20
3.414503573516785
 30
0.0
 40
0.9913121336814832
  1
400, 500, 600, 700
  7
Solbet_1
100
AcDbAttributeDefinition
  3

  2
KLASA_GĘSTOŚCI
 70
     9
1001
AcDbAttr
1070
     0
1070
     1
  0
ATTDEF
  5
223B
330
2238
100
AcDbEntity
  8
SOLBET_Wymiary_Opisy
100
AcDbText
 10
-0.0000000878742412
 20
0.2448647517692188
 30
0.0
 40
0.9913121336814832
  1
SOLBET
  7
Solbet_1
100
AcDbAttributeDefinition
  3

  2
FIRMA
 70
     3
1001
AcDbAttr
1070
     0
1070
     1
  0
ATTDEF
  5
223C
330
2238
100
AcDbEntity
  8
SOLBET_Wymiary_Opisy
100
AcDbText
 10
0.0000001757484824
 20
7.957332979580714
 30
0.0
 40
0.9913121336814832
  1
Bloczek
  7
Solbet_1
100
AcDbAttributeDefinition
  3
Nazwa
  2
NAZWA
 70
     3
1001
AcDbAttr
1070
     0
1070
     1
  0
ATTDEF
  5
223D
330
2238
100
AcDbEntity
  8
SOLBET_Wymiary_Opisy
100
AcDbText
 10
0.0000001757484824
 20
6.418284799346509
 30
0.0
 40
0.9913121336814832
  1
SOLBET OPTIMAL
  7
Solbet_1
100
AcDbAttributeDefinition
  3

  2
SYSTEM
 70
     3
1001
AcDbAttr
1070
     0
1070
     1
  0
ATTDEF
  5
223E
330
2238
100
AcDbEntity
  8
SOLBET_Wymiary_Opisy
100
AcDbText
 10
-0.0000000878742412
 20
1.744181511296331
 30
0.0
 40
0.9913121336814832
  1
Prawo
  7
Solbet_1
100
AcDbAttributeDefinition
  3

  2
WIDOK
 70
    11
1001
AcDbAttr
1070
     0
1070
     1
  0
LINE
  5
223F
330
2238
100
AcDbEntity
  8
SOLBET_Bloczki
100
AcDbLine
 10
12.00000017574848
 20
11.99999995881262
 30
0.0
 11
12.00000017574848
 21
-0.0000000411874908
 31
0.0
  0
LINE
  5
2240
330
2238
100
AcDbEntity
  8
SOLBET_Bloczki
100
AcDbLine
 10
12.00000017574848
 20
11.99999995881262
 30
0.0
 11
0.0000001757484824
 21
11.99999995881262
 31
0.0
  0
LINE
  5
2241
330
2238
100
AcDbEntity
  8
SOLBET_Bloczki
100
AcDbLine
 10
0.0000001757484824
 20
11.99999995881262
 30
0.0
 11
0.0000001757484824
 21
-0.0000000411873771
 31
0.0
  0
LINE
  5
2242
330
2238
100
AcDbEntity
  8
SOLBET_Bloczki
100
AcDbLine
 10
0.0000001757484824
 20
-0.0000000411873771
 30
0.0
 11
12.00000017574848
 21
-0.0000000411874908
 31
0.0
  0
ENDBLK
  5
2246
330
2238
100
AcDbEntity
  8
0
100
AcDbBlockEnd
  0
BLOCK
  5
26AC
330
269F
100
AcDbEntity
  8
0
100
AcDbBlockBegin
  2
SOLBET_Bloczek_Optimal_240x240x590_G_KG500_PRA
 70
     2
 10
0.0
 20
0.0
 30
0.0
  3
SOLBET_Bloczek_Optimal_240x240x590_G_KG500_PRA
  1

  0
ATTDEF
  5
26A0
330
269F
100
AcDbEntity
  8
SOLBET_Wymiary_Opisy
100
AcDbText
 10
0.0000001757484824
 20
4.927022981232882
 30
0.0
 40
0.9913121336814832
  1
240x240x590
  7
Solbet_1
100
AcDbAttributeDefinition
  3

  2
WYMIARY
 70
    11
1001
AcDbAttr
1070
     0
1070
     1
  0
ATTDEF
  5
26A1
330
269F
100
AcDbEntity
  8
SOLBET_Wymiary_Opisy
100
AcDbText
 10
0.0000001757484824
 20
3.414503573516785
 30
0.0
 40
0.9913121336814832
  1
500
  7
Solbet_1
100
AcDbAttributeDefinition
  3

  2
KLASA_GĘSTOŚCI
 70
    11
1001
AcDbAttr
1070
     0
1070
     1
  0
ATTDEF
  5
26A2
330
269F
100
AcDbEntity
  8
SOLBET_Wymiary_Opisy
100
AcDbText
 10
-0.0000000878742412
 20
0.2448647517692188
 30
0.0
 40
0.9913121336814832
  1
SOLBET
  7
Solbet_1
100
AcDbAttributeDefinition
  3

  2
FIRMA
 70
    11
1001
AcDbAttr
1070
     0
1070
     1
  0
ATTDEF
  5
26A3
330
269F
100
AcDbEntity
  8
SOLBET_Wymiary_Opisy
100
AcDbText
 10
0.0000001757484824
 20
7.957332979580714
 30
0.0
 40
0.9913121336814832
  1
Bloczek
  7
Solbet_1
100
AcDbAttributeDefinition
  3
Nazwa
  2
NAZWA
 70
    11
1001
AcDbAttr
1070
     0
1070
     1
  0
ATTDEF
  5
26A4
330
269F
100
AcDbEntity
  8
SOLBET_Wymiary_Opisy
100
AcDbText
 10
0.0000001757484824
 20
6.418284799346509
 30
0.0
 40
0.9913121336814832
  1
SOLBET Optimal
  7
Solbet_1
100
AcDbAttributeDefinition
  3

  2
SYSTEM
 70
    11
1001
AcDbAttr
1070
     0
1070
     1
  0
ATTDEF
  5
26A5
330
269F
100
AcDbEntity
  8
SOLBET_Wymiary_Opisy
100
AcDbText
 10
-0.0000000878742412
 20
1.744181511296331
 30
0.0
 40
0.9913121336814832
  1
Prawo
  7
Solbet_1
100
AcDbAttributeDefinition
  3

  2
WIDOK
 70
    11
1001
AcDbAttr
1070
     0
1070
     1
  0
LINE
  5
26A6
330
269F
100
AcDbEntity
  8
SOLBET_Bloczki
100
AcDbLine
 10
12.00000017574848
 20
11.99999995881262
 30
0.0
 11
12.00000017574848
 21
-0.0000000411874908
 31
0.0
  0
LINE
  5
26A7
330
269F
100
AcDbEntity
  8
SOLBET_Bloczki
100
AcDbLine
 10
12.00000017574848
 20
11.99999995881262
 30
0.0
 11
0.0000001757484824
 21
11.99999995881262
 31
0.0
  0
LINE
  5
26A8
330
269F
100
AcDbEntity
  8
SOLBET_Bloczki
100
AcDbLine
 10
0.0000001757484824
 20
11.99999995881262
 30
0.0
 11
0.0000001757484824
 21
-0.0000000411873771
 31
0.0
  0
LINE
  5
26A9
330
269F
100
AcDbEntity
  8
SOLBET_Bloczki
100
AcDbLine
 10
0.0000001757484824
 20
-0.0000000411873771
 30
0.0
 11
12.00000017574848
 21
-0.0000000411874908
 31
0.0
  0
ENDBLK
  5
26AD
330
269F
100
AcDbEntity
  8
0
100
AcDbBlockEnd
  0
ENDSEC
  0
SECTION
  2
ENTITIES
  0
LINE
  5
214F
330
1F
100
AcDbEntity
  8
SOLBET_Wymiary_Opisy
100
AcDbLine
 10
131.7516236305439
 20
200.5511408936272
 30
0.0
 11
131.7516236305439
 21
149.7777936423499
 31
0.0
  0
LWPOLYLINE
  5
2150
330
1F
100
AcDbEntity
  8
SOLBET_Zbrojenie_Konstrukcja
100
AcDbPolyline
 90
        2
 70
     1
 43
0.3
 10
87.78510596833347
 20
168.7181005171962
 42
1.0
 10
88.08510596833343
 20
168.7181005171962
 42
1.0
  0
LWPOLYLINE
  5
2151
330
1F
100
AcDbEntity
  8
SOLBET_Zbrojenie_Konstrukcja
100
AcDbPolyline
 90
        2
 70
     1
 43
0.3
 10
93.17974993154326
 20
168.6964808421162
 42
1.0
 10
93.47974993154322
 20
168.6964808421162
 42
1.0
  0
LWPOLYLINE
  5
2152
330
1F
100
AcDbEntity
  8
SOLBET_Zbrojenie_Konstrukcja
100
AcDbPolyline
 90
        2
 70
     1
 43
0.3
 10
93.17974993154326
 20
161.4909737572113
 42
1.0
 10
93.47974993154322
 20
161.4909737572113
 42
1.0
  0
LWPOLYLINE
  5
2153
330
1F
100
AcDbEntity
  8
SOLBET_Zbrojenie_Konstrukcja
100
AcDbPolyline
 90
        2
 70
     1
 43
0.3
 10
87.78510596833347
 20
161.4909737572113
 42
1.0
 10
88.08510596833343
 20
161.4909737572113
 42
1.0
  0
LINE
  5
2154
330
1F
100
AcDbEntity
  8
SOLBET_Zbrojenie_Konstrukcja
100
AcDbLine
 10
90.23002603959458
 20
167.6291340043619
 30
0.0
 11
88.81581247722193
 21
169.0433475667345
 31
0.0
  0
LINE
  5
2155
330
1F
100
AcDbEntity
  8
SOLBET_Zbrojenie_Konstrukcja
100
AcDbLine
 10
89.03002603960613
 20
166.4291340043619
 30
0.0
 11
87.61581247723347
 21
167.8433475667345
 31
0.0
  0
LWPOLYLINE
  5
2156
330
1F
100
AcDbEntity
  8
SOLBET_Zbrojenie_Konstrukcja
100
AcDbPolyline
 90
        5
 70
     0
 43
0.0
 10
93.62144377133494
 20
161.1747523568916
 10
93.62144377133494
 20
169.0433475667345
 10
87.61581247723347
 20
169.0433475667345
 10
87.61581247723347
 20
161.1747523568916
 10
93.62144377133494
 20
161.1747523568916
  0
LINE
  5
2157
330
1F
100
AcDbEntity
  8
SOLBET_Wymiary_Opisy
100
AcDbLine
 10
49.71126095759382
 20
200.5511408936272
 30
0.0
 11
131.7516236305439
 21
200.5511408936272
 31
0.0
  0
LINE
  5
215A
330
1F
100
AcDbEntity
  8
SOLBET_Tynki_Posadzki
100
AcDbLine
 10
98.0295084852578
 20
176.7087961264998
 30
0.0
 11
98.0295084852578
 21
176.2087961264998
 31
0.0
  0
ARC
  5
215B
330
1F
100
AcDbEntity
  8
SOLBET_Tynki_Posadzki
100
AcDbCircle
 10
97.23144229406877
 20
176.7087961264998
 30
0.0
 40
1.5000521396288
100
AcDbArc
 50
0.0
 51
90.0
  0
LINE
  5
215D
330
1F
100
AcDbEntity
  8
SOLBET_Izolacja
  6
Continuous
100
AcDbLine
 10
97.73144229406875
 20
176.2087961264998
 30
0.0
 11
96.73144229406876
 21
176.2087961264998
 31
0.0
  0
LINE
  5
215F
330
1F
100
AcDbEntity
  8
SOLBET_Izolacja
  6
Continuous
100
AcDbLine
 10
97.73144229406875
 20
170.8354892929444
 30
0.0
 11
96.73144229406876
 21
170.8354892929444
 31
0.0
  0
LINE
  5
2160
330
1F
100
AcDbEntity
  8
SOLBET_Tynki_Posadzki
100
AcDbLine
 10
98.0295084852578
 20
176.7087961264998
 30
0.0
 11
131.7516236305439
 21
176.7087961264998
 31
0.0
  0
LINE
  5
2163
330
1F
100
AcDbEntity
  8
SOLBET_Izolacja
  6
Continuous
100
AcDbLine
 10
97.73144229406875
 20
170.8354892929444
 30
0.0
 11
97.73144229406875
 21
176.2087961264998
 31
0.0
  0
LINE
  5
2164
330
1F
100
AcDbEntity
  8
SOLBET_Izolacja
  6
Continuous
100
AcDbLine
 10
97.73144229406875
 20
173.3354892929444
 30
0.0
 11
131.7516236305439
 21
173.3354892929444
 31
0.0
  0
LINE
  5
2165
330
1F
100
AcDbEntity
  8
SOLBET_Tynki_Posadzki
100
AcDbLine
 10
97.23144229406877
 20
176.2087961264998
 30
0.0
 11
97.23144229406877
 21
200.5511408936272
 31
0.0
  0
LINE
  5
2166
330
1F
100
AcDbEntity
  8
SOLBET_Izolacja
  6
Continuous
100
AcDbLine
 10
97.23144229406877
 20
170.8354892929444
 30
0.0
 11
131.7516236305439
 21
170.8354892929444
 31
0.0
  0
LINE
  5
2167
330
1F
100
AcDbEntity
  8
SOLBET_Emulsje_Folie
100
AcDbLine
 10
97.84625834374152
 20
176.4587961264998
 30
0.0
 11
97.84625834374152
 21
173.7813286065164
 31
0.0
  0
LINE
  5
2168
330
1F
100
AcDbEntity
  8
SOLBET_Emulsje_Folie
100
AcDbLine
 10
98.09625834372992
 20
173.5313286065164
 30
0.0
 11
131.7516236305439
 21
173.5313286065149
 31
0.0
  0
ARC
  5
2169
330
1F
100
AcDbEntity
  8
SOLBET_Emulsje_Folie
100
AcDbCircle
 10
98.09625834372992
 20
173.7813286065164
 30
0.0
 40
0.25
100
AcDbArc
 50
180.0
 51
270.0
  0
LWPOLYLINE
  5
216A
102
{ACAD_REACTORS
330
2267
102
}
330
1F
100
AcDbEntity
  8
SOLBET_Tynki_Posadzki
100
AcDbPolyline
 90
        5
 70
     1
 43
0.0
 10
97.84625834374152
 20
173.7813286065164
 42
0.0737237824442244
 10
97.85701152694811
 20
173.7087961264998
 10
131.7516236305439
 20
173.7087961264998
 10
131.7516236305439
 20
176.2087961264998
 10
97.84625834374152
 20
176.2087961264998
1001
ASO_SCHRAFF
1005
216A
1070
     1
1002
{
1070
     1
1005
216A
1002
}
1002
{
1070
     2
1005
2180
1002
}
1002
{
1070
     4
1000
AR-CONC
1040
0.01
1040
0.0
1070
     0
1000
T__SCHR
1070
   256
1000
VONLAYER
1040
50.0
1070
     1
1002
}
  0
LINE
  5
216B
330
1F
100
AcDbEntity
  8
SOLBET_Tynki_Posadzki
100
AcDbLine
 10
97.23144229406877
 20
158.3354892929444
 30
0.0
 11
97.23144229406877
 21
149.7777936423499
 31
0.0
  0
LINE
  5
216C
330
1F
100
AcDbEntity
  8
SOLBET_Tynki_Posadzki
100
AcDbLine
 10
97.23144229406877
 20
158.3354892929444
 30
0.0
 11
131.7516236305439
 21
158.3354892929444
 31
0.0
  0
LINE
  5
216D
330
1F
100
AcDbEntity
  8
SOLBET_Tynki_Posadzki
100
AcDbLine
 10
97.23144229406877
 20
158.3354892929444
 30
0.0
 11
96.73343546159731
 21
158.835489292943
 31
0.0
  0
LINE
  5
2174
330
1F
100
AcDbEntity
  8
SOLBET_Wymiary_Opisy
100
AcDbLine
 10
49.71126095759382
 20
149.7777936423499
 30
0.0
 11
131.7516236305439
 21
149.7777936423499
 31
0.0
  0
LINE
  5
2182
330
1F
100
AcDbEntity
  8
SOLBET_Zbrojenie_Konstrukcja
100
AcDbLine
 10
126.7647756273943
 20
160.8354892929444
 30
0.0
 11
130.2314422940687
 21
167.3354892929444
 31
0.0
  0
LINE
  5
2183
330
1F
100
AcDbEntity
  8
SOLBET_Zbrojenie_Konstrukcja
100
AcDbLine
 10
118.7647756273943
 20
160.8354892929444
 30
0.0
 11
122.2314422940687
 21
167.3354892929444
 31
0.0
  0
LINE
  5
2184
330
1F
100
AcDbEntity
  8
SOLBET_Zbrojenie_Konstrukcja
100
AcDbLine
 10
110.7647756274059
 20
160.8354892929444
 30
0.0
 11
114.2314422940687
 21
167.3354892929444
 31
0.0
  0
LINE
  5
2185
330
1F
100
AcDbEntity
  8
SOLBET_Zbrojenie_Konstrukcja
100
AcDbLine
 10
102.7647756273943
 20
160.8354892929444
 30
0.0
 11
106.2314422940687
 21
167.3354892929444
 31
0.0
  0
LINE
  5
2186
330
1F
100
AcDbEntity
  8
SOLBET_Zbrojenie_Konstrukcja
100
AcDbLine
 10
94.76477562740592
 20
160.8354892929444
 30
0.0
 11
98.23144229406876
 21
167.3354892929444
 31
0.0
  0
LINE
  5
2187
330
1F
100
AcDbEntity
  8
SOLBET_Zbrojenie_Konstrukcja
100
AcDbLine
 10
98.23144229406876
 20
167.3354892929444
 30
0.0
 11
101.6981089607316
 21
160.8354892929444
 31
0.0
  0
LINE
  5
2188
330
1F
100
AcDbEntity
  8
SOLBET_Zbrojenie_Konstrukcja
100
AcDbLine
 10
106.2314422940687
 20
167.3354892929444
 30
0.0
 11
109.6981089607316
 21
160.8354892929444
 31
0.0
  0
LINE
  5
2189
330
1F
100
AcDbEntity
  8
SOLBET_Zbrojenie_Konstrukcja
100
AcDbLine
 10
114.2314422940687
 20
167.3354892929444
 30
0.0
 11
117.6981089607432
 21
160.8354892929444
 31
0.0
  0
LINE
  5
218A
330
1F
100
AcDbEntity
  8
SOLBET_Zbrojenie_Konstrukcja
100
AcDbLine
 10
122.2314422940687
 20
167.3354892929444
 30
0.0
 11
125.6981089607316
 21
160.8354892929444
 31
0.0
  0
LINE
  5
218B
330
1F
100
AcDbEntity
  8
SOLBET_Zbrojenie_Konstrukcja
100
AcDbLine
 10
131.7516236305439
 20
167.3354892929444
 30
0.0
 11
92.73144229406875
 21
167.3354892929444
 31
0.0
  0
LINE
  5
218C
330
1F
100
AcDbEntity
  8
SOLBET_Zbrojenie_Konstrukcja
100
AcDbLine
 10
130.2314422940687
 20
167.3354892929444
 30
0.0
 11
131.7516236305439
 21
164.4851492870537
 31
0.0
  0
LWPOLYLINE
  5
2190
102
{ACAD_REACTORS
330
2295
102
}
330
1F
100
AcDbEntity
  8
SOLBET_Beton
100
AcDbPolyline
 90
        4
 70
     1
 43
0.0
 10
92.73144229406875
 20
158.835489292943
 10
131.7516236305439
 20
158.835489292943
 10
131.7516236305439
 20
160.8354892929444
 10
92.73144229406875
 20
160.8354892929444
1001
ASO_SCHRAFF
1005
2190
1070
     1
1002
{
1070
     1
1005
2190
1002
}
1002
{
1070
     2
1005
0
1002
}
1002
{
1070
     4
1000
FERTIG
1040
1.0
1040
45.0
1070
     0
1000
T__SCHR
1070
   256
1000
_bylayer
1040
25.0
1070
     1
1002
}
  0
LINE
  5
2191
330
1F
100
AcDbEntity
  8
SOLBET_Wymiary_Opisy
100
AcDbLine
 10
49.71126095759382
 20
200.5511408936272
 30
0.0
 11
49.71126095759382
 21
149.7777936423499
 31
0.0
  0
LINE
  5
2192
330
1F
100
AcDbEntity
  8
SOLBET_Tynki_Posadzki
100
AcDbLine
 10
83.43337610286813
 20
176.7087961264998
 30
0.0
 11
83.43337610286813
 21
176.2087961264998
 31
0.0
  0
ARC
  5
2193
330
1F
100
AcDbEntity
  8
SOLBET_Tynki_Posadzki
100
AcDbCircle
 10
84.23144229406876
 20
176.7087961264998
 30
0.0
 40
1.5000521396288
100
AcDbArc
 50
90.0
 51
180.0
  0
LINE
  5
2195
330
1F
100
AcDbEntity
  8
SOLBET_Izolacja
  6
Continuous
100
AcDbLine
 10
83.73144229406875
 20
176.2087961264998
 30
0.0
 11
84.73144229406875
 21
176.2087961264998
 31
0.0
  0
LINE
  5
2197
330
1F
100
AcDbEntity
  8
SOLBET_Izolacja
  6
Continuous
100
AcDbLine
 10
83.73144229406875
 20
170.8354892929444
 30
0.0
 11
84.73144229406875
 21
170.8354892929444
 31
0.0
  0
LINE
  5
2198
330
1F
100
AcDbEntity
  8
SOLBET_Tynki_Posadzki
100
AcDbLine
 10
83.43337610286813
 20
176.7087961264998
 30
0.0
 11
49.71126095759382
 21
176.7087961264998
 31
0.0
  0
LINE
  5
219B
330
1F
100
AcDbEntity
  8
SOLBET_Izolacja
  6
Continuous
100
AcDbLine
 10
83.73144229406875
 20
170.8354892929444
 30
0.0
 11
83.73144229406875
 21
176.2087961264998
 31
0.0
  0
LINE
  5
219C
330
1F
100
AcDbEntity
  8
SOLBET_Izolacja
  6
Continuous
100
AcDbLine
 10
83.73144229406875
 20
173.3354892929444
 30
0.0
 11
49.71126095759382
 21
173.3354892929444
 31
0.0
  0
LINE
  5
219D
330
1F
100
AcDbEntity
  8
SOLBET_Tynki_Posadzki
100
AcDbLine
 10
84.23144229406876
 20
176.2087961264998
 30
0.0
 11
84.23144229406876
 21
200.5511408936272
 31
0.0
  0
LINE
  5
219E
330
1F
100
AcDbEntity
  8
SOLBET_Izolacja
  6
Continuous
100
AcDbLine
 10
84.23144229406876
 20
170.8354892929444
 30
0.0
 11
49.71126095759382
 21
170.8354892929444
 31
0.0
  0
LINE
  5
219F
330
1F
100
AcDbEntity
  8
SOLBET_Emulsje_Folie
100
AcDbLine
 10
83.61662624439622
 20
176.4587961264998
 30
0.0
 11
83.61662624439622
 21
173.7813286065164
 31
0.0
  0
LINE
  5
21A0
330
1F
100
AcDbEntity
  8
SOLBET_Emulsje_Folie
100
AcDbLine
 10
83.36662624440782
 20
173.5313286065164
 30
0.0
 11
49.71126095759382
 21
173.5313286065149
 31
0.0
  0
ARC
  5
21A1
330
1F
100
AcDbEntity
  8
SOLBET_Emulsje_Folie
100
AcDbCircle
 10
83.36662624440782
 20
173.7813286065164
 30
0.0
 40
0.25
100
AcDbArc
 50
270.0
 51
0.0
  0
LWPOLYLINE
  5
21A2
102
{ACAD_REACTORS
330
2267
102
}
330
1F
100
AcDbEntity
  8
SOLBET_Tynki_Posadzki
100
AcDbPolyline
 90
        5
 70
     1
 43
0.0
 10
83.61662624439622
 20
173.7813286065164
 42
-0.0737237824442244
 10
83.60587306118963
 20
173.7087961264998
 10
49.71126095759382
 20
173.7087961264998
 10
49.71126095759382
 20
176.2087961264998
 10
83.61662624439622
 20
176.2087961264998
1001
ASO_SCHRAFF
1005
216A
1070
     1
1002
{
1070
     1
1005
216A
1002
}
1002
{
1070
     2
1005
2180
1002
}
1002
{
1070
     4
1000
AR-CONC
1040
0.01
1040
0.0
1070
     0
1000
T__SCHR
1070
   256
1000
VONLAYER
1040
50.0
1070
     1
1002
}
  0
LINE
  5
21A3
330
1F
100
AcDbEntity
  8
SOLBET_Tynki_Posadzki
100
AcDbLine
 10
84.23144229406876
 20
158.3354892929444
 30
0.0
 11
84.23144229406876
 21
149.7777936423499
 31
0.0
  0
LINE
  5
21A4
330
1F
100
AcDbEntity
  8
SOLBET_Tynki_Posadzki
100
AcDbLine
 10
84.23144229406876
 20
158.3354892929444
 30
0.0
 11
49.71126095759382
 21
158.3354892929444
 31
0.0
  0
LINE
  5
21A5
330
1F
100
AcDbEntity
  8
SOLBET_Tynki_Posadzki
100
AcDbLine
 10
84.23144229406876
 20
158.3354892929444
 30
0.0
 11
84.72944912654043
 21
158.835489292943
 31
0.0
  0
LINE
  5
21AB
330
1F
100
AcDbEntity
  8
SOLBET_Zbrojenie_Konstrukcja
100
AcDbLine
 10
54.69810896074318
 20
160.8354892929444
 30
0.0
 11
51.23144229406875
 21
167.3354892929444
 31
0.0
  0
LINE
  5
21AC
330
1F
100
AcDbEntity
  8
SOLBET_Zbrojenie_Konstrukcja
100
AcDbLine
 10
62.69810896073159
 20
160.8354892929444
 30
0.0
 11
59.23144229406876
 21
167.3354892929444
 31
0.0
  0
LINE
  5
21AD
330
1F
100
AcDbEntity
  8
SOLBET_Zbrojenie_Konstrukcja
100
AcDbLine
 10
70.69810896073159
 20
160.8354892929444
 30
0.0
 11
67.23144229406876
 21
167.3354892929444
 31
0.0
  0
LINE
  5
21AE
330
1F
100
AcDbEntity
  8
SOLBET_Zbrojenie_Konstrukcja
100
AcDbLine
 10
78.69810896073158
 20
160.8354892929444
 30
0.0
 11
75.23144229406875
 21
167.3354892929444
 31
0.0
  0
LINE
  5
21AF
330
1F
100
AcDbEntity
  8
SOLBET_Zbrojenie_Konstrukcja
100
AcDbLine
 10
86.69810896073158
 20
160.8354892929444
 30
0.0
 11
83.23144229406876
 21
167.3354892929444
 31
0.0
  0
LINE
  5
21B0
330
1F
100
AcDbEntity
  8
SOLBET_Zbrojenie_Konstrukcja
100
AcDbLine
 10
83.23144229406876
 20
167.3354892929444
 30
0.0
 11
79.76477562739432
 21
160.8354892929444
 31
0.0
  0
LINE
  5
21B1
330
1F
100
AcDbEntity
  8
SOLBET_Zbrojenie_Konstrukcja
100
AcDbLine
 10
75.23144229406875
 20
167.3354892929444
 30
0.0
 11
71.76477562740593
 21
160.8354892929444
 31
0.0
  0
LINE
  5
21B2
330
1F
100
AcDbEntity
  8
SOLBET_Zbrojenie_Konstrukcja
100
AcDbLine
 10
67.23144229406876
 20
167.3354892929444
 30
0.0
 11
63.76477562740593
 21
160.8354892929444
 31
0.0
  0
LINE
  5
21B3
330
1F
100
AcDbEntity
  8
SOLBET_Zbrojenie_Konstrukcja
100
AcDbLine
 10
59.23144229406876
 20
167.3354892929444
 30
0.0
 11
55.76477562739433
 21
160.8354892929444
 31
0.0
  0
LINE
  5
21B4
330
1F
100
AcDbEntity
  8
SOLBET_Zbrojenie_Konstrukcja
100
AcDbLine
 10
49.71126095759382
 20
167.3354892929444
 30
0.0
 11
88.73144229406875
 21
167.3354892929444
 31
0.0
  0
LINE
  5
21B5
330
1F
100
AcDbEntity
  8
SOLBET_Zbrojenie_Konstrukcja
100
AcDbLine
 10
51.23144229406875
 20
167.3354892929444
 30
0.0
 11
49.71126095759382
 21
164.4851492870537
 31
0.0
  0
LWPOLYLINE
  5
21B8
102
{ACAD_REACTORS
330
2295
102
}
330
1F
100
AcDbEntity
  8
SOLBET_Beton
100
AcDbPolyline
 90
        4
 70
     1
 43
0.0
 10
88.73144229406875
 20
158.835489292943
 10
49.71126095759382
 20
158.835489292943
 10
49.71126095759382
 20
160.8354892929444
 10
88.73144229406875
 20
160.8354892929444
1001
ASO_SCHRAFF
1005
2190
1070
     1
1002
{
1070
     1
1005
2190
1002
}
1002
{
1070
     2
1005
0
1002
}
1002
{
1070
     4
1000
FERTIG
1040
1.0
1040
45.0
1070
     0
1000
T__SCHR
1070
   256
1000
_bylayer
1040
25.0
1070
     1
1002
}
  0
LINE
  5
21B9
330
1F
100
AcDbEntity
  8
SOLBET_Zbrojenie_Konstrukcja
100
AcDbLine
 10
62.80586580664067
 20
169.853989743927
 30
0.0
 11
118.6570187814968
 21
169.853989743927
 31
0.0
  0
LINE
  5
21BA
330
1F
100
AcDbEntity
  8
SOLBET_Wymiary_Opisy
100
AcDbLine
 10
273.9663785791925
 20
200.5511408936272
 30
0.0
 11
273.9663785791925
 21
149.7777936423499
 31
0.0
  0
LWPOLYLINE
  5
21BB
330
1F
100
AcDbEntity
  8
SOLBET_Zbrojenie_Konstrukcja
100
AcDbPolyline
 90
        2
 70
     1
 43
0.3
 10
229.9998609169938
 20
168.7181005171962
 42
1.0
 10
230.2998609169822
 20
168.7181005171962
 42
1.0
  0
LWPOLYLINE
  5
21BC
330
1F
100
AcDbEntity
  8
SOLBET_Zbrojenie_Konstrukcja
100
AcDbPolyline
 90
        2
 70
     1
 43
0.3
 10
235.3945048802036
 20
168.6964808421162
 42
1.0
 10
235.6945048802036
 20
168.6964808421162
 42
1.0
  0
LWPOLYLINE
  5
21BD
330
1F
100
AcDbEntity
  8
SOLBET_Zbrojenie_Konstrukcja
100
AcDbPolyline
 90
        2
 70
     1
 43
0.3
 10
235.3945048802036
 20
161.4909737572113
 42
1.0
 10
235.6945048802036
 20
161.4909737572113
 42
1.0
  0
LWPOLYLINE
  5
21BE
330
1F
100
AcDbEntity
  8
SOLBET_Zbrojenie_Konstrukcja
100
AcDbPolyline
 90
        2
 70
     1
 43
0.3
 10
229.9998609169938
 20
161.4909737572113
 42
1.0
 10
230.2998609169822
 20
161.4909737572113
 42
1.0
  0
LINE
  5
21BF
330
1F
100
AcDbEntity
  8
SOLBET_Zbrojenie_Konstrukcja
100
AcDbLine
 10
232.4447809882547
 20
167.6291340043619
 30
0.0
 11
231.030567425882
 21
169.0433475667345
 31
0.0
  0
LINE
  5
21C0
330
1F
100
AcDbEntity
  8
SOLBET_Zbrojenie_Konstrukcja
100
AcDbLine
 10
231.2447809882546
 20
166.4291340043619
 30
0.0
 11
229.8305674258823
 21
167.8433475667345
 31
0.0
  0
LWPOLYLINE
  5
21C1
330
1F
100
AcDbEntity
  8
SOLBET_Zbrojenie_Konstrukcja
100
AcDbPolyline
 90
        5
 70
     0
 43
0.0
 10
235.8361987199837
 20
161.1747523568916
 10
235.8361987199837
 20
169.0433475667345
 10
229.8305674258823
 20
169.0433475667345
 10
229.8305674258823
 20
161.1747523568916
 10
235.8361987199837
 20
161.1747523568916
  0
LINE
  5
21C2
330
1F
100
AcDbEntity
  8
SOLBET_Wymiary_Opisy
100
AcDbLine
 10
191.9260159062539
 20
200.5511408936272
 30
0.0
 11
273.9663785791925
 21
200.5511408936272
 31
0.0
  0
LINE
  5
21C5
330
1F
100
AcDbEntity
  8
SOLBET_Tynki_Posadzki
100
AcDbLine
 10
240.2442634339181
 20
176.7087961264998
 30
0.0
 11
240.2442634339181
 21
176.2087961264998
 31
0.0
  0
ARC
  5
21C6
330
1F
100
AcDbEntity
  8
SOLBET_Tynki_Posadzki
100
AcDbCircle
 10
239.4461972427175
 20
176.7087961264998
 30
0.0
 40
1.5000521396288
100
AcDbArc
 50
0.0
 51
90.0
  0
LINE
  5
21C8
330
1F
100
AcDbEntity
  8
SOLBET_Izolacja
  6
Continuous
100
AcDbLine
 10
239.9461972427175
 20
176.2087961264998
 30
0.0
 11
238.9461972427175
 21
176.2087961264998
 31
0.0
  0
LINE
  5
21CA
330
1F
100
AcDbEntity
  8
SOLBET_Izolacja
  6
Continuous
100
AcDbLine
 10
239.9461972427175
 20
170.8354892929444
 30
0.0
 11
238.9461972427175
 21
170.8354892929444
 31
0.0
  0
LINE
  5
21CB
330
1F
100
AcDbEntity
  8
SOLBET_Tynki_Posadzki
100
AcDbLine
 10
240.2442634339181
 20
176.7087961264998
 30
0.0
 11
273.9663785791925
 21
176.7087961264998
 31
0.0
  0
LINE
  5
21CE
330
1F
100
AcDbEntity
  8
SOLBET_Izolacja
  6
Continuous
100
AcDbLine
 10
239.9461972427175
 20
170.8354892929444
 30
0.0
 11
239.9461972427175
 21
176.2087961264998
 31
0.0
  0
LINE
  5
21CF
330
1F
100
AcDbEntity
  8
SOLBET_Izolacja
  6
Continuous
100
AcDbLine
 10
239.9461972427175
 20
173.3354892929444
 30
0.0
 11
273.9663785791925
 21
173.3354892929444
 31
0.0
  0
LINE
  5
21D0
330
1F
100
AcDbEntity
  8
SOLBET_Tynki_Posadzki
100
AcDbLine
 10
239.4461972427175
 20
176.2087961264998
 30
0.0
 11
239.4461972427175
 21
200.5511408936272
 31
0.0
  0
LINE
  5
21D1
330
1F
100
AcDbEntity
  8
SOLBET_Izolacja
  6
Continuous
100
AcDbLine
 10
239.4461972427175
 20
170.8354892929444
 30
0.0
 11
273.9663785791925
 21
170.8354892929444
 31
0.0
  0
LINE
  5
21D2
330
1F
100
AcDbEntity
  8
SOLBET_Emulsje_Folie
100
AcDbLine
 10
240.0610132923901
 20
176.4587961264998
 30
0.0
 11
240.0610132923901
 21
173.7813286065164
 31
0.0
  0
LINE
  5
21D3
330
1F
100
AcDbEntity
  8
SOLBET_Emulsje_Folie
100
AcDbLine
 10
240.3110132923901
 20
173.5313286065164
 30
0.0
 11
273.9663785791925
 21
173.5313286065149
 31
0.0
  0
ARC
  5
21D4
330
1F
100
AcDbEntity
  8
SOLBET_Emulsje_Folie
100
AcDbCircle
 10
240.3110132923901
 20
173.7813286065164
 30
0.0
 40
0.25
100
AcDbArc
 50
180.0
 51
270.0
  0
LWPOLYLINE
  5
21D5
102
{ACAD_REACTORS
330
22AB
102
}
330
1F
100
AcDbEntity
  8
SOLBET_Tynki_Posadzki
100
AcDbPolyline
 90
        5
 70
     1
 43
0.0
 10
240.0610132923901
 20
173.7813286065164
 42
0.0737237824442244
 10
240.0717664756082
 20
173.7087961264998
 10
273.9663785791925
 20
173.7087961264998
 10
273.9663785791925
 20
176.2087961264998
 10
240.0610132923901
 20
176.2087961264998
1001
ASO_SCHRAFF
1005
216A
1070
     1
1002
{
1070
     1
1005
216A
1002
}
1002
{
1070
     2
1005
2180
1002
}
1002
{
1070
     4
1000
AR-CONC
1040
0.01
1040
0.0
1070
     0
1000
T__SCHR
1070
   256
1000
VONLAYER
1040
50.0
1070
     1
1002
}
  0
LINE
  5
21D6
330
1F
100
AcDbEntity
  8
SOLBET_Tynki_Posadzki
100
AcDbLine
 10
239.4461972427175
 20
158.3354892929444
 30
0.0
 11
239.4461972427175
 21
149.7777936423499
 31
0.0
  0
LINE
  5
21D7
330
1F
100
AcDbEntity
  8
SOLBET_Tynki_Posadzki
100
AcDbLine
 10
239.4461972427175
 20
158.3354892929444
 30
0.0
 11
273.9663785791925
 21
158.3354892929444
 31
0.0
  0
LINE
  5
21D8
330
1F
100
AcDbEntity
  8
SOLBET_Tynki_Posadzki
100
AcDbLine
 10
239.4461972427175
 20
158.3354892929444
 30
0.0
 11
238.9481904102459
 21
158.835489292943
 31
0.0
  0
LINE
  5
21D9
330
1F
100
AcDbEntity
  8
SOLBET_Wymiary_Opisy
100
AcDbLine
 10
191.9260159062539
 20
149.7777936423499
 30
0.0
 11
273.9663785791925
 21
149.7777936423499
 31
0.0
  0
LINE
  5
21DE
330
1F
100
AcDbEntity
  8
SOLBET_Wymiary_Opisy
100
AcDbLine
 10
191.9260159062539
 20
200.5511408936272
 30
0.0
 11
191.9260159062539
 21
149.7777936423499
 31
0.0
  0
LINE
  5
21DF
330
1F
100
AcDbEntity
  8
SOLBET_Tynki_Posadzki
100
AcDbLine
 10
225.6481310515285
 20
176.7087961264998
 30
0.0
 11
225.6481310515285
 21
176.2087961264998
 31
0.0
  0
ARC
  5
21E0
330
1F
100
AcDbEntity
  8
SOLBET_Tynki_Posadzki
100
AcDbCircle
 10
226.4461972427175
 20
176.7087961264998
 30
0.0
 40
1.5000521396288
100
AcDbArc
 50
90.0
 51
180.0
  0
LINE
  5
21E2
330
1F
100
AcDbEntity
  8
SOLBET_Izolacja
  6
Continuous
100
AcDbLine
 10
225.9461972427175
 20
176.2087961264998
 30
0.0
 11
226.9461972427175
 21
176.2087961264998
 31
0.0
  0
LINE
  5
21E4
330
1F
100
AcDbEntity
  8
SOLBET_Izolacja
  6
Continuous
100
AcDbLine
 10
225.9461972427175
 20
170.8354892929444
 30
0.0
 11
226.9461972427175
 21
170.8354892929444
 31
0.0
  0
LINE
  5
21E5
330
1F
100
AcDbEntity
  8
SOLBET_Tynki_Posadzki
100
AcDbLine
 10
225.6481310515285
 20
176.7087961264998
 30
0.0
 11
191.9260159062539
 21
176.7087961264998
 31
0.0
  0
LINE
  5
21E8
330
1F
100
AcDbEntity
  8
SOLBET_Izolacja
  6
Continuous
100
AcDbLine
 10
225.9461972427175
 20
170.8354892929444
 30
0.0
 11
225.9461972427175
 21
176.2087961264998
 31
0.0
  0
LINE
  5
21E9
330
1F
100
AcDbEntity
  8
SOLBET_Izolacja
  6
Continuous
100
AcDbLine
 10
225.9461972427175
 20
173.3354892929444
 30
0.0
 11
191.9260159062539
 21
173.3354892929444
 31
0.0
  0
LINE
  5
21EA
330
1F
100
AcDbEntity
  8
SOLBET_Tynki_Posadzki
100
AcDbLine
 10
226.4461972427175
 20
176.2087961264998
 30
0.0
 11
226.4461972427175
 21
200.5511408936272
 31
0.0
  0
LINE
  5
21EB
330
1F
100
AcDbEntity
  8
SOLBET_Izolacja
  6
Continuous
100
AcDbLine
 10
226.4461972427175
 20
170.8354892929444
 30
0.0
 11
191.9260159062539
 21
170.8354892929444
 31
0.0
  0
LINE
  5
21EC
330
1F
100
AcDbEntity
  8
SOLBET_Emulsje_Folie
100
AcDbLine
 10
225.8313811930563
 20
176.4587961264998
 30
0.0
 11
225.8313811930563
 21
173.7813286065164
 31
0.0
  0
LINE
  5
21ED
330
1F
100
AcDbEntity
  8
SOLBET_Emulsje_Folie
100
AcDbLine
 10
225.5813811930563
 20
173.5313286065164
 30
0.0
 11
191.9260159062539
 21
173.5313286065149
 31
0.0
  0
ARC
  5
21EE
330
1F
100
AcDbEntity
  8
SOLBET_Emulsje_Folie
100
AcDbCircle
 10
225.5813811930563
 20
173.7813286065164
 30
0.0
 40
0.25
100
AcDbArc
 50
270.0
 51
0.0
  0
LWPOLYLINE
  5
21EF
102
{ACAD_REACTORS
330
22AB
102
}
330
1F
100
AcDbEntity
  8
SOLBET_Tynki_Posadzki
100
AcDbPolyline
 90
        5
 70
     1
 43
0.0
 10
225.8313811930563
 20
173.7813286065164
 42
-0.0737237824442244
 10
225.8206280098498
 20
173.7087961264998
 10
191.9260159062539
 20
173.7087961264998
 10
191.9260159062539
 20
176.2087961264998
 10
225.8313811930563
 20
176.2087961264998
1001
ASO_SCHRAFF
1005
216A
1070
     1
1002
{
1070
     1
1005
216A
1002
}
1002
{
1070
     2
1005
2180
1002
}
1002
{
1070
     4
1000
AR-CONC
1040
0.01
1040
0.0
1070
     0
1000
T__SCHR
1070
   256
1000
VONLAYER
1040
50.0
1070
     1
1002
}
  0
LINE
  5
21F0
330
1F
100
AcDbEntity
  8
SOLBET_Tynki_Posadzki
100
AcDbLine
 10
226.4461972427175
 20
158.3354892929444
 30
0.0
 11
226.4461972427175
 21
149.7777936423499
 31
0.0
  0
LINE
  5
21F1
330
1F
100
AcDbEntity
  8
SOLBET_Tynki_Posadzki
100
AcDbLine
 10
226.4461972427175
 20
158.3354892929444
 30
0.0
 11
191.9260159062539
 21
158.3354892929444
 31
0.0
  0
LINE
  5
21F2
330
1F
100
AcDbEntity
  8
SOLBET_Tynki_Posadzki
100
AcDbLine
 10
226.4461972427175
 20
158.3354892929444
 30
0.0
 11
226.9442040752005
 21
158.835489292943
 31
0.0
  0
LWPOLYLINE
  5
21F6
330
1F
100
AcDbEntity
  8
SOLBET_Zbrojenie_Konstrukcja
  6
Continuous
100
AcDbPolyline
 90
        2
 70
     1
 43
0.3
 10
264.6206124074029
 20
169.7386225683247
 42
1.0
 10
264.9206124074028
 20
169.7386225683247
 42
1.0
  0
LINE
  5
21FB
330
1F
100
AcDbEntity
  8
SOLBET_Beton
100
AcDbLine
 10
268.2632880362885
 20
165.0334745013006
 30
0.0
 11
269.4320888266052
 21
167.6870367867737
 31
0.0
  0
LINE
  5
21FC
330
1F
100
AcDbEntity
  8
SOLBET_Beton
100
AcDbLine
 10
269.8896679057359
 20
167.985489307655
 30
0.0
 11
273.9663785791925
 21
167.985489307655
 31
0.0
  0
LINE
  5
21FD
330
1F
100
AcDbEntity
  8
SOLBET_Beton
100
AcDbLine
 10
269.5702753159769
 20
159.9854893076564
 30
0.0
 11
273.9663785791925
 21
159.9854893076564
 31
0.0
  0
LINE
  5
21FE
330
1F
100
AcDbEntity
  8
SOLBET_Beton
100
AcDbLine
 10
268.220867115419
 20
163.3468338165763
 30
0.0
 11
269.5702753159769
 21
159.9854893076564
 31
0.0
  0
ARC
  5
21FF
330
1F
100
AcDbEntity
  8
SOLBET_Beton
100
AcDbCircle
 10
269.8896679057359
 20
167.4854893076564
 30
0.0
 40
0.5
100
AcDbArc
 50
90.0
 51
156.2281976083631
  0
LINE
  5
2200
330
1F
100
AcDbEntity
  8
SOLBET_Beton
100
AcDbLine
 10
268.220867115419
 20
164.8319270221804
 30
0.0
 11
268.220867115419
 21
163.3468338165763
 31
0.0
  0
LWPOLYLINE
  5
2202
330
1F
100
AcDbEntity
  8
SOLBET_Beton
100
AcDbPolyline
 90
        2
 70
     0
 43
0.0
 10
267.8868555391991
 20
158.735489307655
 10
273.9663785791925
 20
158.735489307655
  0
LWPOLYLINE
  5
2203
330
1F
100
AcDbEntity
  8
SOLBET_Beton
100
AcDbPolyline
 90
        7
 70
     0
 43
0.0
 10
273.9663785791925
 20
169.2354893076564
 10
269.4004860334185
 20
169.2354893076564
 42
0.2972968798896451
 10
268.4853278751571
 20
168.6385842658925
 10
266.6368555392107
 20
164.4419439854635
 10
266.6368555392107
 20
160.835489307655
 10
267.8868555391991
 20
160.835489307655
 10
267.8868555391991
 20
158.735489307655
  0
LWPOLYLINE
  5
2206
330
1F
100
AcDbEntity
  8
SOLBET_Zbrojenie_Konstrukcja
100
AcDbPolyline
 90
        2
 70
     1
 43
0.3
 10
201.2717820780438
 20
169.7386225683247
 42
-1.0
 10
200.9717820780438
 20
169.7386225683247
 42
-1.0
  0
LINE
  5
2207
330
1F
100
AcDbEntity
  8
SOLBET_Beton
100
AcDbLine
 10
197.6291064491581
 20
165.0334745013006
 30
0.0
 11
196.4603056588528
 21
167.6870367867737
 31
0.0
  0
LINE
  5
2208
330
1F
100
AcDbEntity
  8
SOLBET_Beton
100
AcDbLine
 10
196.0027265797105
 20
167.985489307655
 30
0.0
 11
191.9260159062539
 21
167.985489307655
 31
0.0
  0
LINE
  5
2209
330
1F
100
AcDbEntity
  8
SOLBET_Beton
100
AcDbLine
 10
196.3221191694697
 20
159.9854893076564
 30
0.0
 11
191.9260159062539
 21
159.9854893076564
 31
0.0
  0
LINE
  5
220A
330
1F
100
AcDbEntity
  8
SOLBET_Beton
100
AcDbLine
 10
197.6715273700158
 20
163.3468338165763
 30
0.0
 11
196.3221191694697
 21
159.9854893076564
 31
0.0
  0
ARC
  5
220B
330
1F
100
AcDbEntity
  8
SOLBET_Beton
100
AcDbCircle
 10
196.0027265797105
 20
167.4854893076564
 30
0.0
 40
0.5
100
AcDbArc
 50
23.77180239163684
 51
90.0
  0
LINE
  5
220C
330
1F
100
AcDbEntity
  8
SOLBET_Beton
100
AcDbLine
 10
197.6715273700158
 20
164.8319270221804
 30
0.0
 11
197.6715273700158
 21
163.3468338165763
 31
0.0
  0
LWPOLYLINE
  5
220E
330
1F
100
AcDbEntity
  8
SOLBET_Beton
100
AcDbPolyline
 90
        2
 70
     0
 43
0.0
 10
198.0055389462356
 20
158.735489307655
 10
191.9260159062539
 20
158.735489307655
  0
LWPOLYLINE
  5
220F
330
1F
100
AcDbEntity
  8
SOLBET_Beton
100
AcDbPolyline
 90
        7
 70
     0
 43
0.0
 10
191.9260159062539
 20
169.2354893076564
 10
196.4919084520165
 20
169.2354893076564
 42
-0.2972968798896451
 10
197.4070666102893
 20
168.6385842658925
 10
199.2555389462473
 20
164.4419439854635
 10
199.2555389462473
 20
160.835489307655
 10
198.0055389462356
 20
160.835489307655
 10
198.0055389462356
 20
158.735489307655
  0
LWPOLYLINE
  5
2216
330
1F
100
AcDbEntity
  8
SOLBET_Ramka_05
100
AcDbPolyline
 90
        4
 70
     1
 43
0.0
 10
1.907573280842825
 20
0.0
 10
336.2593473729328
 20
0.0
 10
336.2593473729328
 20
297.0
 10
1.907573280842825
 20
297.0
  0
MTEXT
  5
2217
102
{ACAD_XDICTIONARY
360
2218
102
}
330
1F
100
AcDbEntity
  8
SOLBET_Wymiary_Opisy @ 1
100
AcDbMText
 10
19.44542266338453
 20
289.8967110907779
 30
0.0
 40
5.0
 41
163.4434820937695
 71
     1
 72
     5
  1
{\LDETAL 62\P}Oparcie stropu Teriva na \U+015Bcianach wewn\U+0119trznych
  7
Solbet_5
 73
     1
 44
1.0
1001
AcadAnnotative
1000
AnnotativeData
1002
{
1070
     1
1070
     0
1002
}
1001
ACAD
1000
MTEXTBEGIN
1070
    73
1070
     1
1070
    44
1040
1.0
1070
    74
1070
     0
1000
MTEXTEND
  0
MTEXT
  5
222C
102
{ACAD_XDICTIONARY
360
222D
102
}
330
1F
100
AcDbEntity
  8
SOLBET_Wymiary_Opisy @ 1
100
AcDbMText
 10
47.34488049323807
 20
224.7267908156415
 30
0.0
 40
5.0
 41
124.2624847080697
 71
     1
 72
     5
  1
Na \U+015Bcianie wewn\U+0119trznej\Pprostopad\U+0142ej do kierunku belek
  7
Solbet_5
 73
     1
 44
1.0
1001
AcadAnnotative
1000
AnnotativeData
1002
{
1070
     1
1070
     0
1002
}
1001
ACAD
1000
MTEXTBEGIN
1070
    73
1070
     1
1070
    44
1040
1.0
1070
    74
1070
     0
1000
MTEXTEND
  0
MTEXT
  5
2231
102
{ACAD_XDICTIONARY
360
2232
102
}
330
1F
100
AcDbEntity
  8
SOLBET_Wymiary_Opisy @ 1
100
AcDbMText
 10
190.8523506597796
 20
225.2267908156415
 30
0.0
 40
5.0
 41
124.2624847080697
 71
     1
 72
     5
  1
Na \U+015Bcianie wewn\U+0119trznej\Pr\U+00F3wnoleg\U+0142ej do kierunku belek
  7
Solbet_5
 73
     1
 44
1.0
1001
AcadAnnotative
1000
AnnotativeData
1002
{
1070
     1
1070
     0
1002
}
1001
ACAD
1000
MTEXTBEGIN
1070
    73
1070
     1
1070
    44
1040
1.0
1070
    74
1070
     0
1000
MTEXTEND
  0
LWPOLYLINE
  5
2256
330
1F
100
AcDbEntity
  8
SOLBET_Bloczki
100
AcDbPolyline
 90
        4
 70
     0
 43
0.0
 10
84.73144246981723
 20
200.5511408936272
 10
84.73144246981723
 20
194.8354892517571
 10
96.73144246981724
 20
194.8354892517571
 10
96.73144229406876
 20
200.5511408936272
  0
LWPOLYLINE
  5
225D
330
1F
100
AcDbEntity
  8
SOLBET_Bloczki
100
AcDbPolyline
 90
        4
 70
     0
 43
0.0
 10
84.73144229406875
 20
149.7777936423499
 10
84.73144229406875
 20
158.835489292943
 10
96.73144229406876
 20
158.835489292943
 10
96.73144229406876
 20
149.7777936423499
  0
LWPOLYLINE
  5
225E
330
1F
100
AcDbEntity
  8
SOLBET_Bloczki
100
AcDbPolyline
 90
        4
 70
     0
 43
0.0
 10
226.9461972427175
 20
200.5511408936272
 10
226.9461972427175
 20
194.8354892929444
 10
238.9461972427175
 20
194.8354892929444
 10
238.9461972427175
 20
200.5511408936272
  0
LWPOLYLINE
  5
225F
330
1F
100
AcDbEntity
  8
SOLBET_Bloczki
100
AcDbPolyline
 90
        4
 70
     0
 43
0.0
 10
226.9461972427175
 20
149.7777936423499
 10
226.9442040752005
 20
158.835489292943
 10
238.9481904102459
 20
158.835489292943
 10
238.9481904102459
 20
149.7777936423499
  0
HATCH
  5
2267
330
1F
100
AcDbEntity
  8
SOLBET_Tynki_Posadzki
100
AcDbHatch
 10
0.0
 20
0.0
 30
0.0
210
0.0
220
0.0
230
1.0
  2
AR-CONC
 70
     0
 71
     1
 91
        2
 92
        1
 93
        5
 72
     2
 10
83.36662624440114
 20
173.7813286064941
 40
0.249999999995083
 50
359.9999999948932
 51
376.8657343010354
 73
     0
 72
     1
 10
83.60587306118963
 20
173.7087961264998
 11
49.71126095759382
 21
173.7087961264998
 72
     1
 10
49.71126095759382
 20
173.7087961264998
 11
49.71126095759382
 21
176.2087961264998
 72
     1
 10
49.71126095759382
 20
176.2087961264998
 11
83.61662624439622
 21
176.2087961264998
 72
     1
 10
83.61662624439622
 20
176.2087961264998
 11
83.61662624439622
 21
173.7813286065164
 97
        1
330
21A2
 92
        1
 93
        5
 72
     2
 10
98.0962583437366
 20
173.7813286064941
 40
0.249999999995083
 50
179.9999999948932
 51
196.8657343010354
 73
     1
 72
     1
 10
97.85701152694811
 20
173.7087961264998
 11
131.7516236305439
 21
173.7087961264998
 72
     1
 10
131.7516236305439
 20
173.7087961264998
 11
131.7516236305439
 21
176.2087961264998
 72
     1
 10
131.7516236305439
 20
176.2087961264998
 11
97.84625834374152
 21
176.2087961264998
 72
     1
 10
97.84625834374152
 20
176.2087961264998
 11
97.84625834374152
 21
173.7813286065164
 97
        1
330
216A
 75
     0
 76
     1
 52
0.0
 41
0.05
 77
     0
 78
    13
 53
50.0
 43
965.7283021062905
 44
0.0
 45
9.1092334498002
 46
-0.7969542769451543
 79
     2
 49
0.9525000000000002
 49
-10.4775
 53
355.0
 43
965.7283021062905
 44
0.0
 45
-1.762141298783349
 46
9.552832144108998
 79
     2
 49
0.762
 49
-8.381999999999999
 53
100.451
 43
966.4874021062905
 44
-0.0664125
 45
7.347125083297962
 46
8.755834391014593
 79
     2
 49
0.8095
 49
-8.9045
 53
46.1842
 43
965.7283021062905
 44
2.54
 45
13.5539520446065
 46
-2.102116396636357
 79
     2
 49
1.428749999999999
 49
-15.71625
 53
96.6356
 43
966.8577971062905
 44
2.364825
 45
11.87021172331186
 46
12.37127779450246
 79
     2
 49
1.21425
 49
-13.35675
 53
351.184
 43
965.7283021062905
 44
2.54
 45
11.87023029069669
 46
12.37125589302988
 79
     2
 49
1.143
 49
-12.573
 53
21.0
 43
966.9983021062906
 44
1.905
 45
7.580743991769164
 46
-5.113275925838125
 79
     2
 49
0.9525000000000002
 49
-10.4775
 53
326.0
 43
966.9983021062906
 44
1.905
 45
3.090101417382353
 46
9.209398306115962
 79
     2
 49
0.762
 49
-8.381999999999999
 53
71.45140000000001
 43
967.6300271062906
 44
1.478895
 45
10.67082453850622
 46
4.096142885802872
 79
     2
 49
0.8095
 49
-8.9045
 53
37.5
 43
965.7283021062905
 44
0.0
 45
0.1544301625295909
 46
4.227751943657655
 79
     6
 49
0.0
 49
-8.2804
 49
0.0
 49
-8.509
 49
0.0
 49
-8.41375
 53
7.499999999999999
 43
965.7283021062905
 44
0.0
 45
3.340983125515287
 46
5.009028740905975
 79
     6
 49
0.0
 49
-4.851399999999999
 49
0.0
 49
-8.0899
 49
0.0
 49
-3.20675
 53
327.5
 43
962.8962021062905
 44
0.0
 45
6.77952975834357
 46
-0.2864371996336729
 79
     6
 49
0.0
 49
-3.175
 49
0.0
 49
-9.906
 49
0.0
 49
-13.1445
 53
317.5
 43
961.6262021062906
 44
0.0
 45
7.406459069300902
 46
1.27132455166665
 79
     6
 49
0.0
 49
-4.1275
 49
0.0
 49
-6.5786
 49
0.0
 49
-9.3345
 98
        1
 10
965.7283021062905
 20
0.0
1001
ACAD
1010
0.0
1020
0.0
1030
0.0
  0
LINE
  5
2268
330
1F
100
AcDbEntity
  8
SOLBET_Izolacja
  6
BATTING
 48
0.049
100
AcDbLine
 10
97.23144229406877
 20
176.2087961264998
 30
0.0
 11
97.23144229406877
 21
170.8354892929444
 31
0.0
  0
LINE
  5
2269
330
1F
100
AcDbEntity
  8
SOLBET_Izolacja
100
AcDbLine
 10
131.7516236305439
 20
173.3354892929444
 30
0.0
 11
131.7516236305439
 21
170.8354892929444
 31
0.0
  0
LINE
  5
226A
330
1F
100
AcDbEntity
  8
SOLBET_Izolacja
  6
BATTING
 48
0.12
100
AcDbLine
 10
131.7516236305439
 20
172.0854892929444
 30
0.0
 11
97.73144229406875
 21
172.0854892929444
 31
0.0
  0
LINE
  5
226B
330
1F
100
AcDbEntity
  8
SOLBET_Izolacja
100
AcDbLine
 10
49.71126095759382
 20
173.3354892929444
 30
0.0
 11
49.71126095759382
 21
170.8354892929444
 31
0.0
  0
LINE
  5
226C
330
1F
100
AcDbEntity
  8
SOLBET_Izolacja
  6
BATTING
 48
0.12
100
AcDbLine
 10
49.71126095759382
 20
172.0854892929444
 30
0.0
 11
83.73144229406875
 21
172.0854892929444
 31
0.0
  0
LINE
  5
227D
330
1F
100
AcDbEntity
  8
SOLBET_Izolacja
  6
BATTING
 48
0.049
100
AcDbLine
 10
84.23144229406876
 20
176.2087961264998
 30
0.0
 11
84.23144229406887
 21
170.8354892929444
 31
0.0
  0
LINE
  5
227E
330
1F
100
AcDbEntity
  8
SOLBET_Beton
100
AcDbLine
 10
49.99577008080359
 20
169.3354892929443
 30
0.0
 11
85.99577008080359
 21
169.3354892929443
 31
0.0
  0
LINE
  5
227F
330
1F
100
AcDbEntity
  8
SOLBET_Beton
100
AcDbLine
 10
85.99577008080359
 20
169.3354892929443
 30
0.0
 11
85.99577008080359
 21
160.8354892929444
 31
0.0
  0
LINE
  5
2280
330
1F
100
AcDbEntity
  8
SOLBET_Beton
100
AcDbLine
 10
85.99577008080359
 20
160.8354892929444
 30
0.0
 11
49.99577008080359
 21
160.8354892929444
 31
0.0
  0
LINE
  5
2281
330
1F
100
AcDbEntity
  8
SOLBET_Beton
100
AcDbLine
 10
49.99577008080359
 20
160.8354892929444
 30
0.0
 11
49.99577008080371
 21
169.3354892929443
 31
0.0
  0
LINE
  5
2282
330
1F
100
AcDbEntity
  8
SOLBET_Beton
100
AcDbLine
 10
49.99577008080371
 20
169.3354892929443
 30
0.0
 11
49.71126095759382
 21
169.3354892929443
 31
0.0
  0
LINE
  5
2283
330
1F
100
AcDbEntity
  8
SOLBET_Beton
100
AcDbLine
 10
49.99577008080359
 20
160.8354892929444
 30
0.0
 11
49.71126095759382
 21
160.8354892929444
 31
0.0
  0
LINE
  5
2284
330
1F
100
AcDbEntity
  8
SOLBET_Beton
100
AcDbLine
 10
49.71126095759382
 20
164.3354892929444
 30
0.0
 11
85.99577008080359
 21
164.3354892929445
 31
0.0
  0
LINE
  5
2285
330
1F
100
AcDbEntity
  8
SOLBET_Beton
100
AcDbLine
 10
73.9957700808036
 20
169.3354892929443
 30
0.0
 11
73.9957700808037
 21
160.8354892929444
 31
0.0
  0
LINE
  5
2286
330
1F
100
AcDbEntity
  8
SOLBET_Beton
100
AcDbLine
 10
61.9957700808036
 20
169.3354892929443
 30
0.0
 11
61.99577008080348
 21
160.8354892929444
 31
0.0
  0
LINE
  5
2287
330
1F
100
AcDbEntity
  8
SOLBET_Beton
100
AcDbLine
 10
95.46711450733392
 20
169.3354892929443
 30
0.0
 11
95.46711450733392
 21
160.8354892929444
 31
0.0
  0
LINE
  5
2288
330
1F
100
AcDbEntity
  8
SOLBET_Beton
100
AcDbLine
 10
95.46711450733392
 20
160.8354892929444
 30
0.0
 11
131.751623630544
 21
160.8354892929444
 31
0.0
  0
LINE
  5
2289
330
1F
100
AcDbEntity
  8
SOLBET_Beton
100
AcDbLine
 10
131.751623630544
 20
160.8354892929444
 30
0.0
 11
131.7516236305439
 21
169.3282737827898
 31
0.0
  0
LINE
  5
228B
330
1F
100
AcDbEntity
  8
SOLBET_Beton
100
AcDbLine
 10
107.4671145073339
 20
169.3331029819828
 30
0.0
 11
107.4671145073338
 21
160.8354892929444
 31
0.0
  0
LINE
  5
228C
330
1F
100
AcDbEntity
  8
SOLBET_Beton
100
AcDbLine
 10
119.4671145073457
 20
169.3307166710212
 30
0.0
 11
119.4671145073339
 21
160.8354892929444
 31
0.0
  0
LINE
  5
228D
330
1F
100
AcDbEntity
  8
SOLBET_Beton
100
AcDbLine
 10
131.0894178817837
 20
169.3283303600597
 30
0.0
 11
131.0894178817836
 21
160.8354892929444
 31
0.0
  0
LINE
  5
2290
330
1F
100
AcDbEntity
  8
SOLBET_Beton
100
AcDbLine
 10
95.46711450733392
 20
169.3354892929443
 30
0.0
 11
131.7516236305439
 21
169.3354892929448
 31
0.0
  0
LINE
  5
2291
330
1F
100
AcDbEntity
  8
SOLBET_Beton
100
AcDbLine
 10
95.46711450733392
 20
164.3354892929445
 30
0.0
 11
131.7536167980606
 21
164.3354892929444
 31
0.0
  0
HATCH
  5
2295
330
1F
100
AcDbEntity
  8
SOLBET_Beton
100
AcDbHatch
 10
0.0
 20
0.0
 30
0.0
210
0.0
220
0.0
230
1.0
  2
ANSI37
 70
     0
 71
     1
 91
        2
 92
        1
 93
        4
 72
     1
 10
88.73144229406875
 20
158.835489292943
 11
49.71126095759382
 21
158.835489292943
 72
     1
 10
49.71126095759382
 20
158.835489292943
 11
49.71126095759382
 21
160.8354892929444
 72
     1
 10
49.71126095759382
 20
160.8354892929444
 11
88.73144229406875
 21
160.8354892929444
 72
     1
 10
88.73144229406875
 20
160.8354892929444
 11
88.73144229406875
 21
158.835489292943
 97
        1
330
21B8
 92
        1
 93
        4
 72
     1
 10
92.73144229406875
 20
158.835489292943
 11
131.7516236305439
 21
158.835489292943
 72
     1
 10
131.7516236305439
 20
158.835489292943
 11
131.7516236305439
 21
160.8354892929444
 72
     1
 10
131.7516236305439
 20
160.8354892929444
 11
92.73144229406875
 21
160.8354892929444
 72
     1
 10
92.73144229406875
 20
160.8354892929444
 11
92.73144229406875
 21
158.835489292943
 97
        1
330
2190
 75
     0
 76
     1
 52
0.0
 41
0.5
 77
     0
 78
     2
 53
45.0
 43
965.7283021062905
 44
0.0
 45
-1.122532015133643
 46
1.122532015133644
 79
     0
 53
135.0
 43
965.7283021062905
 44
0.0
 45
-1.122532015133644
 46
-1.122532015133643
 79
     0
 98
        1
 10
965.7283021062905
 20
0.0
1001
ACAD
1010
0.0
1020
0.0
1030
0.0
  0
LWPOLYLINE
  5
2296
330
1F
100
AcDbEntity
  8
SOLBET_Zbrojenie_Konstrukcja
100
AcDbPolyline
 90
        4
 70
     1
 43
0.0
 10
204.0055389462473
 20
158.735489307655
 10
198.0055389462473
 20
158.735489307655
 10
198.0055389462473
 20
160.7354893223664
 10
204.0055389462473
 20
160.7354893223664
  0
LWPOLYLINE
  5
2297
330
1F
100
AcDbEntity
  8
SOLBET_Zbrojenie_Konstrukcja
100
AcDbPolyline
 90
        2
 70
     1
 43
0.3
 10
201.1555389462472
 20
167.0579295470162
 42
-1.0
 10
200.8555389462473
 20
167.0579295470162
 42
-1.0
  0
LINE
  5
2298
330
1F
100
AcDbEntity
  8
SOLBET_Zbrojenie_Konstrukcja
100
AcDbLine
 10
200.7394817327827
 20
167.2512924315183
 30
0.0
 11
199.0925459111626
 21
159.9362044360084
 31
0.0
  0
LWPOLYLINE
  5
2299
330
1F
100
AcDbEntity
  8
SOLBET_Zbrojenie_Konstrukcja
100
AcDbPolyline
 90
        2
 70
     1
 43
0.3
 10
203.2946003689446
 20
159.5983364136129
 42
-1.0
 10
202.9946003689446
 20
159.5983364136129
 42
-1.0
  0
LWPOLYLINE
  5
229A
330
1F
100
AcDbEntity
  8
SOLBET_Zbrojenie_Konstrukcja
100
AcDbPolyline
 90
        2
 70
     1
 43
0.3
 10
198.7164775235499
 20
159.5983364136129
 42
1.0
 10
199.0164775235499
 20
159.5983364136129
 42
1.0
  0
LINE
  5
229B
330
1F
100
AcDbEntity
  8
SOLBET_Zbrojenie_Konstrukcja
100
AcDbLine
 10
199.0925459111626
 20
159.9362044360084
 30
0.0
 11
198.530391654774
 21
159.9362044360084
 31
0.0
  0
LINE
  5
229C
330
1F
100
AcDbEntity
  8
SOLBET_Zbrojenie_Konstrukcja
100
AcDbLine
 10
201.2715961597117
 20
167.2512924315183
 30
0.0
 11
202.9185319813318
 21
159.9362044360084
 31
0.0
  0
LINE
  5
229D
330
1F
100
AcDbEntity
  8
SOLBET_Zbrojenie_Konstrukcja
100
AcDbLine
 10
202.9185319813318
 20
159.9362044360084
 30
0.0
 11
203.4806862377204
 21
159.9362044360084
 31
0.0
  0
LWPOLYLINE
  5
229E
330
1F
100
AcDbEntity
  8
SOLBET_Zbrojenie_Konstrukcja
100
AcDbPolyline
 90
        2
 70
     1
 43
0.3
 10
201.9131133900054
 20
159.5983364136129
 42
-1.0
 10
201.6131133900054
 20
159.5983364136129
 42
-1.0
  0
LWPOLYLINE
  5
229F
330
1F
100
AcDbEntity
  8
SOLBET_Zbrojenie_Konstrukcja
100
AcDbPolyline
 90
        2
 70
     1
 43
0.3
 10
200.097964502489
 20
159.5983364136129
 42
1.0
 10
200.397964502489
 20
159.5983364136129
 42
1.0
  0
LWPOLYLINE
  5
22A0
330
1F
100
AcDbEntity
  8
SOLBET_Zbrojenie_Konstrukcja
100
AcDbPolyline
 90
        4
 70
     1
 43
0.0
 10
261.8868555392107
 20
158.735489307655
 10
267.8868555392107
 20
158.735489307655
 10
267.8868555392107
 20
160.7354893223664
 10
261.8868555392107
 20
160.7354893223664
  0
LWPOLYLINE
  5
22A1
330
1F
100
AcDbEntity
  8
SOLBET_Zbrojenie_Konstrukcja
100
AcDbPolyline
 90
        2
 70
     1
 43
0.3
 10
264.7368555392108
 20
167.0579295470162
 42
1.0
 10
265.0368555392107
 20
167.0579295470162
 42
1.0
  0
LINE
  5
22A2
330
1F
100
AcDbEntity
  8
SOLBET_Zbrojenie_Konstrukcja
100
AcDbLine
 10
265.1529127526753
 20
167.2512924315183
 30
0.0
 11
266.7998485742954
 21
159.9362044360084
 31
0.0
  0
LWPOLYLINE
  5
22A3
330
1F
100
AcDbEntity
  8
SOLBET_Zbrojenie_Konstrukcja
100
AcDbPolyline
 90
        2
 70
     1
 43
0.3
 10
262.5977941165134
 20
159.5983364136129
 42
1.0
 10
262.8977941165134
 20
159.5983364136129
 42
1.0
  0
LWPOLYLINE
  5
22A4
330
1F
100
AcDbEntity
  8
SOLBET_Zbrojenie_Konstrukcja
100
AcDbPolyline
 90
        2
 70
     1
 43
0.3
 10
267.1759169619081
 20
159.5983364136129
 42
-1.0
 10
266.8759169619081
 20
159.5983364136129
 42
-1.0
  0
LINE
  5
22A5
330
1F
100
AcDbEntity
  8
SOLBET_Zbrojenie_Konstrukcja
100
AcDbLine
 10
266.7998485742954
 20
159.9362044360084
 30
0.0
 11
267.362002830684
 21
159.9362044360084
 31
0.0
  0
LINE
  5
22A6
330
1F
100
AcDbEntity
  8
SOLBET_Zbrojenie_Konstrukcja
100
AcDbLine
 10
264.6207983257462
 20
167.2512924315183
 30
0.0
 11
262.9738625041261
 21
159.9362044360084
 31
0.0
  0
LINE
  5
22A7
330
1F
100
AcDbEntity
  8
SOLBET_Zbrojenie_Konstrukcja
100
AcDbLine
 10
262.9738625041261
 20
159.9362044360084
 30
0.0
 11
262.4117082477376
 21
159.9362044360084
 31
0.0
  0
LWPOLYLINE
  5
22A8
330
1F
100
AcDbEntity
  8
SOLBET_Zbrojenie_Konstrukcja
100
AcDbPolyline
 90
        2
 70
     1
 43
0.3
 10
263.9792810954526
 20
159.5983364136129
 42
1.0
 10
264.2792810954526
 20
159.5983364136129
 42
1.0
  0
LWPOLYLINE
  5
22A9
330
1F
100
AcDbEntity
  8
SOLBET_Zbrojenie_Konstrukcja
100
AcDbPolyline
 90
        2
 70
     1
 43
0.3
 10
265.794429982969
 20
159.5983364136129
 42
-1.0
 10
265.494429982969
 20
159.5983364136129
 42
-1.0
  0
HATCH
  5
22AB
330
1F
100
AcDbEntity
  8
SOLBET_Tynki_Posadzki
100
AcDbHatch
 10
0.0
 20
0.0
 30
0.0
210
0.0
220
0.0
230
1.0
  2
AR-CONC
 70
     0
 71
     1
 91
        2
 92
        1
 93
        5
 72
     2
 10
225.5813811930613
 20
173.7813286064941
 40
0.249999999995083
 50
359.9999999948932
 51
376.8657343010354
 73
     0
 72
     1
 10
225.8206280098498
 20
173.7087961264998
 11
191.9260159062539
 21
173.7087961264998
 72
     1
 10
191.9260159062539
 20
173.7087961264998
 11
191.9260159062539
 21
176.2087961264998
 72
     1
 10
191.9260159062539
 20
176.2087961264998
 11
225.8313811930563
 21
176.2087961264998
 72
     1
 10
225.8313811930563
 20
176.2087961264998
 11
225.8313811930563
 21
173.7813286065164
 97
        1
330
21EF
 92
        1
 93
        5
 72
     2
 10
240.3110132923909
 20
173.7813286065332
 40
0.2500000000008811
 50
180.0000000038561
 51
196.8657343099984
 73
     1
 72
     1
 10
240.0717664756082
 20
173.7087961264998
 11
273.9663785791925
 21
173.7087961264998
 72
     1
 10
273.9663785791925
 20
173.7087961264998
 11
273.9663785791925
 21
176.2087961264998
 72
     1
 10
273.9663785791925
 20
176.2087961264998
 11
240.0610132923901
 21
176.2087961264998
 72
     1
 10
240.0610132923901
 20
176.2087961264998
 11
240.0610132923901
 21
173.7813286065164
 97
        1
330
21D5
 75
     0
 76
     1
 52
0.0
 41
0.05
 77
     0
 78
    13
 53
50.0
 43
965.7283021062905
 44
0.0
 45
9.1092334498002
 46
-0.7969542769451543
 79
     2
 49
0.9525000000000002
 49
-10.4775
 53
355.0
 43
965.7283021062905
 44
0.0
 45
-1.762141298783349
 46
9.552832144108998
 79
     2
 49
0.762
 49
-8.381999999999999
 53
100.451
 43
966.4874021062905
 44
-0.0664125
 45
7.347125083297962
 46
8.755834391014593
 79
     2
 49
0.8095
 49
-8.9045
 53
46.1842
 43
965.7283021062905
 44
2.54
 45
13.5539520446065
 46
-2.102116396636357
 79
     2
 49
1.428749999999999
 49
-15.71625
 53
96.6356
 43
966.8577971062905
 44
2.364825
 45
11.87021172331186
 46
12.37127779450246
 79
     2
 49
1.21425
 49
-13.35675
 53
351.184
 43
965.7283021062905
 44
2.54
 45
11.87023029069669
 46
12.37125589302988
 79
     2
 49
1.143
 49
-12.573
 53
21.0
 43
966.9983021062906
 44
1.905
 45
7.580743991769164
 46
-5.113275925838125
 79
     2
 49
0.9525000000000002
 49
-10.4775
 53
326.0
 43
966.9983021062906
 44
1.905
 45
3.090101417382353
 46
9.209398306115962
 79
     2
 49
0.762
 49
-8.381999999999999
 53
71.45140000000001
 43
967.6300271062906
 44
1.478895
 45
10.67082453850622
 46
4.096142885802872
 79
     2
 49
0.8095
 49
-8.9045
 53
37.5
 43
965.7283021062905
 44
0.0
 45
0.1544301625295909
 46
4.227751943657655
 79
     6
 49
0.0
 49
-8.2804
 49
0.0
 49
-8.509
 49
0.0
 49
-8.41375
 53
7.499999999999999
 43
965.7283021062905
 44
0.0
 45
3.340983125515287
 46
5.009028740905975
 79
     6
 49
0.0
 49
-4.851399999999999
 49
0.0
 49
-8.0899
 49
0.0
 49
-3.20675
 53
327.5
 43
962.8962021062905
 44
0.0
 45
6.77952975834357
 46
-0.2864371996336729
 79
     6
 49
0.0
 49
-3.175
 49
0.0
 49
-9.906
 49
0.0
 49
-13.1445
 53
317.5
 43
961.6262021062906
 44
0.0
 45
7.406459069300902
 46
1.27132455166665
 79
     6
 49
0.0
 49
-4.1275
 49
0.0
 49
-6.5786
 49
0.0
 49
-9.3345
 98
        1
 10
965.7283021062905
 20
0.0
1001
ACAD
1010
0.0
1020
0.0
1030
0.0
  0
LINE
  5
22AC
330
1F
100
AcDbEntity
  8
SOLBET_Izolacja
  6
BATTING
 48
0.049
100
AcDbLine
 10
239.4461972427175
 20
176.2087961264998
 30
0.0
 11
239.4461972427175
 21
170.8354892929444
 31
0.0
  0
LINE
  5
22AD
330
1F
100
AcDbEntity
  8
SOLBET_Izolacja
100
AcDbLine
 10
273.9663785791925
 20
170.8354892929444
 30
0.0
 11
273.9663785791925
 21
173.3354892929444
 31
0.0
  0
LINE
  5
22AE
330
1F
100
AcDbEntity
  8
SOLBET_Izolacja
  6
BATTING
 48
0.12
100
AcDbLine
 10
273.9663785791925
 20
172.0854892929444
 30
0.0
 11
239.9461972427175
 21
172.0854892929444
 31
0.0
  0
LINE
  5
22AF
330
1F
100
AcDbEntity
  8
SOLBET_Izolacja
  6
BATTING
 48
0.049
100
AcDbLine
 10
226.4461972427175
 20
176.2087961264998
 30
0.0
 11
226.4461972427175
 21
170.8354892929444
 31
0.0
  0
LINE
  5
22B0
330
1F
100
AcDbEntity
  8
SOLBET_Izolacja
100
AcDbLine
 10
191.9260159062539
 20
173.3354892929444
 30
0.0
 11
191.9260159062539
 21
170.8354892929444
 31
0.0
  0
LINE
  5
22B1
330
1F
100
AcDbEntity
  8
SOLBET_Izolacja
  6
BATTING
 48
0.12
100
AcDbLine
 10
191.9260159062539
 20
172.0854892929444
 30
0.0
 11
225.9461972427175
 21
172.0854892929444
 31
0.0
  0
LINE
  5
22B2
330
1F
100
AcDbEntity
  8
SOLBET_Beton
100
AcDbLine
 10
227.1291064491528
 20
165.0334745012993
 30
0.0
 11
225.9603056588417
 21
167.6870367867735
 31
0.0
  0
LINE
  5
22B3
330
1F
100
AcDbEntity
  8
SOLBET_Beton
100
AcDbLine
 10
225.5027265797079
 20
167.985489307655
 30
0.0
 11
217.2555389462357
 21
167.985489307655
 31
0.0
  0
LINE
  5
22B4
330
1F
100
AcDbEntity
  8
SOLBET_Beton
100
AcDbLine
 10
225.822119169468
 20
159.985489307655
 30
0.0
 11
217.2555389462356
 21
159.985489307655
 31
0.0
  0
LINE
  5
22B5
330
1F
100
AcDbEntity
  8
SOLBET_Beton
100
AcDbLine
 10
227.171527370019
 20
163.3468338165758
 30
0.0
 11
225.822119169468
 21
159.985489307655
 31
0.0
  0
LINE
  5
22B6
330
1F
100
AcDbEntity
  8
SOLBET_Beton
100
AcDbLine
 10
214.2555389462358
 20
167.985489307655
 30
0.0
 11
206.0083513127636
 21
167.985489307655
 31
0.0
  0
LINE
  5
22B7
330
1F
100
AcDbEntity
  8
SOLBET_Beton
100
AcDbLine
 10
214.2555389462358
 20
159.985489307655
 30
0.0
 11
205.6889587230034
 21
159.985489307655
 31
0.0
  0
LINE
  5
22B8
330
1F
100
AcDbEntity
  8
SOLBET_Beton
100
AcDbLine
 10
216.2555389462357
 20
166.985489307655
 30
0.0
 11
216.2555389462355
 21
160.985489307655
 31
0.0
  0
LINE
  5
22B9
330
1F
100
AcDbEntity
  8
SOLBET_Beton
100
AcDbLine
 10
216.2555389462357
 20
166.985489307655
 30
0.0
 11
217.2555389462357
 21
167.985489307655
 31
0.0
  0
LINE
  5
22BA
330
1F
100
AcDbEntity
  8
SOLBET_Beton
100
AcDbLine
 10
216.2555389462355
 20
160.985489307655
 30
0.0
 11
217.2555389462356
 21
159.985489307655
 31
0.0
  0
LINE
  5
22BB
330
1F
100
AcDbEntity
  8
SOLBET_Beton
100
AcDbLine
 10
215.2555389462357
 20
166.985489307655
 30
0.0
 11
215.2555389462358
 21
160.985489307655
 31
0.0
  0
LINE
  5
22BC
330
1F
100
AcDbEntity
  8
SOLBET_Beton
100
AcDbLine
 10
215.2555389462357
 20
166.985489307655
 30
0.0
 11
214.2555389462358
 21
167.985489307655
 31
0.0
  0
LINE
  5
22BD
330
1F
100
AcDbEntity
  8
SOLBET_Beton
100
AcDbLine
 10
215.2555389462358
 20
160.985489307655
 30
0.0
 11
214.2555389462358
 21
159.985489307655
 31
0.0
  0
ARC
  5
22BE
330
1F
100
AcDbEntity
  8
SOLBET_Beton
100
AcDbCircle
 10
206.0083513127636
 20
167.485489307655
 30
0.0
 40
0.5
100
AcDbArc
 50
90.0
 51
156.2281976083391
  0
ARC
  5
22BF
330
1F
100
AcDbEntity
  8
SOLBET_Beton
100
AcDbCircle
 10
225.5027265797079
 20
167.485489307655
 30
0.0
 40
0.5
100
AcDbArc
 50
23.77180239166089
 51
90.0
  0
LINE
  5
22C0
330
1F
100
AcDbEntity
  8
SOLBET_Beton
100
AcDbLine
 10
227.171527370019
 20
164.8319270221807
 30
0.0
 11
227.171527370019
 21
163.3468338165758
 31
0.0
  0
LINE
  5
22C1
330
1F
100
AcDbEntity
  8
SOLBET_Beton
100
AcDbLine
 10
204.3395505224524
 20
164.9371650560468
 30
0.0
 11
205.5507722336298
 21
167.6870367867735
 31
0.0
  0
LINE
  5
22C2
330
1F
100
AcDbEntity
  8
SOLBET_Beton
100
AcDbLine
 10
204.3395505224524
 20
163.3468338165758
 30
0.0
 11
205.6889587230034
 21
159.985489307655
 31
0.0
  0
LINE
  5
22C3
330
1F
100
AcDbEntity
  8
SOLBET_Beton
100
AcDbLine
 10
204.3395505224524
 20
164.9371650560468
 30
0.0
 11
204.3395505224524
 21
163.3468338165758
 31
0.0
  0
ARC
  5
22C4
330
1F
100
AcDbEntity
  8
SOLBET_Beton
100
AcDbCircle
 10
226.671527370019
 20
164.8319270221807
 30
0.0
 40
0.5
100
AcDbArc
 50
0.0
 51
23.77180239166082
  0
LINE
  5
22C6
330
1F
100
AcDbEntity
  8
SOLBET_Beton
100
AcDbLine
 10
238.7632880362936
 20
165.0334745012993
 30
0.0
 11
239.9320888266047
 21
167.6870367867735
 31
0.0
  0
LINE
  5
22C7
330
1F
100
AcDbEntity
  8
SOLBET_Beton
100
AcDbLine
 10
240.3896679057385
 20
167.985489307655
 30
0.0
 11
248.6368555392107
 21
167.985489307655
 31
0.0
  0
LINE
  5
22C8
330
1F
100
AcDbEntity
  8
SOLBET_Beton
100
AcDbLine
 10
240.0702753159784
 20
159.985489307655
 30
0.0
 11
248.6368555392108
 21
159.985489307655
 31
0.0
  0
LINE
  5
22C9
330
1F
100
AcDbEntity
  8
SOLBET_Beton
100
AcDbLine
 10
238.7208671154274
 20
163.3468338165758
 30
0.0
 11
240.0702753159784
 21
159.985489307655
 31
0.0
  0
LINE
  5
22CA
330
1F
100
AcDbEntity
  8
SOLBET_Beton
100
AcDbLine
 10
251.6368555392106
 20
167.985489307655
 30
0.0
 11
259.8840431726828
 21
167.985489307655
 31
0.0
  0
LINE
  5
22CB
330
1F
100
AcDbEntity
  8
SOLBET_Beton
100
AcDbLine
 10
251.6368555392106
 20
159.985489307655
 30
0.0
 11
260.2034357624429
 21
159.985489307655
 31
0.0
  0
LINE
  5
22CC
330
1F
100
AcDbEntity
  8
SOLBET_Beton
100
AcDbLine
 10
249.6368555392107
 20
166.985489307655
 30
0.0
 11
249.6368555392109
 21
160.985489307655
 31
0.0
  0
LINE
  5
22CD
330
1F
100
AcDbEntity
  8
SOLBET_Beton
100
AcDbLine
 10
249.6368555392107
 20
166.985489307655
 30
0.0
 11
248.6368555392107
 21
167.985489307655
 31
0.0
  0
LINE
  5
22CE
330
1F
100
AcDbEntity
  8
SOLBET_Beton
100
AcDbLine
 10
249.6368555392109
 20
160.985489307655
 30
0.0
 11
248.6368555392108
 21
159.985489307655
 31
0.0
  0
LINE
  5
22CF
330
1F
100
AcDbEntity
  8
SOLBET_Beton
100
AcDbLine
 10
250.6368555392107
 20
166.985489307655
 30
0.0
 11
250.6368555392106
 21
160.985489307655
 31
0.0
  0
LINE
  5
22D0
330
1F
100
AcDbEntity
  8
SOLBET_Beton
100
AcDbLine
 10
250.6368555392107
 20
166.985489307655
 30
0.0
 11
251.6368555392106
 21
167.985489307655
 31
0.0
  0
LINE
  5
22D1
330
1F
100
AcDbEntity
  8
SOLBET_Beton
100
AcDbLine
 10
250.6368555392106
 20
160.985489307655
 30
0.0
 11
251.6368555392106
 21
159.985489307655
 31
0.0
  0
ARC
  5
22D2
330
1F
100
AcDbEntity
  8
SOLBET_Beton
100
AcDbCircle
 10
259.8840431726828
 20
167.485489307655
 30
0.0
 40
0.5
100
AcDbArc
 50
23.77180239166089
 51
90.0
  0
ARC
  5
22D3
330
1F
100
AcDbEntity
  8
SOLBET_Beton
100
AcDbCircle
 10
240.3896679057385
 20
167.485489307655
 30
0.0
 40
0.5
100
AcDbArc
 50
90.0
 51
156.2281976083391
  0
LINE
  5
22D4
330
1F
100
AcDbEntity
  8
SOLBET_Beton
100
AcDbLine
 10
238.7208671154274
 20
164.8319270221807
 30
0.0
 11
238.7208671154274
 21
163.3468338165758
 31
0.0
  0
LINE
  5
22D5
330
1F
100
AcDbEntity
  8
SOLBET_Beton
100
AcDbLine
 10
261.552843962994
 20
164.9371650560468
 30
0.0
 11
260.3416222518166
 21
167.6870367867735
 31
0.0
  0
LINE
  5
22D6
330
1F
100
AcDbEntity
  8
SOLBET_Beton
100
AcDbLine
 10
261.552843962994
 20
163.3468338165758
 30
0.0
 11
260.2034357624429
 21
159.985489307655
 31
0.0
  0
LINE
  5
22D7
330
1F
100
AcDbEntity
  8
SOLBET_Beton
100
AcDbLine
 10
261.552843962994
 20
164.9371650560468
 30
0.0
 11
261.552843962994
 21
163.3468338165758
 31
0.0
  0
ARC
  5
22D8
330
1F
100
AcDbEntity
  8
SOLBET_Beton
100
AcDbCircle
 10
239.2208671154274
 20
164.8319270221807
 30
0.0
 40
0.5
100
AcDbArc
 50
156.2281976083392
 51
180.0
  0
LINE
  5
22FA
330
1F
100
AcDbEntity
  8
SOLBET_Beton
100
AcDbLine
 10
227.5055389462357
 20
158.735489307655
 30
0.0
 11
204.0055389462357
 21
158.735489307655
 31
0.0
  0
LINE
  5
22FB
330
1F
100
AcDbEntity
  8
SOLBET_Beton
100
AcDbLine
 10
204.0055389462357
 20
158.735489307655
 30
0.0
 11
204.0055389462357
 21
160.835489307655
 31
0.0
  0
LINE
  5
22FC
330
1F
100
AcDbEntity
  8
SOLBET_Beton
100
AcDbLine
 10
204.0055389462357
 20
160.835489307655
 30
0.0
 11
202.7555389462357
 21
160.835489307655
 31
0.0
  0
LINE
  5
22FD
330
1F
100
AcDbEntity
  8
SOLBET_Beton
100
AcDbLine
 10
202.7555389462357
 20
160.835489307655
 30
0.0
 11
202.7555389462357
 21
164.441943985463
 31
0.0
  0
LINE
  5
22FE
330
1F
100
AcDbEntity
  8
SOLBET_Beton
100
AcDbLine
 10
202.7555389462357
 20
164.441943985463
 30
0.0
 11
204.604011282185
 21
168.6385842658921
 31
0.0
  0
ARC
  5
22FF
330
1F
100
AcDbEntity
  8
SOLBET_Beton
100
AcDbCircle
 10
205.5191694404526
 20
168.2354893076549
 30
0.0
 40
1.000000000000066
100
AcDbArc
 50
90.0
 51
156.2281976083347
  0
LINE
  5
2300
330
1F
100
AcDbEntity
  8
SOLBET_Beton
100
AcDbLine
 10
205.5191694404526
 20
169.235489307655
 30
0.0
 11
225.9919084520189
 21
169.235489307655
 31
0.0
  0
ARC
  5
2301
330
1F
100
AcDbEntity
  8
SOLBET_Beton
100
AcDbCircle
 10
225.9919084520189
 20
168.2354893076551
 30
0.0
 40
0.9999999999999147
100
AcDbArc
 50
23.77180239165986
 51
90.0
  0
LINE
  5
2302
330
1F
100
AcDbEntity
  8
SOLBET_Beton
100
AcDbLine
 10
226.9070666102865
 20
168.6385842658921
 30
0.0
 11
228.7555389462357
 21
164.441943985463
 31
0.0
  0
LINE
  5
2303
330
1F
100
AcDbEntity
  8
SOLBET_Beton
100
AcDbLine
 10
228.7555389462357
 20
164.441943985463
 30
0.0
 11
228.7555389462357
 21
160.835489307655
 31
0.0
  0
LINE
  5
2304
330
1F
100
AcDbEntity
  8
SOLBET_Beton
100
AcDbLine
 10
228.7555389462357
 20
160.835489307655
 30
0.0
 11
227.5055389462357
 21
160.835489307655
 31
0.0
  0
LINE
  5
2305
330
1F
100
AcDbEntity
  8
SOLBET_Beton
100
AcDbLine
 10
227.5055389462357
 20
160.835489307655
 30
0.0
 11
227.5055389462357
 21
158.735489307655
 31
0.0
  0
LINE
  5
2306
330
1F
100
AcDbEntity
  8
SOLBET_Beton
100
AcDbLine
 10
238.3868555392107
 20
158.735489307655
 30
0.0
 11
261.8868555392107
 21
158.735489307655
 31
0.0
  0
LINE
  5
2307
330
1F
100
AcDbEntity
  8
SOLBET_Beton
100
AcDbLine
 10
261.8868555392107
 20
158.735489307655
 30
0.0
 11
261.8868555392107
 21
160.835489307655
 31
0.0
  0
LINE
  5
2308
330
1F
100
AcDbEntity
  8
SOLBET_Beton
100
AcDbLine
 10
261.8868555392107
 20
160.835489307655
 30
0.0
 11
263.1368555392107
 21
160.835489307655
 31
0.0
  0
LINE
  5
2309
330
1F
100
AcDbEntity
  8
SOLBET_Beton
100
AcDbLine
 10
263.1368555392107
 20
160.835489307655
 30
0.0
 11
263.1368555392107
 21
164.441943985463
 31
0.0
  0
LINE
  5
230A
330
1F
100
AcDbEntity
  8
SOLBET_Beton
100
AcDbLine
 10
263.1368555392107
 20
164.441943985463
 30
0.0
 11
261.2883832032614
 21
168.6385842658921
 31
0.0
  0
ARC
  5
230B
330
1F
100
AcDbEntity
  8
SOLBET_Beton
100
AcDbCircle
 10
260.3732250449938
 20
168.2354893076549
 30
0.0
 40
1.000000000000066
100
AcDbArc
 50
23.77180239166529
 51
90.0
  0
LINE
  5
230C
330
1F
100
AcDbEntity
  8
SOLBET_Beton
100
AcDbLine
 10
260.3732250449938
 20
169.235489307655
 30
0.0
 11
239.9004860334275
 21
169.235489307655
 31
0.0
  0
ARC
  5
230D
330
1F
100
AcDbEntity
  8
SOLBET_Beton
100
AcDbCircle
 10
239.9004860334275
 20
168.2354893076551
 30
0.0
 40
0.9999999999999147
100
AcDbArc
 50
90.0
 51
156.2281976083401
  0
LINE
  5
230E
330
1F
100
AcDbEntity
  8
SOLBET_Beton
100
AcDbLine
 10
238.9853278751599
 20
168.6385842658921
 30
0.0
 11
237.1368555392107
 21
164.441943985463
 31
0.0
  0
LINE
  5
230F
330
1F
100
AcDbEntity
  8
SOLBET_Beton
100
AcDbLine
 10
237.1368555392107
 20
164.441943985463
 30
0.0
 11
237.1368555392107
 21
160.835489307655
 31
0.0
  0
LINE
  5
2310
330
1F
100
AcDbEntity
  8
SOLBET_Beton
100
AcDbLine
 10
237.1368555392107
 20
160.835489307655
 30
0.0
 11
238.3868555392107
 21
160.835489307655
 31
0.0
  0
LINE
  5
2311
330
1F
100
AcDbEntity
  8
SOLBET_Beton
100
AcDbLine
 10
238.3868555392107
 20
160.835489307655
 30
0.0
 11
238.3868555392107
 21
158.735489307655
 31
0.0
  0
LEADER
  5
233E
330
1F
100
AcDbEntity
  8
SOLBET_Wymiary_Opisy
100
AcDbLeader
  3
Solbet$7
 73
     0
 75
     1
 40
3.25
 41
27.75
 76
     3
 10
90.66794105085875
 20
164.8719934997441
 30
0.0
 10
45.04645011333718
 20
127.2273458048231
 30
0.0
 10
42.54645011333718
 20
127.2273458048231
 30
0.0
340
233F
213
1.177601578005123
223
-0.1753245211093599
233
0.0
1001
ACAD
1000
DSTYLE
1002
{
1070
   147
1040
0.625
1070
    77
1070
     1
1002
}
  0
MTEXT
  5
233F
102
{ACAD_XDICTIONARY
360
2730
102
}
102
{ACAD_REACTORS
330
233E
102
}
330
1F
100
AcDbEntity
  8
SOLBET_Wymiary_Opisy
100
AcDbMText
 10
40.74384853533206
 20
131.2776703259325
 30
0.0
 40
2.5
 41
0.0
 71
     3
 72
     1
  1
Wieniec \U+017Celbetowy
  7
Solbet_2_5
 73
     1
 44
1.0
1001
ACAD
1000
MTEXTBEGIN
1070
    73
1070
     1
1070
    44
1040
1.0
1070
    74
1070
     0
1000
MTEXTEND
  0
MTEXT
  5
2341
102
{ACAD_XDICTIONARY
360
2732
102
}
330
1F
100
AcDbEntity
  8
SOLBET_Wymiary_Opisy
100
AcDbMText
 10
13.77408081057979
 20
186.9420205252708
 30
0.0
 40
2.5
 41
0.0
 71
     1
 72
     1
  1
Zbrojenie g\U+00F3rne\Pstrefy przypodporowej
  7
Solbet_2_5
 73
     1
 44
1.0
1001
ACAD
1000
MTEXTBEGIN
1070
    73
1070
     1
1070
    44
1040
1.0
1070
    74
1070
     0
1000
MTEXTEND
  0
LEADER
  5
2342
330
1F
100
AcDbEntity
  8
SOLBET_Wymiary_Opisy
100
AcDbLeader
  3
Solbet$7
 73
     0
 74
     0
 75
     1
 40
7.666666666666666
 41
34.75
 76
     3
 10
264.7706124074028
 20
169.8886225683247
 30
0.0
 10
279.0861840170216
 20
189.7598713713705
 30
0.0
 10
281.5861840170216
 20
189.7598713713705
 30
0.0
340
2343
213
1.177601578005123
223
-0.1753245211093599
233
0.0
1001
ACAD
1000
DSTYLE
1002
{
1070
   147
1040
0.625
1070
    77
1070
     1
1002
}
  0
MTEXT
  5
2343
102
{ACAD_XDICTIONARY
360
2734
102
}
102
{ACAD_REACTORS
330
2342
102
}
330
1F
100
AcDbEntity
  8
SOLBET_Wymiary_Opisy
100
AcDbMText
 10
281.0335824390165
 20
198.2268625591465
 30
0.0
 40
2.5
 41
0.0
 71
     1
 72
     1
  1
Zbrojenie g\U+00F3rne\Pstrefy przypodporowej
  7
Solbet_2_5
 73
     1
 44
1.0
1001
ACAD
1000
MTEXTBEGIN
1070
    73
1070
     1
1070
    44
1040
1.0
1070
    74
1070
     0
1000
MTEXTEND
  0
LEADER
  5
2344
330
1F
100
AcDbEntity
  8
SOLBET_Wymiary_Opisy
100
AcDbLeader
  3
Solbet$7
 73
     0
 75
     1
 40
3.25
 41
27.75
 76
     3
 10
230.9698939113675
 20
163.3081588744727
 30
0.0
 10
202.1097194398588
 20
134.7892791101322
 30
0.0
 10
199.6097194398587
 20
134.7892791101322
 30
0.0
340
2345
213
1.177601578005123
223
-0.1753245211093599
233
0.0
1001
ACAD
1000
DSTYLE
1002
{
1070
   147
1040
0.625
1070
    77
1070
     1
1002
}
  0
MTEXT
  5
2345
102
{ACAD_XDICTIONARY
360
2736
102
}
102
{ACAD_REACTORS
330
2344
102
}
330
1F
100
AcDbEntity
  8
SOLBET_Wymiary_Opisy
100
AcDbMText
 10
197.8071178618536
 20
138.8396036312416
 30
0.0
 40
2.5
 41
0.0
 71
     3
 72
     1
  1
Wieniec \U+017Celbetowy
  7
Solbet_2_5
 73
     1
 44
1.0
1001
ACAD
1000
MTEXTBEGIN
1070
    73
1070
     1
1070
    44
1040
1.0
1070
    74
1070
     0
1000
MTEXTEND
  0
CIRCLE
  5
2346
330
1F
100
AcDbEntity
  8
SOLBET_Wymiary_Opisy
100
AcDbCircle
 10
128.1120049562983
 20
172.0854892929444
 30
0.0
 40
6.72794034480946
  0
LEADER
  5
2347
330
1F
100
AcDbEntity
  8
SOLBET_Wymiary_Opisy
100
AcDbLeader
  3
Solbet$7
 73
     0
 74
     0
 75
     1
 40
5.0
 41
4.0
 76
     3
 10
131.7335786264152
 20
177.7555321001223
 30
0.0
 10
134.7047288272317
 20
181.7540188391663
 30
0.0
 10
137.2047288272317
 20
181.7540188391663
 30
0.0
213
0.8103787685154202
223
-0.1753245211093599
233
0.0
1001
ACAD
1000
DSTYLE
1002
{
1070
   341
1005
1EF2
1070
   147
1040
0.625
1070
    77
1070
     1
1002
}
  0
MTEXT
  5
2348
102
{ACAD_REACTORS
330
2347
102
}
330
1F
100
AcDbEntity
  8
SOLBET_Wymiary_Opisy
100
AcDbMText
 10
141.0193500587163
 20
187.5543433602756
 30
0.0
 40
5.0
 41
0.0
 71
     3
 72
     1
  1
A
  7
Solbet_5
 73
     1
 44
1.0
1001
ACAD
1000
MTEXTBEGIN
1070
    73
1070
     1
1070
    44
1040
1.0
1070
    74
1070
     0
1000
MTEXTEND
  0
LEADER
  5
2349
330
1F
100
AcDbEntity
  8
SOLBET_Wymiary_Opisy
100
AcDbLeader
  3
Solbet$7
 73
     0
 74
     0
 75
     1
 40
3.25
 41
20.25
 76
     3
 10
100.0342328185153
 20
158.3354892929444
 30
0.0
 10
107.3008243428846
 20
128.3996996066781
 30
0.0
 10
109.8008243428846
 20
128.3996996066781
 30
0.0
340
234A
213
1.177601578005123
223
-0.1753245211093599
233
0.0
1001
ACAD
1000
DSTYLE
1002
{
1070
   147
1040
0.625
1070
    77
1070
     1
1002
}
  0
MTEXT
  5
234A
102
{ACAD_REACTORS
330
2349
102
}
330
1F
100
AcDbEntity
  8
SOLBET_Wymiary_Opisy
100
AcDbMText
 10
129.4982227648795
 20
132.4500241277875
 30
0.0
 40
2.5
 41
0.0
 71
     3
 72
     1
  1
Tynk SOLBET
  7
Solbet_2_5
 73
     1
 44
1.0
1001
ACAD
1000
MTEXTBEGIN
1070
    73
1070
     1
1070
    44
1040
1.0
1070
    74
1070
     0
1000
MTEXTEND
  0
LEADER
  5
234B
330
1F
100
AcDbEntity
  8
SOLBET_Wymiary_Opisy
100
AcDbLeader
  3
Solbet$7
 73
     0
 74
     0
 75
     1
 40
3.25
 41
19.5
 76
     3
 10
112.0437559352795
 20
163.2335773702099
 30
0.0
 10
120.3231467986666
 20
136.1146180796012
 30
0.0
 10
122.8231467986666
 20
136.1146180796012
 30
0.0
340
234C
213
1.177601578005123
223
-0.1753245211093599
233
0.0
1001
ACAD
1000
DSTYLE
1002
{
1070
   147
1040
0.625
1070
    77
1070
     1
1002
}
  0
MTEXT
  5
234C
102
{ACAD_REACTORS
330
234B
102
}
330
1F
100
AcDbEntity
  8
SOLBET_Wymiary_Opisy
100
AcDbMText
 10
141.7705452206614
 20
140.1649426007106
 30
0.0
 40
2.5
 41
0.0
 71
     3
 72
     1
  1
Strop Teriva
  7
Solbet_2_5
 73
     1
 44
1.0
1001
ACAD
1000
MTEXTBEGIN
1070
    73
1070
     1
1070
    44
1040
1.0
1070
    74
1070
     0
1000
MTEXTEND
  0
LEADER
  5
234D
330
1F
100
AcDbEntity
  8
SOLBET_Wymiary_Opisy
100
AcDbLeader
  3
Solbet$7
 73
     0
 74
     0
 75
     1
 40
3.5
 41
37.25
 76
     3
 10
94.87177276053216
 20
82.8458796531135
 30
0.0
 10
117.6612278257948
 20
91.96548437378799
 30
0.0
 10
120.1612278257949
 20
91.96548437378799
 30
0.0
213
1.177601578005123
223
-0.1753245211093599
233
0.0
1001
ACAD
1000
DSTYLE
1002
{
1070
   147
1040
0.625
1070
    77
1070
     1
1002
}
  0
MTEXT
  5
234E
102
{ACAD_XDICTIONARY
360
2738
102
}
102
{ACAD_REACTORS
330
234D
102
}
330
1F
100
AcDbEntity
  8
SOLBET_Wymiary_Opisy
100
AcDbMText
 10
119.6086262477897
 20
96.26580889489737
 30
0.0
 40
2.5
 41
0.0
 71
     1
 72
     1
  1
Warstwa wyko\U+0144czeniowa
  7
Solbet_2_5
 73
     1
 44
1.0
1001
ACAD
1000
MTEXTBEGIN
1070
    73
1070
     1
1070
    44
1040
1.0
1070
    74
1070
     0
1000
MTEXTEND
  0
LEADER
  5
234F
330
1F
100
AcDbEntity
  8
SOLBET_Wymiary_Opisy
100
AcDbLeader
  3
Solbet$7
 73
     0
 74
     0
 75
     1
 40
3.25
 41
32.5
 76
     3
 10
93.51791271476031
 20
75.07976083669468
 30
0.0
 10
116.4836262477897
 20
85.72427784319728
 30
0.0
 10
118.9836262477897
 20
85.72427784319728
 30
0.0
213
0.0
223
-0.2322806831707567
233
0.0
1001
ACAD
1000
DSTYLE
1002
{
1070
   147
1040
0.625
1070
    77
1070
     1
1002
}
  0
MTEXT
  5
2350
102
{ACAD_REACTORS
330
234F
102
}
330
1F
100
AcDbEntity
  8
SOLBET_Wymiary_Opisy
100
AcDbMText
 10
119.6086262477897
 20
89.83155852636803
 30
0.0
 40
2.5
 41
0.0
 71
     1
 72
     1
  1
Wylewka jastrychowa
  7
Solbet_2_5
 73
     1
 44
1.0
1001
ACAD
1000
MTEXTBEGIN
1070
    73
1070
     1
1070
    44
1040
1.0
1070
    74
1070
     0
1000
MTEXTEND
  0
LEADER
  5
2351
330
1F
100
AcDbEntity
  8
SOLBET_Wymiary_Opisy
100
AcDbLeader
  3
Solbet$7
 73
     0
 74
     0
 75
     1
 40
3.25
 41
19.75
 76
     3
 10
95.55646154845954
 20
68.18610113700481
 30
0.0
 10
116.7491822298887
 20
77.96277023156574
 30
0.0
 10
119.2491822298886
 20
77.96277023156574
 30
0.0
213
0.0
223
-0.2322806831707567
233
0.0
1001
ACAD
1000
DSTYLE
1002
{
1070
   147
1040
0.625
1070
    77
1070
     1
1002
}
  0
MTEXT
  5
2352
102
{ACAD_REACTORS
330
2351
102
}
330
1F
100
AcDbEntity
  8
SOLBET_Wymiary_Opisy
100
AcDbMText
 10
119.6086262477897
 20
82.16725441062465
 30
0.0
 40
2.5
 41
0.0
 71
     1
 72
     1
  1
Hydroizolacja
  7
Solbet_2_5
 73
     1
 44
1.0
1001
ACAD
1000
MTEXTBEGIN
1070
    73
1070
     1
1070
    44
1040
1.0
1070
    74
1070
     0
1000
MTEXTEND
  0
LEADER
  5
2353
330
1F
100
AcDbEntity
  8
SOLBET_Wymiary_Opisy
100
AcDbLeader
  3
Solbet$7
 73
     0
 74
     0
 75
     1
 40
3.25
 41
36.5
 76
     3
 10
98.76178507293779
 20
59.14230810668748
 30
0.0
 10
116.4836262477897
 20
69.55519873818474
 30
0.0
 10
118.9836262477897
 20
69.55519873818474
 30
0.0
213
0.0
223
-0.2322806831707567
233
0.0
1001
ACAD
1000
DSTYLE
1002
{
1070
   147
1040
0.625
1070
    77
1070
     1
1002
}
  0
MTEXT
  5
2354
102
{ACAD_XDICTIONARY
360
273A
102
}
102
{ACAD_REACTORS
330
2353
102
}
330
1F
100
AcDbEntity
  8
SOLBET_Wymiary_Opisy
100
AcDbMText
 10
119.6086262477897
 20
73.87445832865336
 30
0.0
 40
2.5
 41
0.0
 71
     1
 72
     1
  1
P\U+0142yty izolacyjne twarde
  7
Solbet_2_5
 73
     1
 44
1.0
1001
ACAD
1000
MTEXTBEGIN
1070
    73
1070
     1
1070
    44
1040
1.0
1070
    74
1070
     0
1000
MTEXTEND
  0
LINE
  5
2355
330
1F
100
AcDbEntity
  8
SOLBET_Wymiary_Opisy
100
AcDbLine
 10
105.5782028516682
 20
84.07343873692036
 30
0.0
 11
105.5782028516682
 21
29.10898703016147
 31
0.0
  0
LINE
  5
2356
330
1F
100
AcDbEntity
  8
SOLBET_Izolacja
100
AcDbLine
 10
61.69185691206212
 20
54.70690456914434
 30
0.0
 11
105.5782028516682
 21
54.70690456914434
 31
0.0
  0
LINE
  5
2357
330
1F
100
AcDbEntity
  8
SOLBET_Izolacja
100
AcDbLine
 10
61.69185691206212
 20
67.20690456914429
 30
0.0
 11
105.5782028516682
 21
67.20690456914434
 31
0.0
  0
LINE
  5
2358
330
1F
100
AcDbEntity
  8
SOLBET_Tynki_Posadzki
100
AcDbLine
 10
70.30704977411324
 20
84.07343873692036
 30
0.0
 11
105.5782028516682
 21
84.07343873692036
 31
0.0
  0
LINE
  5
2359
330
1F
100
AcDbEntity
  8
SOLBET_Emulsje_Folie
100
AcDbLine
 10
61.89211840810322
 20
68.18610113700481
 30
0.0
 11
105.5782028516682
 21
68.18610113700481
 31
0.0
  0
HATCH
  5
235A
330
1F
100
AcDbEntity
  8
SOLBET_Tynki_Posadzki
100
AcDbHatch
 10
0.0
 20
0.0
 30
0.0
210
0.0
220
0.0
230
1.0
  2
AR-CONC
 70
     0
 71
     0
 91
        1
 92
        5
 93
        4
 72
     2
 10
94.74585866802
 20
60.95690456914446
 40
33.63970172404727
 50
142.2031821742316
 51
166.0379938227853
 73
     1
 72
     1
 10
62.10001046053458
 20
69.07343873692133
 11
105.5782028516679
 21
69.07343873692133
 72
     1
 10
105.5782028516682
 20
69.07343873692133
 11
105.5782028516688
 21
81.57343873692019
 72
     1
 10
105.5782028516687
 20
81.57343873692019
 11
68.16413466464144
 21
81.57343873692019
 97
        0
 75
     0
 76
     1
 52
0.0
 41
0.03
 77
     0
 78
    13
 53
50.0
 43
731.6740537884238
 44
-16.17511420959323
 45
5.46554006988012
 46
-0.4781725661670926
 79
     2
 49
0.5715
 49
-6.2865
 53
355.0
 43
731.6740537884238
 44
-16.17511420959323
 45
-1.057284779270009
 46
5.731699286465398
 79
     2
 49
0.4572
 49
-5.029199999999999
 53
100.451
 43
732.1295137884237
 44
-16.21496170959324
 45
4.408275049978777
 46
5.253500634608755
 79
     2
 49
0.4857000000000001
 49
-5.342699999999999
 53
46.1842
 43
731.6740537884238
 44
-14.65111420959323
 45
8.132371226763897
 46
-1.261269837981814
 79
     2
 49
0.8572499999999999
 49
-9.429749999999998
 53
96.6356
 43
732.3517507884237
 44
-14.75621920959324
 45
7.122127033987114
 46
7.422766676701476
 79
     2
 49
0.7285500000000001
 49
-8.014049999999999
 53
351.184
 43
731.6740537884238
 44
-14.65111420959323
 45
7.122138174418017
 46
7.422753535817929
 79
     2
 49
0.6858
 49
-7.5438
 53
21.0
 43
732.4360537884238
 44
-15.03211420959323
 45
4.548446395061498
 46
-3.067965555502874
 79
     2
 49
0.5715
 49
-6.2865
 53
326.0
 43
732.4360537884238
 44
-15.03211420959323
 45
1.854060850429411
 46
5.525638983669577
 79
     2
 49
0.4572
 49
-5.029199999999999
 53
71.45140000000001
 43
732.8150887884237
 44
-15.28777720959323
 45
6.402494723103733
 46
2.457685731481723
 79
     2
 49
0.4857000000000001
 49
-5.342699999999999
 53
37.5
 43
731.6740537884238
 44
-16.17511420959323
 45
0.0926580975177545
 46
2.536651166194593
 79
     6
 49
0.0
 49
-4.968239999999999
 49
0.0
 49
-5.1054
 49
0.0
 49
-5.04825
 53
7.499999999999999
 43
731.6740537884238
 44
-16.17511420959323
 45
2.004589875309172
 46
3.005417244543585
 79
     6
 49
0.0
 49
-2.910839999999999
 49
0.0
 49
-4.853939999999999
 49
0.0
 49
-1.92405
 53
327.5
 43
729.9747937884237
 44
-16.17511420959323
 45
4.067717855006141
 46
-0.1718623197802037
 79
     6
 49
0.0
 49
-1.905
 49
0.0
 49
-5.943599999999999
 49
0.0
 49
-7.886699999999999
 53
317.5
 43
729.2127937884238
 44
-16.17511420959323
 45
4.443875441580541
 46
0.7627947309999904
 79
     6
 49
0.0
 49
-2.476499999999999
 49
0.0
 49
-3.947159999999999
 49
0.0
 49
-5.600699999999999
 47
0.0387476598051738
 98
        1
 10
85.04864721221201
 20
75.17097703453515
1001
ACAD
1010
0.0
1020
0.0
1030
0.0
  0
LWPOLYLINE
  5
235B
330
1F
100
AcDbEntity
  8
SOLBET_Tynki_Posadzki
100
AcDbPolyline
 90
        4
 70
     0
 43
0.0
 10
62.10001046053458
 20
69.07343873692133
 10
105.5782028516682
 20
69.07343873692133
 10
105.5782028516687
 20
81.57343873692036
 10
68.16413466464201
 20
81.57343873692036
1001
ASO_SCHRAFF
1005
0
1070
     1
1002
{
1070
     1
1005
0
1002
}
1002
{
1070
     2
1005
0
1002
}
1002
{
1070
     4
1000
AR-CONC
1040
0.01
1040
0.0
1070
     0
1000
T__SCHR
1070
   256
1000
_bylayer
1040
50.0
1070
     1
1002
}
  0
LWPOLYLINE
  5
235C
330
1F
100
AcDbEntity
  8
SOLBET_Beton
100
AcDbPolyline
 90
        3
 70
     0
 43
0.0
 10
62.51108527053793
 20
51.33666984769229
 10
105.5782028516682
 20
51.33666984769229
 10
105.5782028516682
 20
29.1089870301613
  0
LINE
  5
235D
330
1F
100
AcDbEntity
  8
SOLBET_Izolacja
  6
BATTING
 48
0.6
100
AcDbLine
 10
61.10615694397302
 20
60.95690456914434
 30
0.0
 11
105.5782028516682
 21
60.95690456914434
 31
0.0
  0
ARC
  5
235E
330
1F
100
AcDbEntity
  8
SOLBET_Wymiary_Opisy
100
AcDbCircle
 10
94.74585866802
 20
60.95690456914434
 30
0.0
 40
33.6397017240473
100
AcDbArc
 50
136.5926968744823
 51
288.7845676764008
  0
MTEXT
  5
235F
102
{ACAD_XDICTIONARY
360
263E
102
}
330
1F
100
AcDbEntity
  8
SOLBET_Wymiary_Opisy
100
AcDbMText
 10
70.97485730180051
 20
112.7397530670145
 30
0.0
 40
5.0
 41
30.77919768571883
 71
     1
 72
     5
  1
\pxqc;A\P(5 : 1)
  7
Solbet_5
 73
     1
 44
1.0
1001
ACAD
1000
MTEXTBEGIN
1070
    73
1070
     1
1070
    44
1040
1.0
1070
    74
1070
     0
1000
MTEXTEND
1000
ACAD_MTEXT_DEFINED_HEIGHT_BEGIN
1070
    46
1040
23.42535011036716
1000
ACAD_MTEXT_DEFINED_HEIGHT_END
  0
LINE
  5
2360
330
1F
100
AcDbEntity
  8
SOLBET_Beton
100
AcDbLine
 10
98.37597441075923
 20
51.33666984769229
 30
0.0
 11
98.37597441075923
 21
27.51364229141211
 31
0.0
  0
LINE
  5
2361
330
1F
100
AcDbEntity
  8
SOLBET_Zbrojenie_Konstrukcja
100
AcDbLine
 10
105.5782028516682
 20
43.91799933257027
 30
0.0
 11
65.74059637956759
 21
43.91799933257027
 31
0.0
  0
LINE
  5
2362
330
1F
100
AcDbEntity
  8
SOLBET_Zbrojenie_Konstrukcja
100
AcDbLine
 10
92.00088513891774
 20
43.91799933257027
 30
0.0
 11
101.2880596226363
 21
27.95949347748007
 31
0.0
  0
LINE
  5
2363
330
1F
100
AcDbEntity
  8
SOLBET_Zbrojenie_Konstrukcja
100
AcDbLine
 10
92.00088513891774
 20
43.91799933257027
 30
0.0
 11
83.63206654767498
 21
29.20610683446327
 31
0.0
  0
INSERT
  5
2364
330
1F
100
AcDbEntity
  8
SOLBET_Wymiary_Opisy
100
AcDbBlockReference
  2
_DotSmall
 10
69.40381823130474
 20
169.853989743927
 30
0.0
 41
2.49999999999997
 42
2.5
 43
2.5
 50
335.6935584317339
1001
ACAD
1000
DSTYLE
1002
{
1070
   147
1040
0.625
1070
    77
1070
     1
1002
}
  0
LWPOLYLINE
  5
2365
330
1F
100
AcDbEntity
  8
SOLBET_Wymiary_Opisy
100
AcDbPolyline
 90
        3
 70
     0
 43
0.0
 10
69.40381823130474
 20
169.853989743927
 10
50.31605405064488
 20
178.4750293374948
 10
12.44105405064488
 20
178.4750293374948
1001
ACAD
1000
DSTYLE
1002
{
1070
   147
1040
0.625
1070
    77
1070
     1
1002
}
  0
INSERT
  5
26AE
330
1F
100
AcDbEntity
  8
SOLBET_Bloczki
100
AcDbBlockReference
  2
SOLBET_Bloczek_Optimal_240x240x590_G_KG500_PRA
 10
84.73144229406875
 20
170.8354892929444
 30
0.0
  0
INSERT
  5
26AF
330
1F
100
AcDbEntity
  8
SOLBET_Bloczki
100
AcDbBlockReference
  2
SOLBET_Bloczek_Optimal_240x240x590_G_KG500_PRA
 10
84.73144246981723
 20
182.835489251757
 30
0.0
  0
INSERT
  5
26B0
330
1F
100
AcDbEntity
  8
SOLBET_Bloczki
100
AcDbBlockReference
  2
SOLBET_Bloczek_Optimal_240x240x590_G_KG500_PRA
 10
226.9461972427175
 20
170.8354892929444
 30
0.0
  0
INSERT
  5
26B1
330
1F
100
AcDbEntity
  8
SOLBET_Bloczki
100
AcDbBlockReference
  2
SOLBET_Bloczek_Optimal_240x240x590_G_KG500_PRA
 10
226.946197418466
 20
182.835489251757
 30
0.0
  0
MTEXT
  5
26EE
102
{ACAD_XDICTIONARY
360
26EF
102
}
330
1F
100
AcDbEntity
  8
SOLBET_Wymiary_Opisy
100
AcDbMText
 10
303.1618366064245
 20
7.273150535415538
 30
0.0
 40
5.0
 41
0.0
 71
     1
 72
     5
  1
Skala 1:20
  7
Solbet_5
 73
     1
 44
1.0
1001
ACAD
1000
MTEXTBEGIN
1070
    73
1070
     1
1070
    44
1040
1.0
1070
    74
1070
     0
1000
MTEXTEND
1000
ACAD_MTEXT_DEFINED_HEIGHT_BEGIN
1070
    46
1040
5.395147572682731
1000
ACAD_MTEXT_DEFINED_HEIGHT_END
  0
LWPOLYLINE
  5
26F1
330
1F
100
AcDbEntity
  8
SOLBET_Ramka_05
100
AcDbPolyline
 90
        4
 70
     1
 43
0.0
 10
300.1431704855106
 20
9.804221198935465
 10
336.2593473729328
 20
9.804221198935465
 10
336.2593473729328
 20
0.0
 10
300.1431704855107
 20
0.0
  0
ENDSEC
  0
SECTION
  2
OBJECTS
  0
DICTIONARY
  5
C
330
0
100
AcDbDictionary
281
     1
  3
ACAD_COLOR
350
6B
  3
ACAD_GROUP
350
D
  3
ACAD_LAYOUT
350
1A
  3
ACAD_MATERIAL
350
6A
  3
ACAD_MLEADERSTYLE
350
12D
  3
ACAD_MLINESTYLE
350
17
  3
ACAD_PLOTSETTINGS
350
19
  3
ACAD_PLOTSTYLENAME
350
E
  3
ACAD_SCALELIST
350
10C
  3
ACAD_TABLESTYLE
350
7E
  3
ACAD_VISUALSTYLE
350
EF
  3
ACDB_RECOMPOSE_DATA
350
15D
  3
AcDbVariableDictionary
350
5E
  3
DWGPROPS
350
2720
  0
DICTIONARY
  5
443
330
8
100
AcDbDictionary
280
     1
281
     1
  0
DICTIONARY
  5
3E5
330
2
100
AcDbDictionary
280
     1
281
     1
  3
ACAD_LAYERFILTERS
360
1883
  3
ACLYDICTIONARY
360
1882
  0
DICTIONARY
  5
13C
330
10
100
AcDbDictionary
280
     1
281
     1
  3
ADSK_XREC_LAYER_RECONCILED
360
3F4
  0
DICTIONARY
  5
403
330
3DD
100
AcDbDictionary
280
     1
281
     1
  3
ADSK_XREC_LAYER_RECONCILED
360
404
  0
DICTIONARY
  5
405
330
3DF
100
AcDbDictionary
280
     1
281
     1
  3
ADSK_XREC_LAYER_RECONCILED
360
406
  0
DICTIONARY
  5
407
330
3E0
100
AcDbDictionary
280
     1
281
     1
  3
ADSK_XREC_LAYER_RECONCILED
360
408
  0
DICTIONARY
  5
409
330
3E1
100
AcDbDictionary
280
     1
281
     1
  3
ADSK_XREC_LAYER_RECONCILED
360
40A
  0
DICTIONARY
  5
40B
330
3E2
100
AcDbDictionary
280
     1
281
     1
  3
ADSK_XREC_LAYER_RECONCILED
360
40C
  0
DICTIONARY
  5
40F
330
3E4
100
AcDbDictionary
280
     1
281
     1
  3
ADSK_XREC_LAYER_RECONCILED
360
410
  0
DICTIONARY
  5
411
330
3E8
100
AcDbDictionary
280
     1
281
     1
  3
ADSK_XREC_LAYER_RECONCILED
360
412
  0
DICTIONARY
  5
263C
330
263B
100
AcDbDictionary
280
     1
281
     1
  3
ASDK_XREC_ANNO_SCALE_INFO
360
263D
  0
DICTIONARY
  5
4A3
330
1F
100
AcDbDictionary
280
     1
281
     1
  3
ACAD_SORTENTS
360
4A4
  0
DICTIONARY
  5
2243
330
2238
100
AcDbDictionary
280
     1
281
     1
  3
ACAD_SORTENTS
360
2244
  0
DICTIONARY
  5
26AA
330
269F
100
AcDbDictionary
280
     1
281
     1
  3
ACAD_SORTENTS
360
26AB
  0
DICTIONARY
  5
2218
330
2217
100
AcDbDictionary
280
     1
281
     1
  3
ACAD_MTEXT_RT
360
272D
  3
AcDbContextDataManager
360
2219
  0
DICTIONARY
  5
222D
330
222C
100
AcDbDictionary
280
     1
281
     1
  3
ACAD_MTEXT_RT
360
272E
  3
AcDbContextDataManager
360
222E
  0
DICTIONARY
  5
2232
330
2231
100
AcDbDictionary
280
     1
281
     1
  3
ACAD_MTEXT_RT
360
272F
  3
AcDbContextDataManager
360
2233
  0
DICTIONARY
  5
2730
330
233F
100
AcDbDictionary
280
     1
281
     1
  3
ACAD_MTEXT_RT
360
2731
  0
DICTIONARY
  5
2732
330
2341
100
AcDbDictionary
280
     1
281
     1
  3
ACAD_MTEXT_RT
360
2733
  0
DICTIONARY
  5
2734
330
2343
100
AcDbDictionary
280
     1
281
     1
  3
ACAD_MTEXT_RT
360
2735
  0
DICTIONARY
  5
2736
330
2345
100
AcDbDictionary
280
     1
281
     1
  3
ACAD_MTEXT_RT
360
2737
  0
DICTIONARY
  5
2738
330
234E
100
AcDbDictionary
280
     1
281
     1
  3
ACAD_MTEXT_RT
360
2739
  0
DICTIONARY
  5
273A
330
2354
100
AcDbDictionary
280
     1
281
     1
  3
ACAD_MTEXT_RT
360
273B
  0
DICTIONARY
  5
263E
330
235F
100
AcDbDictionary
280
     1
281
     1
  3
ACAD_MTEXT_2008_RT
360
263F
  0
DICTIONARY
  5
26EF
330
26EE
100
AcDbDictionary
280
     1
281
     1
  3
ACAD_MTEXT_2008_RT
360
26F0
  0
DICTIONARY
  5
6B
102
{ACAD_REACTORS
330
C
102
}
330
C
100
AcDbDictionary
281
     1
  0
DICTIONARY
  5
D
102
{ACAD_REACTORS
330
C
102
}
330
C
100
AcDbDictionary
281
     1
  0
DICTIONARY
  5
1A
102
{ACAD_REACTORS
330
C
102
}
330
C
100
AcDbDictionary
281
     1
  3
Arkusz1
350
D3
  3
Arkusz2
350
D7
  3
Model
350
22
  0
DICTIONARY
  5
6A
102
{ACAD_REACTORS
330
C
102
}
330
C
100
AcDbDictionary
281
     1
  3
ByBlock
350
ED
  3
ByLayer
350
EC
  3
Global
350
EE
  0
DICTIONARY
  5
12D
102
{ACAD_REACTORS
330
C
102
}
330
C
100
AcDbDictionary
281
     1
  3
Standard
350
12E
  0
DICTIONARY
  5
17
102
{ACAD_REACTORS
330
C
102
}
330
C
100
AcDbDictionary
281
     1
  3
SOLBET_IZOLACJA
350
7E9
  3
Standard
350
18
  0
DICTIONARY
  5
19
102
{ACAD_REACTORS
330
C
102
}
330
C
100
AcDbDictionary
281
     1
  0
ACDBDICTIONARYWDFLT
  5
E
102
{ACAD_REACTORS
330
C
102
}
330
C
100
AcDbDictionary
281
     1
  3
Normal
350
F
100
AcDbDictionaryWithDefault
340
F
  0
DICTIONARY
  5
10C
102
{ACAD_REACTORS
330
C
102
}
330
C
100
AcDbDictionary
281
     1
  3
A0
350
10D
  3
A1
350
188
  3
A2
350
189
  3
A3
350
18A
  3
A4
350
18B
  3
A5
350
18C
  3
A6
350
18D
  3
A7
350
18E
  3
A8
350
18F
  3
A9
350
190
  3
B0
350
191
  3
B1
350
192
  3
B2
350
193
  3
B3
350
194
  3
B4
350
195
  3
B5
350
196
  3
B6
350
197
  3
B7
350
198
  3
B8
350
199
  3
B9
350
19A
  3
C0
350
19B
  3
C1
350
19C
  3
C2
350
19D
  3
C3
350
19E
  3
C4
350
19F
  3
C5
350
1A0
  3
C6
350
1A1
  3
C7
350
1A2
  3
C8
350
1A3
  3
C9
350
1A4
  3
D0
350
1A5
  3
D1
350
1A6
  3
D2
350
1A7
  0
DICTIONARY
  5
7E
102
{ACAD_REACTORS
330
C
102
}
330
C
100
AcDbDictionary
281
     1
  3
Standard
350
7F
  0
DICTIONARY
  5
EF
102
{ACAD_REACTORS
330
C
102
}
330
C
100
AcDbDictionary
281
     1
  3
2dWireframe
350
F5
  3
3D Hidden
350
F7
  3
3dWireframe
350
F6
  3
Basic
350
F4
  3
Brighten
350
FB
  3
ColorChange
350
FF
  3
Conceptual
350
F8
  3
Dim
350
FA
  3
Facepattern
350
FE
  3
Flat
350
F0
  3
FlatWithEdges
350
F1
  3
Gouraud
350
F2
  3
GouraudWithEdges
350
F3
  3
Linepattern
350
FD
  3
Realistic
350
F9
  3
Thicken
350
FC
  0
XRECORD
  5
15D
102
{ACAD_REACTORS
330
C
102
}
330
C
100
AcDbXrecord
280
     1
 90
        1
330
7F
330
2217
330
222C
330
2231
330
235F
  0
DICTIONARY
  5
5E
102
{ACAD_REACTORS
330
C
102
}
330
C
100
AcDbDictionary
281
     1
  3
CANNOSCALE
350
146
  3
CMLEADERSTYLE
350
145
  3
CTABLESTYLE
350
84
  3
DIMASSOC
350
5F
  3
HIDETEXT
350
63
  3
INDEXCTL
350
466
  3
LIGHTINGUNITS
350
464
  3
MSLTSCALE
350
463
  3
PSOLHEIGHT
350
271F
  3
PSOLWIDTH
350
271E
  3
SORTENTS
350
465
  0
XRECORD
  5
2720
102
{ACAD_REACTORS
330
C
102
}
330
C
100
AcDbXrecord
280
     1
  1
DWGPROPS COOKIE
  2

  3

  4

  6

  7

  8
Olus
  9

300
=
301
=
302
=
303
=
304
=
305
=
306
=
307
=
308
=
309
=
 40
0.4845594212962963
 41
2454690.075573148
 42
2454848.877234607
  1

 90
        0
  0
DICTIONARY
  5
1883
102
{ACAD_REACTORS
330
3E5
102
}
330
3E5
100
AcDbDictionary
281
     1
  0
DICTIONARY
  5
1882
102
{ACAD_REACTORS
330
3E5
102
}
330
3E5
100
AcDbDictionary
281
     1
1001
ACAD
1000
<All
  0
XRECORD
  5
3F4
102
{ACAD_REACTORS
330
13C
102
}
330
13C
100
AcDbXrecord
280
     1
290
     1
  0
XRECORD
  5
404
102
{ACAD_REACTORS
330
403
102
}
330
403
100
AcDbXrecord
280
     1
290
     1
  0
XRECORD
  5
406
102
{ACAD_REACTORS
330
405
102
}
330
405
100
AcDbXrecord
280
     1
290
     1
  0
XRECORD
  5
408
102
{ACAD_REACTORS
330
407
102
}
330
407
100
AcDbXrecord
280
     1
290
     1
  0
XRECORD
  5
40A
102
{ACAD_REACTORS
330
409
102
}
330
409
100
AcDbXrecord
280
     1
290
     1
  0
XRECORD
  5
40C
102
{ACAD_REACTORS
330
40B
102
}
330
40B
100
AcDbXrecord
280
     1
290
     1
  0
XRECORD
  5
410
102
{ACAD_REACTORS
330
40F
102
}
330
40F
100
AcDbXrecord
280
     1
290
     1
  0
XRECORD
  5
412
102
{ACAD_REACTORS
330
411
102
}
330
411
100
AcDbXrecord
280
     1
290
     1
  0
XRECORD
  5
263D
102
{ACAD_REACTORS
330
263C
102
}
330
263C
100
AcDbXrecord
280
     1
 70
     1
340
10D
340
3DF
 70
    -1
  0
SORTENTSTABLE
  5
4A4
102
{ACAD_REACTORS
330
4A3
102
}
330
4A3
100
AcDbSortentsTable
330
1F
331
22BC
  5
2296
331
2285
  5
22FE
331
21B4
  5
21B8
331
22C4
  5
229E
331
228D
  5
2305
331
2185
  5
2186
331
21BC
  5
21BF
331
21FB
  5
227F
331
2343
  5
2345
331
2295
  5
2194
331
22CC
  5
2200
331
2203
  5
2287
331
2256
  5
22CB
331
22D4
  5
2208
331
234B
  5
234D
331
229D
  5
22B2
331
225E
  5
22CD
331
2195
  5
2199
331
220F
  5
22BE
331
2156
  5
2155
331
21D4
  5
21D7
331
2353
  5
2355
331
22FC
  5
22A1
331
22A5
  5
2263
331
2217
  5
22C6
331
219D
  5
21A1
331
235B
  5
235C
331
2304
  5
22A9
331
22AD
  5
230B
331
21A5
  5
21A9
331
2166
  5
2165
331
21E4
  5
21E8
331
2363
  5
2364
331
230C
  5
2216
331
22B5
  5
228C
331
227E
  5
22D7
331
21AD
  5
21B1
331
21EC
  5
21F0
331
22BD
  5
2297
331
2286
  5
22FF
331
21B5
  5
21B9
331
2186
  5
2187
331
21BD
  5
21C0
331
21FC
  5
2280
331
2344
  5
2346
331
22CD
  5
2201
331
2296
  5
22AB
331
21C5
  5
21C8
331
22D5
  5
220A
331
214F
  5
2308
331
2208
  5
22B7
331
234C
  5
234E
331
225F
  5
22CE
331
229E
  5
22B3
331
21D5
  5
21DA
331
2157
  5
2156
331
2354
  5
2356
331
22FD
  5
22A2
331
22A6
  5
2266
331
2267
  5
2169
331
219E
  5
21A2
331
215F
  5
215E
331
235C
  5
235D
331
2305
  5
22AA
331
22AE
  5
230C
331
21E5
  5
21E9
331
2167
  5
2166
331
2364
  5
2341
331
230D
  5
2217
331
22B6
  5
228D
331
227F
  5
22D8
331
21AE
  5
21B2
331
21ED
  5
21F1
331
2287
  5
2300
331
22BE
  5
2298
331
22C6
  5
21F8
331
2187
  5
2188
331
21BE
  5
21C1
331
21FD
  5
2281
331
2345
  5
2347
331
22CE
  5
2202
331
2297
  5
22AC
331
21C6
  5
21C9
331
22D6
  5
220B
331
21CE
  5
21D1
331
2209
  5
22B8
331
2150
  5
214F
331
234D
  5
234F
331
229F
  5
22B4
331
2197
  5
219B
331
21D6
  5
21DB
331
2355
  5
2365
331
22FE
  5
22A3
331
22A7
  5
2267
331
2268
  5
22D1
331
219F
  5
21A3
331
2160
  5
215F
331
21DE
  5
2311
331
235D
  5
235E
331
2306
  5
220E
331
22AF
  5
230D
331
2168
  5
2167
331
2365
  5
2342
331
230E
  5
222C
331
22B7
  5
2290
331
21AF
  5
21B3
331
21EE
  5
21F2
331
2280
  5
22D9
331
2231
  5
22C8
331
22BF
  5
2299
331
2288
  5
2301
331
21F6
  5
226A
331
233E
  5
233E
331
22C7
  5
21FA
331
2290
  5
2306
331
21BF
  5
21C2
331
2188
  5
2189
331
21FE
  5
2282
331
2346
  5
2348
331
22CF
  5
2203
331
2206
  5
22B5
331
22D7
  5
220C
331
21CF
  5
21D2
331
2298
  5
22AD
331
2190
  5
2195
331
220A
  5
22B9
331
2151
  5
2150
331
234E
  5
2350
331
22A0
  5
2256
331
2198
  5
219C
331
21D7
  5
21DC
331
2356
  5
2357
331
22FF
  5
22A4
331
22A8
  5
2268
331
2269
  5
22D2
331
21A0
  5
21A4
331
21DF
  5
21E3
331
235E
  5
235F
331
22B0
  5
230E
331
2307
  5
220F
331
2169
  5
2168
331
230F
  5
2231
331
21EF
  5
21F3
331
22B8
  5
2291
331
2281
  5
22FA
331
21B0
  5
21B4
331
22C0
  5
229A
331
2289
  5
2302
331
21B8
  5
21BC
331
233F
  5
233F
331
22C8
  5
21FC
331
2291
  5
2307
331
21C0
  5
21C3
331
2189
  5
218A
331
21FF
  5
2283
331
2347
  5
2349
331
22D0
  5
2204
331
21C8
  5
21CA
331
2207
  5
22B6
331
22D8
  5
220D
331
2299
  5
22AE
331
21D0
  5
21D3
331
2191
  5
2309
331
220B
  5
22BA
331
2152
  5
2151
331
234F
  5
2351
331
22A1
  5
225D
331
21D8
  5
21DD
331
215A
  5
2159
331
2357
  5
2358
331
2300
  5
22A5
331
22A9
  5
2269
331
226A
  5
22D3
331
21A1
  5
21A5
331
21E0
  5
21E4
331
2308
  5
2211
331
235F
  5
2360
331
22B1
  5
230F
331
21E8
  5
21EC
331
216A
  5
216B
331
2310
  5
2247
331
22B9
  5
2292
331
2282
  5
22FB
331
21B1
  5
21B5
331
21F0
  5
21F4
331
22C1
  5
229B
331
2182
  5
2183
331
21B9
  5
21BD
331
22C9
  5
21FD
331
21C1
  5
21C4
331
218A
  5
218B
331
2200
  5
2284
331
22D1
  5
2205
331
2348
  5
234A
331
229A
  5
22AF
331
2192
  5
2197
331
220C
  5
22BB
331
2153
  5
2152
331
21D1
  5
21D4
331
2350
  5
2352
331
22A2
  5
225E
331
21D9
  5
21DE
331
215B
  5
215A
331
2358
  5
2359
331
2301
  5
22A6
331
226B
  5
22D4
331
21A2
  5
21A6
331
2163
  5
2162
331
2360
  5
2361
331
21E9
  5
21ED
331
222C
  5
22C7
331
216B
  5
216C
331
22B2
  5
2288
331
2309
  5
2212
331
2311
  5
2253
331
22BA
  5
2293
331
2283
  5
22FC
331
21B2
  5
21B6
331
21F1
  5
21F5
331
22C2
  5
229C
331
228B
  5
2303
331
2183
  5
2184
331
21BA
  5
2310
331
2341
  5
2343
331
22CA
  5
21FE
331
21C2
  5
21C5
331
218B
  5
218C
331
22D2
  5
2206
331
21CA
  5
21CD
331
2349
  5
234B
331
229B
  5
22B0
331
2154
  5
2153
331
2193
  5
2198
331
21D2
  5
21D5
331
2351
  5
2353
331
22FA
  5
229F
331
22A3
  5
225F
331
219B
  5
219F
331
2359
  5
235A
331
2302
  5
22A7
331
22AB
  5
21D8
331
226C
  5
22D5
331
21A3
  5
21A7
331
2164
  5
2163
331
21E2
  5
21E5
331
2361
  5
2362
331
230A
  5
2213
331
22B3
  5
2289
331
21AB
  5
21AF
331
216C
  5
216D
331
21EA
  5
21EE
331
22BB
  5
2295
331
2284
  5
22FD
331
21B3
  5
21B7
331
2174
  5
2175
331
21F2
  5
21F6
331
22C3
  5
229D
331
228C
  5
2304
331
2184
  5
2185
331
21BB
  5
21BE
331
2342
  5
2344
331
22CB
  5
21FF
331
218C
  5
218D
331
2202
  5
2286
331
22D3
  5
2207
331
21CB
  5
21CE
331
234A
  5
234C
331
225D
  5
22CC
331
229C
  5
22B1
331
21D3
  5
21D6
331
220E
  5
22BD
331
2155
  5
2154
331
2352
  5
2354
331
22FB
  5
22A0
331
22A4
  5
2260
331
219C
  5
21A0
331
2216
  5
22C5
331
215D
  5
215B
331
235A
  5
235B
331
2303
  5
22A8
331
22AC
  5
230A
331
21A4
  5
21A8
331
2165
  5
2164
331
2362
  5
2363
331
230B
  5
2214
331
22B4
  5
228B
331
227D
  5
22D6
331
21AC
  5
21B0
331
216D
  5
2170
331
21EB
  5
21EF
  0
SORTENTSTABLE
  5
2244
102
{ACAD_REACTORS
330
2243
102
}
330
2243
100
AcDbSortentsTable
330
2238
  0
SORTENTSTABLE
  5
26AB
102
{ACAD_REACTORS
330
26AA
102
}
330
26AA
100
AcDbSortentsTable
330
269F
  0
XRECORD
  5
272D
102
{ACAD_REACTORS
330
2218
102
}
330
2218
100
AcDbXrecord
280
     1
 40
231674.0
  1
{\LDETAL 62\P}Oparcie stropu Teriva na ścianach wewnętrznych
  0
DICTIONARY
  5
2219
102
{ACAD_REACTORS
330
2218
102
}
330
2218
100
AcDbDictionary
281
     1
  3
ACDB_ANNOTATIONSCALES
350
221A
  0
XRECORD
  5
272E
102
{ACAD_REACTORS
330
222D
102
}
330
222D
100
AcDbXrecord
280
     1
 40
238961.0
  1
Na ścianie wewnętrznej\Pprostopadłej do kierunku belek
  0
DICTIONARY
  5
222E
102
{ACAD_REACTORS
330
222D
102
}
330
222D
100
AcDbDictionary
281
     1
  3
ACDB_ANNOTATIONSCALES
350
222F
  0
XRECORD
  5
272F
102
{ACAD_REACTORS
330
2232
102
}
330
2232
100
AcDbXrecord
280
     1
 40
263086.0
  1
Na ścianie wewnętrznej\Prównoległej do kierunku belek
  0
DICTIONARY
  5
2233
102
{ACAD_REACTORS
330
2232
102
}
330
2232
100
AcDbDictionary
281
     1
  3
ACDB_ANNOTATIONSCALES
350
2234
  0
XRECORD
  5
2731
102
{ACAD_REACTORS
330
2730
102
}
330
2730
100
AcDbXrecord
280
     1
 40
25446.0
  1
Wieniec żelbetowy
  0
XRECORD
  5
2733
102
{ACAD_REACTORS
330
2732
102
}
330
2732
100
AcDbXrecord
280
     1
 40
100191.0
  1
Zbrojenie górne\Pstrefy przypodporowej
  0
XRECORD
  5
2735
102
{ACAD_REACTORS
330
2734
102
}
330
2734
100
AcDbXrecord
280
     1
 40
100191.0
  1
Zbrojenie górne\Pstrefy przypodporowej
  0
XRECORD
  5
2737
102
{ACAD_REACTORS
330
2736
102
}
330
2736
100
AcDbXrecord
280
     1
 40
25446.0
  1
Wieniec żelbetowy
  0
XRECORD
  5
2739
102
{ACAD_REACTORS
330
2738
102
}
330
2738
100
AcDbXrecord
280
     1
 40
34960.0
  1
Warstwa wykończeniowa
  0
XRECORD
  5
273B
102
{ACAD_REACTORS
330
273A
102
}
330
273A
100
AcDbXrecord
280
     1
 40
42625.0
  1
Płyty izolacyjne twarde
  0
XRECORD
  5
263F
102
{ACAD_REACTORS
330
263E
102
}
330
263E
100
AcDbXrecord
280
     1
 40
24693.0
  1
\pxqc;A\P(5 : 1)
  0
XRECORD
  5
26F0
102
{ACAD_REACTORS
330
26EF
102
}
330
26EF
100
AcDbXrecord
280
     1
 40
24748.0
  1
\pxqc;C\P(5 : 1)
  0
LAYOUT
  5
D3
102
{ACAD_XDICTIONARY
360
2724
102
}
102
{ACAD_REACTORS
330
1A
102
}
330
1A
100
AcDbPlotSettings
  1

  2
C:\Documents and Settings\basas\Application Data\Autodesk\AutoCAD 2005\R16.1\enu\plotters\Default Windows System Printer.pc3
  4

  6

 40
0.0
 41
0.0
 42
0.0
 43
0.0
 44
0.0
 45
0.0
 46
0.0
 47
0.0
 48
0.0
 49
0.0
140
0.0
141
0.0
142
1.0
143
1.0
 70
   688
 72
     0
 73
     0
 74
     5
  7

 75
    16
147
1.0
148
0.0
149
0.0
100
AcDbLayout
  1
Arkusz1
 70
     1
 71
     1
 10
0.0
 20
0.0
 11
12.0
 21
9.0
 12
0.0
 22
0.0
 32
0.0
 14
0.0
 24
0.0
 34
0.0
 15
0.0
 25
0.0
 35
0.0
146
0.0
 13
0.0
 23
0.0
 33
0.0
 16
1.0
 26
0.0
 36
0.0
 17
0.0
 27
1.0
 37
0.0
 76
     0
330
D2
  0
LAYOUT
  5
D7
102
{ACAD_XDICTIONARY
360
2726
102
}
102
{ACAD_REACTORS
330
1A
102
}
330
1A
100
AcDbPlotSettings
  1

  2
C:\Documents and Settings\basas\Application Data\Autodesk\AutoCAD 2005\R16.1\enu\plotters\Default Windows System Printer.pc3
  4

  6

 40
0.0
 41
0.0
 42
0.0
 43
0.0
 44
0.0
 45
0.0
 46
0.0
 47
0.0
 48
0.0
 49
0.0
140
0.0
141
0.0
142
1.0
143
1.0
 70
   688
 72
     0
 73
     0
 74
     5
  7

 75
    16
147
1.0
148
0.0
149
0.0
100
AcDbLayout
  1
Arkusz2
 70
     1
 71
     2
 10
0.0
 20
0.0
 11
12.0
 21
9.0
 12
0.0
 22
0.0
 32
0.0
 14
0.0
 24
0.0
 34
0.0
 15
0.0
 25
0.0
 35
0.0
146
0.0
 13
0.0
 23
0.0
 33
0.0
 16
1.0
 26
0.0
 36
0.0
 17
0.0
 27
1.0
 37
0.0
 76
     0
330
D6
  0
LAYOUT
  5
22
102
{ACAD_XDICTIONARY
360
2721
102
}
102
{ACAD_REACTORS
330
1A
102
}
330
1A
100
AcDbPlotSettings
  1

  2
none_device
  4
Letter_(8.50_x_11.00_Inches)
  6

 40
6.349999904632568
 41
6.349999904632568
 42
6.350006103515625
 43
6.350006103515625
 44
215.8999938964844
 45
279.3999938964844
 46
11.54999923706054
 47
-13.65000009536743
 48
0.0
 49
0.0
140
210.0
141
297.0
142
1.0
143
1.0
 70
 11936
 72
     1
 73
     0
 74
     4
  7

 75
     0
147
0.9999999999999998
148
0.0
149
0.0
100
AcDbLayout
  1
Model
 70
     1
 71
     0
 10
0.0
 20
0.0
 11
12.0
 21
9.0
 12
0.0
 22
0.0
 32
0.0
 14
0.0
 24
0.0
 34
0.0
 15
0.0
 25
0.0
 35
0.0
146
0.0
 13
0.0
 23
0.0
 33
0.0
 16
1.0
 26
0.0
 36
0.0
 17
0.0
 27
1.0
 37
0.0
 76
     0
330
1F
331
EA
1001
ACAD_PSEXT
1000
Brak
1000
Brak
1000
Nie można zastosować.
1000
Arkusz nie zostanie wydrukowany dopóki nie wybrano konfiguracji plotera.
1070
     0
  0
MATERIAL
  5
ED
102
{ACAD_XDICTIONARY
360
272A
102
}
102
{ACAD_REACTORS
330
6A
102
}
330
6A
100
AcDbMaterial
  1
ByBlock
 73
     2
 78
     2
172
     2
176
     2
270
     2
274
     2
  0
MATERIAL
  5
EC
102
{ACAD_XDICTIONARY
360
2728
102
}
102
{ACAD_REACTORS
330
6A
102
}
330
6A
100
AcDbMaterial
  1
ByLayer
 73
     2
 78
     2
172
     2
176
     2
270
     2
274
     2
  0
MATERIAL
  5
EE
102
{ACAD_XDICTIONARY
360
173
102
}
102
{ACAD_REACTORS
330
6A
102
}
330
6A
100
AcDbMaterial
  1
Global
 73
     2
 43
0.0007999999797903
 43
0.0
 43
0.0
 43
0.0
 43
0.0
 43
0.0007999999797903
 43
0.0
 43
0.0
 43
0.0
 43
0.0
 43
1.0
 43
0.0
 43
0.0
 43
0.0
 43
0.0
 43
1.0
 78
     2
172
     2
 49
0.0007999999797903
 49
0.0
 49
0.0
 49
0.0
 49
0.0
 49
0.0007999999797903
 49
0.0
 49
0.0
 49
0.0
 49
0.0
 49
1.0
 49
0.0
 49
0.0
 49
0.0
 49
0.0
 49
1.0
176
     2
142
0.0007999999797903
142
0.0
142
0.0
142
0.0
142
0.0
142
0.0007999999797903
142
0.0
142
0.0
142
0.0
142
0.0
142
1.0
142
0.0
142
0.0
142
0.0
142
0.0
142
1.0
270
     2
144
0.0007999999797903
144
0.0
144
0.0
144
0.0
144
0.0
144
0.0007999999797903
144
0.0
144
0.0
144
0.0
144
0.0
144
1.0
144
0.0
144
0.0
144
0.0
144
0.0
144
1.0
274
     2
1001
ACAD
1070
    -1
1070
     3
1070
     0
1000

1071
        0
1070
     0
  0
ACAD_PROXY_OBJECT
  5
12E
102
{ACAD_REACTORS
330
12D
102
}
330
12D
100
AcDbProxyObject
 90
      499
 91
      508
 95
       23
 70
     0
 93
      618
310
40901902A4063FBFFFFFE0000000000000020400000000000020404254DD185B99185C99000000000000000104090140501A0000000000000410000000000000004102576400000000000003903F
340
14
340
0
340
11
340
0
 94
        0
1001
ACAD_MLEADERVER
1070
     2
1001
ACAD
1000
AcRTDxfName
1000
MLEADERSTYLE
1000
AcRTDxfName
1000
MLEADERSTYLE
  0
MLINESTYLE
  5
7E9
102
{ACAD_REACTORS
330
17
102
}
330
17
100
AcDbMlineStyle
  2
SOLBET_IZOLACJA
 70
   272
  3

 62
   256
 51
90.0
 52
90.0
 71
     2
 49
0.008
 62
   256
  6
BYLAYER
 49
-0.008
 62
   256
  6
BYLAYER
  0
MLINESTYLE
  5
18
102
{ACAD_REACTORS
330
17
102
}
330
17
100
AcDbMlineStyle
  2
STANDARD
 70
     0
  3

 62
   256
 51
90.0
 52
90.0
 71
     2
 49
0.5
 62
   256
  6
BYLAYER
 49
-0.5
 62
   256
  6
BYLAYER
  0
ACDBPLACEHOLDER
  5
F
102
{ACAD_REACTORS
330
E
102
}
330
E
  0
ACAD_PROXY_OBJECT
  5
10D
102
{ACAD_REACTORS
330
10C
102
}
330
10C
100
AcDbProxyObject
 90
      499
 91
      507
 95
       23
 70
     0
 93
       49
310
904313A31005FF
 94
        0
1001
ACAD
1000
AcRTDxfName
1000
SCALE
1000
AcRTDxfName
1000
SCALE
  0
ACAD_PROXY_OBJECT
  5
188
102
{ACAD_REACTORS
330
10C
102
}
330
10C
100
AcDbProxyObject
 90
      499
 91
      507
 95
       23
 70
     0
 93
      113
310
904313A3200400000000000000407F
 94
        0
1001
ACAD
1000
AcRTDxfName
1000
SCALE
1000
AcRTDxfName
1000
SCALE
  0
ACAD_PROXY_OBJECT
  5
189
102
{ACAD_REACTORS
330
10C
102
}
330
10C
100
AcDbProxyObject
 90
      499
 91
      507
 95
       23
 70
     0
 93
      113
310
904313A3400400000000000010407F
 94
        0
1001
ACAD
1000
AcRTDxfName
1000
SCALE
1000
AcRTDxfName
1000
SCALE
  0
ACAD_PROXY_OBJECT
  5
18A
102
{ACAD_REACTORS
330
10C
102
}
330
10C
100
AcDbProxyObject
 90
      499
 91
      507
 95
       23
 70
     0
 93
      113
310
904313A3500400000000000014407F
 94
        0
1001
ACAD
1000
AcRTDxfName
1000
SCALE
1000
AcRTDxfName
1000
SCALE
  0
ACAD_PROXY_OBJECT
  5
18B
102
{ACAD_REACTORS
330
10C
102
}
330
10C
100
AcDbProxyObject
 90
      499
 91
      507
 95
       23
 70
     0
 93
      113
310
904313A3800400000000000020407F
 94
        0
1001
ACAD
1000
AcRTDxfName
1000
SCALE
1000
AcRTDxfName
1000
SCALE
  0
ACAD_PROXY_OBJECT
  5
18C
102
{ACAD_REACTORS
330
10C
102
}
330
10C
100
AcDbProxyObject
 90
      499
 91
      507
 95
       23
 70
     0
 93
      121
310
905313A313000400000000000024407F
 94
        0
1001
ACAD
1000
AcRTDxfName
1000
SCALE
1000
AcRTDxfName
1000
SCALE
  0
ACAD_PROXY_OBJECT
  5
18D
102
{ACAD_REACTORS
330
10C
102
}
330
10C
100
AcDbProxyObject
 90
      499
 91
      507
 95
       23
 70
     0
 93
      121
310
905313A313600400000000000030407F
 94
        0
1001
ACAD
1000
AcRTDxfName
1000
SCALE
1000
AcRTDxfName
1000
SCALE
  0
ACAD_PROXY_OBJECT
  5
18E
102
{ACAD_REACTORS
330
10C
102
}
330
10C
100
AcDbProxyObject
 90
      499
 91
      507
 95
       23
 70
     0
 93
      121
310
905313A323000400000000000034407F
 94
        0
1001
ACAD
1000
AcRTDxfName
1000
SCALE
1000
AcRTDxfName
1000
SCALE
  0
ACAD_PROXY_OBJECT
  5
18F
102
{ACAD_REACTORS
330
10C
102
}
330
10C
100
AcDbProxyObject
 90
      499
 91
      507
 95
       23
 70
     0
 93
      121
310
905313A33300040000000000003E407F
 94
        0
1001
ACAD
1000
AcRTDxfName
1000
SCALE
1000
AcRTDxfName
1000
SCALE
  0
ACAD_PROXY_OBJECT
  5
190
102
{ACAD_REACTORS
330
10C
102
}
330
10C
100
AcDbProxyObject
 90
      499
 91
      507
 95
       23
 70
     0
 93
      121
310
905313A343000400000000000044407F
 94
        0
1001
ACAD
1000
AcRTDxfName
1000
SCALE
1000
AcRTDxfName
1000
SCALE
  0
ACAD_PROXY_OBJECT
  5
191
102
{ACAD_REACTORS
330
10C
102
}
330
10C
100
AcDbProxyObject
 90
      499
 91
      507
 95
       23
 70
     0
 93
      121
310
905313A353000400000000000049407F
 94
        0
1001
ACAD
1000
AcRTDxfName
1000
SCALE
1000
AcRTDxfName
1000
SCALE
  0
ACAD_PROXY_OBJECT
  5
192
102
{ACAD_REACTORS
330
10C
102
}
330
10C
100
AcDbProxyObject
 90
      499
 91
      507
 95
       23
 70
     0
 93
      129
310
906313A31303000400000000000059407F
 94
        0
1001
ACAD
1000
AcRTDxfName
1000
SCALE
1000
AcRTDxfName
1000
SCALE
  0
ACAD_PROXY_OBJECT
  5
193
102
{ACAD_REACTORS
330
10C
102
}
330
10C
100
AcDbProxyObject
 90
      499
 91
      507
 95
       23
 70
     0
 93
      113
310
904323A3100000000000000001017F
 94
        0
1001
ACAD
1000
AcRTDxfName
1000
SCALE
1000
AcRTDxfName
1000
SCALE
  0
ACAD_PROXY_OBJECT
  5
194
102
{ACAD_REACTORS
330
10C
102
}
330
10C
100
AcDbProxyObject
 90
      499
 91
      507
 95
       23
 70
     0
 93
      113
310
904343A3100000000000000041017F
 94
        0
1001
ACAD
1000
AcRTDxfName
1000
SCALE
1000
AcRTDxfName
1000
SCALE
  0
ACAD_PROXY_OBJECT
  5
195
102
{ACAD_REACTORS
330
10C
102
}
330
10C
100
AcDbProxyObject
 90
      499
 91
      507
 95
       23
 70
     0
 93
      113
310
904383A3100000000000000081017F
 94
        0
1001
ACAD
1000
AcRTDxfName
1000
SCALE
1000
AcRTDxfName
1000
SCALE
  0
ACAD_PROXY_OBJECT
  5
196
102
{ACAD_REACTORS
330
10C
102
}
330
10C
100
AcDbProxyObject
 90
      499
 91
      507
 95
       23
 70
     0
 93
      121
310
90531303A3100000000000000091017F
 94
        0
1001
ACAD
1000
AcRTDxfName
1000
SCALE
1000
AcRTDxfName
1000
SCALE
  0
ACAD_PROXY_OBJECT
  5
197
102
{ACAD_REACTORS
330
10C
102
}
330
10C
100
AcDbProxyObject
 90
      499
 91
      507
 95
       23
 70
     0
 93
      129
310
9063130303A3100000000000000165017F
 94
        0
1001
ACAD
1000
AcRTDxfName
1000
SCALE
1000
AcRTDxfName
1000
SCALE
  0
ACAD_PROXY_OBJECT
  5
198
102
{ACAD_REACTORS
330
10C
102
}
330
10C
100
AcDbProxyObject
 90
      499
 91
      507
 95
       23
 70
     0
 93
      265
310
90F312F31323822203D2031272D302200000000000000200FC00000000000028407F
 94
        0
1001
ACAD
1000
AcRTDxfName
1000
SCALE
1000
AcRTDxfName
1000
SCALE
  0
ACAD_PROXY_OBJECT
  5
199
102
{ACAD_REACTORS
330
10C
102
}
330
10C
100
AcDbProxyObject
 90
      499
 91
      507
 95
       23
 70
     0
 93
      257
310
90E312F363422203D2031272D302200000000000000240FC00000000000028407F
 94
        0
1001
ACAD
1000
AcRTDxfName
1000
SCALE
1000
AcRTDxfName
1000
SCALE
  0
ACAD_PROXY_OBJECT
  5
19A
102
{ACAD_REACTORS
330
10C
102
}
330
10C
100
AcDbProxyObject
 90
      499
 91
      507
 95
       23
 70
     0
 93
      257
310
90E312F333222203D2031272D302200000000000000280FC00000000000028407F
 94
        0
1001
ACAD
1000
AcRTDxfName
1000
SCALE
1000
AcRTDxfName
1000
SCALE
  0
ACAD_PROXY_OBJECT
  5
19B
102
{ACAD_REACTORS
330
10C
102
}
330
10C
100
AcDbProxyObject
 90
      499
 91
      507
 95
       23
 70
     0
 93
      257
310
90E312F313622203D2031272D3022000000000000002C0FC00000000000028407F
 94
        0
1001
ACAD
1000
AcRTDxfName
1000
SCALE
1000
AcRTDxfName
1000
SCALE
  0
ACAD_PROXY_OBJECT
  5
19C
102
{ACAD_REACTORS
330
10C
102
}
330
10C
100
AcDbProxyObject
 90
      499
 91
      507
 95
       23
 70
     0
 93
      257
310
90E332F333222203D2031272D3022000000000000002E0FC00000000000028407F
 94
        0
1001
ACAD
1000
AcRTDxfName
1000
SCALE
1000
AcRTDxfName
1000
SCALE
  0
ACAD_PROXY_OBJECT
  5
19D
102
{ACAD_REACTORS
330
10C
102
}
330
10C
100
AcDbProxyObject
 90
      499
 91
      507
 95
       23
 70
     0
 93
      249
310
90D312F3822203D2031272D302200000000000000300FC00000000000028407F
 94
        0
1001
ACAD
1000
AcRTDxfName
1000
SCALE
1000
AcRTDxfName
1000
SCALE
  0
ACAD_PROXY_OBJECT
  5
19E
102
{ACAD_REACTORS
330
10C
102
}
330
10C
100
AcDbProxyObject
 90
      499
 91
      507
 95
       23
 70
     0
 93
      257
310
90E332F313622203D2031272D302200000000000000320FC00000000000028407F
 94
        0
1001
ACAD
1000
AcRTDxfName
1000
SCALE
1000
AcRTDxfName
1000
SCALE
  0
ACAD_PROXY_OBJECT
  5
19F
102
{ACAD_REACTORS
330
10C
102
}
330
10C
100
AcDbProxyObject
 90
      499
 91
      507
 95
       23
 70
     0
 93
      249
310
90D312F3422203D2031272D302200000000000000340FC00000000000028407F
 94
        0
1001
ACAD
1000
AcRTDxfName
1000
SCALE
1000
AcRTDxfName
1000
SCALE
  0
ACAD_PROXY_OBJECT
  5
1A0
102
{ACAD_REACTORS
330
10C
102
}
330
10C
100
AcDbProxyObject
 90
      499
 91
      507
 95
       23
 70
     0
 93
      249
310
90D332F3822203D2031272D302200000000000000360FC00000000000028407F
 94
        0
1001
ACAD
1000
AcRTDxfName
1000
SCALE
1000
AcRTDxfName
1000
SCALE
  0
ACAD_PROXY_OBJECT
  5
1A1
102
{ACAD_REACTORS
330
10C
102
}
330
10C
100
AcDbProxyObject
 90
      499
 91
      507
 95
       23
 70
     0
 93
      249
310
90D312F3222203D2031272D302200000000000000380FC00000000000028407F
 94
        0
1001
ACAD
1000
AcRTDxfName
1000
SCALE
1000
AcRTDxfName
1000
SCALE
  0
ACAD_PROXY_OBJECT
  5
1A2
102
{ACAD_REACTORS
330
10C
102
}
330
10C
100
AcDbProxyObject
 90
      499
 91
      507
 95
       23
 70
     0
 93
      249
310
90D332F3422203D2031272D3022000000000000003A0FC00000000000028407F
 94
        0
1001
ACAD
1000
AcRTDxfName
1000
SCALE
1000
AcRTDxfName
1000
SCALE
  0
ACAD_PROXY_OBJECT
  5
1A3
102
{ACAD_REACTORS
330
10C
102
}
330
10C
100
AcDbProxyObject
 90
      499
 91
      507
 95
       23
 70
     0
 93
      169
310
90B3122203D2031272D302200400000000000028407F
 94
        0
1001
ACAD
1000
AcRTDxfName
1000
SCALE
1000
AcRTDxfName
1000
SCALE
  0
ACAD_PROXY_OBJECT
  5
1A4
102
{ACAD_REACTORS
330
10C
102
}
330
10C
100
AcDbProxyObject
 90
      499
 91
      507
 95
       23
 70
     0
 93
      265
310
90F312D312F3222203D2031272D3022000000000000003E0FC00000000000028407F
 94
        0
1001
ACAD
1000
AcRTDxfName
1000
SCALE
1000
AcRTDxfName
1000
SCALE
  0
ACAD_PROXY_OBJECT
  5
1A5
102
{ACAD_REACTORS
330
10C
102
}
330
10C
100
AcDbProxyObject
 90
      499
 91
      507
 95
       23
 70
     0
 93
      233
310
90B3322203D2031272D3022000000000000000210000000000000028407F
 94
        0
1001
ACAD
1000
AcRTDxfName
1000
SCALE
1000
AcRTDxfName
1000
SCALE
  0
ACAD_PROXY_OBJECT
  5
1A6
102
{ACAD_REACTORS
330
10C
102
}
330
10C
100
AcDbProxyObject
 90
      499
 91
      507
 95
       23
 70
     0
 93
      233
310
90B3622203D2031272D3022000000000000000610000000000000028407F
 94
        0
1001
ACAD
1000
AcRTDxfName
1000
SCALE
1000
AcRTDxfName
1000
SCALE
  0
ACAD_PROXY_OBJECT
  5
1A7
102
{ACAD_REACTORS
330
10C
102
}
330
10C
100
AcDbProxyObject
 90
      499
 91
      507
 95
       23
 70
     0
 93
      257
310
90E31272D3022203D2031272D3022000000000000000A10000000000000028407F
 94
        0
1001
ACAD
1000
AcRTDxfName
1000
SCALE
1000
AcRTDxfName
1000
SCALE
  0
TABLESTYLE
  5
7F
102
{ACAD_XDICTIONARY
360
162
102
}
102
{ACAD_REACTORS
330
7E
102
}
330
7E
100
AcDbTableStyle
  3
Standard
 70
     0
 71
     0
 40
1.5
 41
1.5
280
     0
281
     0
  7
Standard
140
4.5
170
     2
 62
     0
 63
     7
283
     0
274
    -2
284
     1
 64
     0
275
    -2
285
     1
 65
     0
276
    -2
286
     1
 66
     0
277
    -2
287
     1
 67
     0
278
    -2
288
     1
 68
     0
279
    -2
289
     1
 69
     0
  7
Standard
140
6.0
170
     5
 62
     0
 63
     7
283
     0
274
    -2
284
     1
 64
     0
275
    -2
285
     1
 65
     0
276
    -2
286
     1
 66
     0
277
    -2
287
     1
 67
     0
278
    -2
288
     1
 68
     0
279
    -2
289
     1
 69
     0
  7
Standard
140
4.5
170
     5
 62
     0
 63
     7
283
     0
274
    -2
284
     1
 64
     0
275
    -2
285
     1
 65
     0
276
    -2
286
     1
 66
     0
277
    -2
287
     1
 67
     0
278
    -2
288
     1
 68
     0
279
    -2
289
     1
 69
     0
  0
VISUALSTYLE
  5
F5
102
{ACAD_REACTORS
330
EF
102
}
330
EF
100
AcDbVisualStyle
  2
2dWireframe
 70
     4
 71
     0
 72
     2
 73
     1
 90
        0
 40
-0.6
 41
-30.0
 62
     5
 63
     7
 74
     1
 91
        4
 64
     7
 65
   257
 75
     1
175
     1
 42
1.0
 92
        0
 66
   257
 43
1.0
 76
     1
 77
     6
 78
     2
 67
     7
 79
     5
170
     0
171
     0
290
     0
174
     0
 93
        1
 44
0.0
173
     0
291
     0
 45
0.0
1001
ACAD
1000
AcDbSavedByObjectVersion
1070
     0
  0
VISUALSTYLE
  5
F7
102
{ACAD_REACTORS
330
EF
102
}
330
EF
100
AcDbVisualStyle
  2
3D Hidden
 70
     6
 71
     1
 72
     2
 73
     2
 90
        0
 40
-0.6
 41
-30.0
 62
     5
 63
     7
 74
     2
 91
        2
 64
     7
 65
   257
 75
     2
175
     1
 42
40.0
 92
        0
 66
   257
 43
1.0
 76
     1
 77
     6
 78
     2
 67
     7
 79
     3
170
     0
171
     0
290
     0
174
     0
 93
        1
 44
0.0
173
     0
291
     0
 45
0.0
1001
ACAD
1000
AcDbSavedByObjectVersion
1070
     0
  0
VISUALSTYLE
  5
F6
102
{ACAD_REACTORS
330
EF
102
}
330
EF
100
AcDbVisualStyle
  2
3dWireframe
 70
     5
 71
     0
 72
     2
 73
     1
 90
        0
 40
-0.6
 41
-30.0
 62
     5
 63
     7
 74
     1
 91
        4
 64
     7
 65
   257
 75
     1
175
     1
 42
1.0
 92
        0
 66
   257
 43
1.0
 76
     1
 77
     6
 78
     2
 67
     7
 79
     5
170
     0
171
     0
290
     0
174
     0
 93
        1
 44
0.0
173
     0
291
     0
 45
0.0
1001
ACAD
1000
AcDbSavedByObjectVersion
1070
     0
  0
VISUALSTYLE
  5
F4
102
{ACAD_REACTORS
330
EF
102
}
330
EF
100
AcDbVisualStyle
  2
Basic
 70
     7
 71
     1
 72
     0
 73
     1
 90
        0
 40
-0.6
 41
-30.0
 62
     5
 63
     7
 74
     0
 91
        4
 64
     7
 65
   257
 75
     1
175
     1
 42
1.0
 92
        8
 66
     7
 43
1.0
 76
     1
 77
     6
 78
     2
 67
     7
 79
     5
170
     0
171
     0
290
     0
174
     0
 93
        1
 44
0.0
173
     0
291
     1
 45
0.0
1001
ACAD
1000
AcDbSavedByObjectVersion
1070
     0
  0
VISUALSTYLE
  5
FB
102
{ACAD_REACTORS
330
EF
102
}
330
EF
100
AcDbVisualStyle
  2
Brighten
 70
    12
 71
     2
 72
     2
 73
     1
 90
        0
 40
-0.6
 41
-30.0
 62
     5
 63
     7
 74
     1
 91
        4
 64
     7
 65
   257
 75
     1
175
     1
 42
1.0
 92
        8
 66
     7
 43
1.0
 76
     1
 77
     6
 78
     2
 67
     7
 79
     5
170
     0
171
     0
290
     0
174
     0
 93
        1
 44
50.0
173
     0
291
     1
 45
0.0
1001
ACAD
1000
AcDbSavedByObjectVersion
1070
     0
  0
VISUALSTYLE
  5
FF
102
{ACAD_REACTORS
330
EF
102
}
330
EF
100
AcDbVisualStyle
  2
ColorChange
 70
    16
 71
     2
 72
     2
 73
     3
 90
        0
 40
-0.6
 41
-30.0
 62
     5
 63
     8
 74
     1
 91
        4
 64
     7
 65
   257
 75
     1
175
     1
 42
1.0
 92
        8
 66
     8
 43
1.0
 76
     1
 77
     6
 78
     2
 67
     7
 79
     5
170
     0
171
     0
290
     0
174
     0
 93
        1
 44
0.0
173
     0
291
     1
 45
0.0
1001
ACAD
1000
AcDbSavedByObjectVersion
1070
     0
  0
VISUALSTYLE
  5
F8
102
{ACAD_REACTORS
330
EF
102
}
330
EF
100
AcDbVisualStyle
  2
Conceptual
 70
     9
 71
     3
 72
     2
 73
     1
 90
        0
 40
-0.6
 41
-30.0
 62
     5
 63
     7
 74
     2
 91
        2
 64
     7
 65
   257
 75
     1
175
     1
 42
40.0
 92
        8
 66
     7
 43
1.0
 76
     1
 77
     6
 78
     2
 67
     7
 79
     3
170
     0
171
     0
290
     0
174
     0
 93
        1
 44
0.0
173
     0
291
     0
 45
0.0
1001
ACAD
1000
AcDbSavedByObjectVersion
1070
     0
  0
VISUALSTYLE
  5
FA
102
{ACAD_REACTORS
330
EF
102
}
330
EF
100
AcDbVisualStyle
  2
Dim
 70
    11
 71
     2
 72
     2
 73
     1
 90
        0
 40
-0.6
 41
-30.0
 62
     5
 63
     7
 74
     1
 91
        4
 64
     7
 65
   257
 75
     1
175
     1
 42
1.0
 92
        8
 66
     7
 43
1.0
 76
     1
 77
     6
 78
     2
 67
     7
 79
     5
170
     0
171
     0
290
     0
174
     0
 93
        1
 44
-50.0
173
     0
291
     1
 45
0.0
1001
ACAD
1000
AcDbSavedByObjectVersion
1070
     0
  0
VISUALSTYLE
  5
FE
102
{ACAD_REACTORS
330
EF
102
}
330
EF
100
AcDbVisualStyle
  2
Facepattern
 70
    15
 71
     2
 72
     2
 73
     1
 90
        0
 40
-0.6
 41
-30.0
 62
     5
 63
     7
 74
     1
 91
        4
 64
     7
 65
   257
 75
     1
175
     1
 42
1.0
 92
        8
 66
     7
 43
1.0
 76
     1
 77
     6
 78
     2
 67
     7
 79
     5
170
     0
171
     0
290
     0
174
     0
 93
        1
 44
0.0
173
     0
291
     1
 45
0.0
1001
ACAD
1000
AcDbSavedByObjectVersion
1070
     0
  0
VISUALSTYLE
  5
F0
102
{ACAD_REACTORS
330
EF
102
}
330
EF
100
AcDbVisualStyle
  2
Flat
 70
     0
 71
     2
 72
     1
 73
     1
 90
        2
 40
-0.6
 41
30.0
 62
     5
 63
     7
 74
     0
 91
        4
 64
     7
 65
   257
 75
     1
175
     1
 42
1.0
 92
        8
 66
     7
 43
1.0
 76
     1
 77
     6
 78
     2
 67
     7
 79
     5
170
     0
171
     0
290
     0
174
     0
 93
        1
 44
0.0
173
     0
291
     1
 45
0.0
1001
ACAD
1000
AcDbSavedByObjectVersion
1070
     0
  0
VISUALSTYLE
  5
F1
102
{ACAD_REACTORS
330
EF
102
}
330
EF
100
AcDbVisualStyle
  2
FlatWithEdges
 70
     1
 71
     2
 72
     1
 73
     1
 90
        2
 40
-0.6
 41
30.0
 62
     5
 63
     7
 74
     1
 91
        4
 64
     7
 65
   257
 75
     1
175
     1
 42
1.0
 92
        0
 66
   257
 43
1.0
 76
     1
 77
     6
 78
     2
 67
     7
 79
     5
170
     0
171
     0
290
     0
174
     0
 93
        1
 44
0.0
173
     0
291
     1
 45
0.0
1001
ACAD
1000
AcDbSavedByObjectVersion
1070
     0
  0
VISUALSTYLE
  5
F2
102
{ACAD_REACTORS
330
EF
102
}
330
EF
100
AcDbVisualStyle
  2
Gouraud
 70
     2
 71
     2
 72
     2
 73
     1
 90
        2
 40
-0.6
 41
30.0
 62
     5
 63
     7
 74
     0
 91
        4
 64
     7
 65
   257
 75
     1
175
     1
 42
1.0
 92
        0
 66
     7
 43
1.0
 76
     1
 77
     6
 78
     2
 67
     7
 79
     5
170
     0
171
     0
290
     0
174
     0
 93
        1
 44
0.0
173
     0
291
     1
 45
0.0
1001
ACAD
1000
AcDbSavedByObjectVersion
1070
     0
  0
VISUALSTYLE
  5
F3
102
{ACAD_REACTORS
330
EF
102
}
330
EF
100
AcDbVisualStyle
  2
GouraudWithEdges
 70
     3
 71
     2
 72
     2
 73
     1
 90
        2
 40
-0.6
 41
30.0
 62
     5
 63
     7
 74
     1
 91
        4
 64
     7
 65
   257
 75
     1
175
     1
 42
1.0
 92
        0
 66
   257
 43
1.0
 76
     1
 77
     6
 78
     2
 67
     7
 79
     5
170
     0
171
     0
290
     0
174
     0
 93
        1
 44
0.0
173
     0
291
     1
 45
0.0
1001
ACAD
1000
AcDbSavedByObjectVersion
1070
     0
  0
VISUALSTYLE
  5
FD
102
{ACAD_REACTORS
330
EF
102
}
330
EF
100
AcDbVisualStyle
  2
Linepattern
 70
    14
 71
     2
 72
     2
 73
     1
 90
        0
 40
-0.6
 41
-30.0
 62
     5
 63
     7
 74
     1
 91
        4
 64
     7
 65
   257
 75
     7
175
     7
 42
1.0
 92
        8
 66
     7
 43
1.0
 76
     1
 77
     6
 78
     2
 67
     7
 79
     5
170
     0
171
     0
290
     0
174
     0
 93
        1
 44
0.0
173
     0
291
     1
 45
0.0
1001
ACAD
1000
AcDbSavedByObjectVersion
1070
     0
  0
VISUALSTYLE
  5
F9
102
{ACAD_REACTORS
330
EF
102
}
330
EF
100
AcDbVisualStyle
  2
Realistic
 70
     8
 71
     2
 72
     2
 73
     1
 90
        0
 40
-0.6
 41
-30.0
 62
     5
 63
     7
 74
     1
 91
        0
 64
     7
 65
   257
 75
     1
175
     1
 42
1.0
 92
        8
 66
     8
 43
1.0
 76
     1
 77
     6
 78
     2
 67
     7
 79
     5
170
     0
171
     0
290
     0
174
     0
 93
       13
 44
0.0
173
     0
291
     0
 45
0.0
1001
ACAD
1000
AcDbSavedByObjectVersion
1070
     0
  0
VISUALSTYLE
  5
FC
102
{ACAD_REACTORS
330
EF
102
}
330
EF
100
AcDbVisualStyle
  2
Thicken
 70
    13
 71
     2
 72
     2
 73
     1
 90
        0
 40
-0.6
 41
-30.0
 62
     5
 63
     7
 74
     1
 91
        4
 64
     7
 65
   257
 75
     1
175
     1
 42
1.0
 92
       12
 66
     7
 43
1.0
 76
     1
 77
     6
 78
     2
 67
     7
 79
     5
170
     0
171
     0
290
     0
174
     0
 93
        1
 44
0.0
173
     0
291
     1
 45
0.0
1001
ACAD
1000
AcDbSavedByObjectVersion
1070
     0
  0
DICTIONARYVAR
  5
146
102
{ACAD_REACTORS
330
5E
102
}
330
5E
100
DictionaryVariables
280
     0
  1
1:1
  0
DICTIONARYVAR
  5
145
102
{ACAD_REACTORS
330
5E
102
}
330
5E
100
DictionaryVariables
280
     0
  1
STANDARD
  0
DICTIONARYVAR
  5
84
102
{ACAD_REACTORS
330
5E
102
}
330
5E
100
DictionaryVariables
280
     0
  1
STANDARD
  0
DICTIONARYVAR
  5
5F
102
{ACAD_REACTORS
330
5E
102
}
330
5E
100
DictionaryVariables
280
     0
  1
2
  0
DICTIONARYVAR
  5
63
102
{ACAD_REACTORS
330
5E
102
}
330
5E
100
DictionaryVariables
280
     0
  1
1
  0
DICTIONARYVAR
  5
466
102
{ACAD_REACTORS
330
5E
102
}
330
5E
100
DictionaryVariables
280
     0
  1
0
  0
DICTIONARYVAR
  5
464
102
{ACAD_REACTORS
330
5E
102
}
330
5E
100
DictionaryVariables
280
     0
  1
2
  0
DICTIONARYVAR
  5
463
102
{ACAD_REACTORS
330
5E
102
}
330
5E
100
DictionaryVariables
280
     0
  1
1
  0
DICTIONARYVAR
  5
271F
102
{ACAD_REACTORS
330
5E
102
}
330
5E
100
DictionaryVariables
280
     0
  1
80.000000
  0
DICTIONARYVAR
  5
271E
102
{ACAD_REACTORS
330
5E
102
}
330
5E
100
DictionaryVariables
280
     0
  1
5.000000
  0
DICTIONARYVAR
  5
465
102
{ACAD_REACTORS
330
5E
102
}
330
5E
100
DictionaryVariables
280
     0
  1
127
  0
DICTIONARY
  5
221A
102
{ACAD_REACTORS
330
2219
102
}
330
2219
100
AcDbDictionary
281
     1
  0
DICTIONARY
  5
222F
102
{ACAD_REACTORS
330
222E
102
}
330
222E
100
AcDbDictionary
281
     1
  0
DICTIONARY
  5
2234
102
{ACAD_REACTORS
330
2233
102
}
330
2233
100
AcDbDictionary
281
     1
  0
DICTIONARY
  5
2724
330
D3
100
AcDbDictionary
280
     1
281
     1
  3
ACAD_XREC_ROUNDTRIP
360
2725
  0
DICTIONARY
  5
2726
330
D7
100
AcDbDictionary
280
     1
281
     1
  3
ACAD_XREC_ROUNDTRIP
360
2727
  0
DICTIONARY
  5
2721
330
22
100
AcDbDictionary
280
     1
281
     1
  3
ACAD_XREC_ROUNDTRIP
360
2722
  0
DICTIONARY
  5
272A
330
ED
100
AcDbDictionary
280
     1
281
     1
  3
ACAD_XREC_ROUNDTRIP
360
272B
  0
DICTIONARY
  5
2728
330
EC
100
AcDbDictionary
280
     1
281
     1
  3
ACAD_XREC_ROUNDTRIP
360
2729
  0
DICTIONARY
  5
173
330
EE
100
AcDbDictionary
280
     1
281
     1
  3
ACAD_XREC_ROUNDTRIP
360
272C
  3
BUMPTILE
360
175
  3
DIFFUSETILE
360
174
  3
OPACITYTILE
360
176
  3
REFLECTIONTILE
360
177
  0
DICTIONARY
  5
162
330
7F
100
AcDbDictionary
280
     1
281
     1
  3
ACAD_ROUNDTRIP_2008_TABLESTYLE_CELLSTYLEMAP
360
263A
  3
ACAD_XREC_ROUNDTRIP
360
2723
  0
XRECORD
  5
2725
102
{ACAD_REACTORS
330
2724
102
}
330
2724
100
AcDbXrecord
280
     1
102
SHADEPLOT
 70
     0
102
SHADEPLOTRESLEVEL
 70
     2
102
SHADEPLOTCUSTOMDPI
 70
   300
  0
XRECORD
  5
2727
102
{ACAD_REACTORS
330
2726
102
}
330
2726
100
AcDbXrecord
280
     1
102
SHADEPLOT
 70
     0
102
SHADEPLOTRESLEVEL
 70
     2
102
SHADEPLOTCUSTOMDPI
 70
   300
  0
XRECORD
  5
2722
102
{ACAD_REACTORS
330
2721
102
}
330
2721
100
AcDbXrecord
280
     1
102
SHADEPLOT
 70
     0
102
SHADEPLOTRESLEVEL
 70
     2
102
SHADEPLOTCUSTOMDPI
 70
   300
  0
XRECORD
  5
272B
102
{ACAD_REACTORS
330
272A
102
}
330
272A
100
AcDbXrecord
280
     1
102
MATERIAL
148
0.0
149
0.0
149
0.0
 93
        0
 94
       63
282
     0
 72
     1
 77
     1
171
     1
175
     1
179
     1
273
     0
  0
XRECORD
  5
2729
102
{ACAD_REACTORS
330
2728
102
}
330
2728
100
AcDbXrecord
280
     1
102
MATERIAL
148
0.0
149
0.0
149
0.0
 93
        0
 94
       63
282
     0
 72
     1
 77
     1
171
     1
175
     1
179
     1
273
     0
  0
XRECORD
  5
272C
102
{ACAD_REACTORS
330
173
102
}
330
173
100
AcDbXrecord
280
     1
102
MATERIAL
148
0.0
149
0.0
149
0.0
 93
        0
 94
       63
282
     0
 72
     1
 77
     1
171
     1
175
     1
179
     1
273
     0
  0
XRECORD
  5
175
102
{ACAD_REACTORS
330
173
102
}
330
173
100
AcDbXrecord
280
     1
270
     1
271
     1
  0
XRECORD
  5
174
102
{ACAD_REACTORS
330
173
102
}
330
173
100
AcDbXrecord
280
     1
270
     1
271
     1
  0
XRECORD
  5
176
102
{ACAD_REACTORS
330
173
102
}
330
173
100
AcDbXrecord
280
     1
270
     1
271
     1
  0
XRECORD
  5
177
102
{ACAD_REACTORS
330
173
102
}
330
173
100
AcDbXrecord
280
     1
270
     1
271
     1
  0
ACAD_PROXY_OBJECT
  5
263A
102
{ACAD_REACTORS
330
162
102
}
330
162
100
AcDbProxyObject
 90
      499
 91
      509
 95
       23
 70
     0
 93
     5304
310
40D054060020000020000003200101A000080002A5058000000C10000000000000006101010000000000003E0FC000000000000F83F0000000000003E0FC000000000000F83F02B5E8DC0F42B1CFC0AD7A3703D0AC73F419019018000000C1003FBFFFFFE0000000000003C8FD029018000000C1003FBFFFFFE00000000000
310
03C8FD049018000000C1003FBFFFFFE0000000000003C8FD089018000000C1003FBFFFFFE0000000000003C8FD109018000000C1003FBFFFFFE0000000000003C8FD209018000000C1003FBFFFFFE0000000000003C8FD01405075F5449544C450041501A8000000C800406800020000A94160000003040000000000000012
310
40404000000000000F83F0000000000003E0FC000000000000F83F0000000000003E0FC0AD7A3703D0AC73F02B5E8DC0F42B1CFD0640640600000030400FEFFFFFF8000000000000F23F40A40600000030400FEFFFFFF8000000000000F23F41240600000030400FEFFFFFF8000000000000F23F42240600000030400FEFFF
310
FFF8000000000000F23F44240600000030400FEFFFFFF8000000000000F23F48240600000030400FEFFFFFF8000000000000F23F409014217D2115051115480105406A0000003200101A000080002A5028000000C10000000000000004901010000000000003E0FC000000000000F83F0000000000003E0FC000000000000F
310
83F02B5E8DC0F42B1CFC0AD7A3703D0AC73F419019018000000C1003FBFFFFFE0000000000003C8FD029018000000C1003FBFFFFFE0000000000003C8FD049018000000C1003FBFFFFFE0000000000003C8FD089018000000C1003FBFFFFFE0000000000003C8FD109018000000C1003FBFFFFFE0000000000003C8FD20901
310
8000000C1003FBFFFFFE0000000000003C8FD03409065F444154410000
340
11
340
14
340
14
340
14
340
14
340
14
340
14
340
11
340
14
340
14
340
14
340
14
340
14
340
14
340
11
340
14
340
14
340
14
340
14
340
14
340
14
 94
        0
1001
ACAD
1000
AcRTDxfName
1000
CELLSTYLEMAP
1000
AcRTDxfName
1000
CELLSTYLEMAP
  0
XRECORD
  5
2723
102
{ACAD_REACTORS
330
162
102
}
330
162
100
AcDbXrecord
280
     1
102
ACAD_ROUNDTRIP_PRE2007_TABLESTYLE
 90
      512
 91
        0
  1

 92
      512
 93
        0
  2

 94
      512
 95
        0
  3

  0
ENDSEC
  0
EOF
