  0
SECTION
  2
HEADER
  9
$ACADVER
  1
AC1015
  9
$ACADMAINTVER
 70
    20
  9
$DWGCODEPAGE
  3
ANSI_1250
  9
$INSBASE
 10
0.0
 20
0.0
 30
0.0
  9
$EXTMIN
 10
2.770381446691771
 20
-0.004528679247187
 30
-0.0000000000112498
  9
$EXTMAX
 10
337.1323566539519
 20
297.0045328285427
 30
0.0000000000002956
  9
$LIMMIN
 10
2.775479668714069
 20
0.0
  9
$LIMMAX
 10
337.127253760804
 20
297.0
  9
$ORTHOMODE
 70
     0
  9
$REGENMODE
 70
     1
  9
$FILLMODE
 70
     1
  9
$QTEXTMODE
 70
     0
  9
$MIRRTEXT
 70
     0
  9
$LTSCALE
 40
1.0
  9
$ATTMODE
 70
     2
  9
$TEXTSIZE
 40
5.0
  9
$TRACEWID
 40
1.0
  9
$TEXTSTYLE
  7
Solbet_5
  9
$CLAYER
  8
SOLBET_Bloczki
  9
$CELTYPE
  6
ByLayer
  9
$CECOLOR
 62
   256
  9
$CELTSCALE
 40
1.0
  9
$DISPSILH
 70
     0
  9
$DIMSCALE
 40
1.0
  9
$DIMASZ
 40
2.5
  9
$DIMEXO
 40
0.0
  9
$DIMDLI
 40
3.75
  9
$DIMRND
 40
0.0
  9
$DIMDLE
 40
0.0
  9
$DIMEXE
 40
1.25
  9
$DIMTP
 40
0.0
  9
$DIMTM
 40
0.0
  9
$DIMTXT
 40
2.5
  9
$DIMCEN
 40
2.5
  9
$DIMTSZ
 40
0.0
  9
$DIMTOL
 70
     0
  9
$DIMLIM
 70
     0
  9
$DIMTIH
 70
     0
  9
$DIMTOH
 70
     0
  9
$DIMSE1
 70
     0
  9
$DIMSE2
 70
     0
  9
$DIMTAD
 70
     1
  9
$DIMZIN
 70
     8
  9
$DIMBLK
  1

  9
$DIMASO
 70
     1
  9
$DIMSHO
 70
     1
  9
$DIMPOST
  1

  9
$DIMAPOST
  1

  9
$DIMALT
 70
     0
  9
$DIMALTD
 70
     3
  9
$DIMALTF
 40
0.03937007874016
  9
$DIMLFAC
 40
1.0
  9
$DIMTOFL
 70
     1
  9
$DIMTVP
 40
0.0
  9
$DIMTIX
 70
     0
  9
$DIMSOXD
 70
     0
  9
$DIMSAH
 70
     0
  9
$DIMBLK1
  1

  9
$DIMBLK2
  1

  9
$DIMSTYLE
  2
Solbet
  9
$DIMCLRD
 70
     0
  9
$DIMCLRE
 70
     0
  9
$DIMCLRT
 70
     0
  9
$DIMTFAC
 40
1.0
  9
$DIMGAP
 40
0.625
  9
$DIMJUST
 70
     0
  9
$DIMSD1
 70
     0
  9
$DIMSD2
 70
     0
  9
$DIMTOLJ
 70
     0
  9
$DIMTZIN
 70
     8
  9
$DIMALTZ
 70
     0
  9
$DIMALTTZ
 70
     0
  9
$DIMUPT
 70
     0
  9
$DIMDEC
 70
     2
  9
$DIMTDEC
 70
     2
  9
$DIMALTU
 70
     2
  9
$DIMALTTD
 70
     3
  9
$DIMTXSTY
  7
Solbet_2_5
  9
$DIMAUNIT
 70
     0
  9
$DIMADEC
 70
     0
  9
$DIMALTRND
 40
0.0
  9
$DIMAZIN
 70
     0
  9
$DIMDSEP
 70
    44
  9
$DIMATFIT
 70
     3
  9
$DIMFRAC
 70
     0
  9
$DIMLDRBLK
  1

  9
$DIMLUNIT
 70
     2
  9
$DIMLWD
 70
    -2
  9
$DIMLWE
 70
    -2
  9
$DIMTMOVE
 70
     0
  9
$LUNITS
 70
     2
  9
$LUPREC
 70
     4
  9
$SKETCHINC
 40
1.0
  9
$FILLETRAD
 40
0.0
  9
$AUNITS
 70
     0
  9
$AUPREC
 70
     0
  9
$MENU
  1
.
  9
$ELEVATION
 40
0.0
  9
$PELEVATION
 40
0.0
  9
$THICKNESS
 40
0.0
  9
$LIMCHECK
 70
     0
  9
$CHAMFERA
 40
0.0
  9
$CHAMFERB
 40
0.0
  9
$CHAMFERC
 40
0.0
  9
$CHAMFERD
 40
0.0
  9
$SKPOLY
 70
     0
  9
$TDCREATE
 40
2454690.075573148
  9
$TDUCREATE
 40
2454690.033906482
  9
$TDUPDATE
 40
2454848.877657790
  9
$TDUUPDATE
 40
2454848.835991123
  9
$TDINDWG
 40
0.5334132870
  9
$TDUSRTIMER
 40
0.5334087616
  9
$USRTIMER
 70
     1
  9
$ANGBASE
 50
0.0
  9
$ANGDIR
 70
     0
  9
$PDMODE
 70
     0
  9
$PDSIZE
 40
0.0
  9
$PLINEWID
 40
0.0
  9
$SPLFRAME
 70
     0
  9
$SPLINETYPE
 70
     6
  9
$SPLINESEGS
 70
     8
  9
$HANDSEED
  5
27EA
  9
$SURFTAB1
 70
     6
  9
$SURFTAB2
 70
     6
  9
$SURFTYPE
 70
     6
  9
$SURFU
 70
     6
  9
$SURFV
 70
     6
  9
$UCSBASE
  2

  9
$UCSNAME
  2

  9
$UCSORG
 10
0.0
 20
0.0
 30
0.0
  9
$UCSXDIR
 10
1.0
 20
0.0
 30
0.0
  9
$UCSYDIR
 10
0.0
 20
1.0
 30
0.0
  9
$UCSORTHOREF
  2

  9
$UCSORTHOVIEW
 70
     0
  9
$UCSORGTOP
 10
0.0
 20
0.0
 30
0.0
  9
$UCSORGBOTTOM
 10
0.0
 20
0.0
 30
0.0
  9
$UCSORGLEFT
 10
0.0
 20
0.0
 30
0.0
  9
$UCSORGRIGHT
 10
0.0
 20
0.0
 30
0.0
  9
$UCSORGFRONT
 10
0.0
 20
0.0
 30
0.0
  9
$UCSORGBACK
 10
0.0
 20
0.0
 30
0.0
  9
$PUCSBASE
  2

  9
$PUCSNAME
  2

  9
$PUCSORG
 10
0.0
 20
0.0
 30
0.0
  9
$PUCSXDIR
 10
1.0
 20
0.0
 30
0.0
  9
$PUCSYDIR
 10
0.0
 20
1.0
 30
0.0
  9
$PUCSORTHOREF
  2

  9
$PUCSORTHOVIEW
 70
     0
  9
$PUCSORGTOP
 10
0.0
 20
0.0
 30
0.0
  9
$PUCSORGBOTTOM
 10
0.0
 20
0.0
 30
0.0
  9
$PUCSORGLEFT
 10
0.0
 20
0.0
 30
0.0
  9
$PUCSORGRIGHT
 10
0.0
 20
0.0
 30
0.0
  9
$PUCSORGFRONT
 10
0.0
 20
0.0
 30
0.0
  9
$PUCSORGBACK
 10
0.0
 20
0.0
 30
0.0
  9
$USERI1
 70
     0
  9
$USERI2
 70
     0
  9
$USERI3
 70
     0
  9
$USERI4
 70
     0
  9
$USERI5
 70
     0
  9
$USERR1
 40
0.0
  9
$USERR2
 40
0.0
  9
$USERR3
 40
0.0
  9
$USERR4
 40
0.0
  9
$USERR5
 40
0.0
  9
$WORLDVIEW
 70
     1
  9
$SHADEDGE
 70
     3
  9
$SHADEDIF
 70
    70
  9
$TILEMODE
 70
     1
  9
$MAXACTVP
 70
    64
  9
$PINSBASE
 10
0.0
 20
0.0
 30
0.0
  9
$PLIMCHECK
 70
     0
  9
$PEXTMIN
 10
0.0
 20
0.0
 30
0.0
  9
$PEXTMAX
 10
0.0
 20
0.0
 30
0.0
  9
$PLIMMIN
 10
0.0
 20
0.0
  9
$PLIMMAX
 10
12.0
 20
9.0
  9
$UNITMODE
 70
     0
  9
$VISRETAIN
 70
     1
  9
$PLINEGEN
 70
     0
  9
$PSLTSCALE
 70
     1
  9
$TREEDEPTH
 70
  3020
  9
$CMLSTYLE
  2
SOLBET_IZOLACJA
  9
$CMLJUST
 70
     0
  9
$CMLSCALE
 40
20.0
  9
$PROXYGRAPHICS
 70
     1
  9
$MEASUREMENT
 70
     1
  9
$CELWEIGHT
370
    -1
  9
$ENDCAPS
280
     0
  9
$JOINSTYLE
280
     0
  9
$LWDISPLAY
290
     1
  9
$INSUNITS
 70
     4
  9
$HYPERLINKBASE
  1

  9
$STYLESHEET
  1

  9
$XEDIT
290
     1
  9
$CEPSNTYPE
380
     0
  9
$PSTYLEMODE
290
     1
  9
$FINGERPRINTGUID
  2
{6B12AB33-8E39-428E-8E85-461C8D99A3CB}
  9
$VERSIONGUID
  2
{D7FB15CF-A292-4548-B86B-69B233933E1B}
  9
$EXTNAMES
290
     1
  9
$PSVPSCALE
 40
0.0
  9
$OLESTARTUP
290
     0
  0
ENDSEC
  0
SECTION
  2
CLASSES
  0
CLASS
  1
ACDBDICTIONARYWDFLT
  2
AcDbDictionaryWithDefault
  3
ObjectDBX Classes
 90
        0
280
     0
281
     0
  0
CLASS
  1
ACDBPLACEHOLDER
  2
AcDbPlaceHolder
  3
ObjectDBX Classes
 90
        0
280
     0
281
     0
  0
CLASS
  1
LAYOUT
  2
AcDbLayout
  3
ObjectDBX Classes
 90
        0
280
     0
281
     0
  0
CLASS
  1
DICTIONARYVAR
  2
AcDbDictionaryVar
  3
ObjectDBX Classes
 90
        0
280
     0
281
     0
  0
CLASS
  1
TABLESTYLE
  2
AcDbTableStyle
  3
ObjectDBX Classes
 90
     4095
280
     0
281
     0
  0
CLASS
  1
MATERIAL
  2
AcDbMaterial
  3
ObjectDBX Classes
 90
     1024
280
     0
281
     0
  0
CLASS
  1
VISUALSTYLE
  2
AcDbVisualStyle
  3
ObjectDBX Classes
 90
     4095
280
     0
281
     0
  0
CLASS
  1
SCALE
  2
AcDbScale
  3
ObjectDBX Classes
 90
     1153
280
     0
281
     0
  0
CLASS
  1
MLEADERSTYLE
  2
AcDbMLeaderStyle
  3
ACDB_MLEADERSTYLE_CLASS
 90
     4095
280
     0
281
     0
  0
CLASS
  1
CELLSTYLEMAP
  2
AcDbCellStyleMap
  3
ObjectDBX Classes
 90
     1152
280
     0
281
     0
  0
CLASS
  1
DIMASSOC
  2
AcDbDimAssoc
  3
"AcDbDimAssoc|Product Desc:     AcDim ARX App For Dimension|Company:          Autodesk, Inc.|WEB Address:      www.autodesk.com"
 90
    32768
280
     0
281
     0
  0
CLASS
  1
SORTENTSTABLE
  2
AcDbSortentsTable
  3
ObjectDBX Classes
 90
        0
280
     0
281
     0
  0
CLASS
  1
MULTILEADER
  2
AcDbMLeader
  3
ACDB_MLEADER_CLASS
 90
    33793
280
     0
281
     1
  0
CLASS
  1
ACDB_MTEXTOBJECTCONTEXTDATA_CLASS
  2
AcDbMTextObjectContextData
  3
ObjectDBX Classes
 90
    33921
280
     0
281
     0
  0
ENDSEC
  0
SECTION
  2
TABLES
  0
TABLE
  2
VPORT
  5
8
102
{ACAD_XDICTIONARY
360
443
102
}
330
0
100
AcDbSymbolTable
 70
     1
  0
VPORT
  5
EA
330
8
100
AcDbSymbolTableRecord
100
AcDbViewportTableRecord
  2
*Active
 70
     0
 10
0.0
 20
0.0
 11
1.0
 21
1.0
 12
169.9513690503218
 22
148.5000020746477
 13
0.0
 23
0.0
 14
10.0
 24
10.0
 15
10.0
 25
10.0
 16
0.0
 26
0.0
 36
1.0
 17
0.0
 27
0.0
 37
0.0
 40
300.3091621912098
 41
1.74582560296846
 42
50.0
 43
0.0
 44
0.0
 50
0.0
 51
0.0
 71
     0
 72
  1000
 73
     1
 74
     3
 75
     0
 76
     0
 77
     0
 78
     0
281
     0
 65
     1
110
0.0
120
0.0
130
0.0
111
1.0
121
0.0
131
0.0
112
0.0
122
1.0
132
0.0
 79
     0
146
0.0
  0
ENDTAB
  0
TABLE
  2
LTYPE
  5
5
330
0
100
AcDbSymbolTable
 70
     2
  0
LTYPE
  5
14
330
5
100
AcDbSymbolTableRecord
100
AcDbLinetypeTableRecord
  2
ByBlock
 70
     0
  3

 72
    65
 73
     0
 40
0.0
  0
LTYPE
  5
15
330
5
100
AcDbSymbolTableRecord
100
AcDbLinetypeTableRecord
  2
ByLayer
 70
     0
  3

 72
    65
 73
     0
 40
0.0
  0
LTYPE
  5
16
330
5
100
AcDbSymbolTableRecord
100
AcDbLinetypeTableRecord
  2
Continuous
 70
     0
  3
Solid line
 72
    65
 73
     0
 40
0.0
  0
LTYPE
  5
982
330
5
100
AcDbSymbolTableRecord
100
AcDbLinetypeTableRecord
  2
BATTING
 70
     0
  3
Batting SSSSSSSSSSSSSSSSSSSSSSSSSSSSSSSSSSSSSSSSSSSSSSS
 72
    65
 73
     4
 40
10.16254
 49
0.00254
 74
     0
 49
-2.54
 74
     4
 75
   134
340
7E7
 46
2.54
 50
0.0
 44
-2.54
 45
0.0
 49
-5.08
 74
     4
 75
   134
340
7E7
 46
2.54
 50
180.0
 44
2.54
 45
0.0
 49
-2.54
 74
     0
  0
ENDTAB
  0
TABLE
  2
LAYER
  5
2
102
{ACAD_XDICTIONARY
360
3E5
102
}
330
0
100
AcDbSymbolTable
 70
    12
  0
LAYER
  5
10
102
{ACAD_XDICTIONARY
360
13C
102
}
330
2
100
AcDbSymbolTableRecord
100
AcDbLayerTableRecord
  2
0
 70
     0
 62
     7
  6
Continuous
370
    -3
390
F
  0
LAYER
  5
2BB
330
2
100
AcDbSymbolTableRecord
100
AcDbLayerTableRecord
  2
DEFPOINTS
 70
     0
 62
     7
  6
Continuous
290
     0
370
    -3
390
F
  0
LAYER
  5
3DD
102
{ACAD_XDICTIONARY
360
403
102
}
330
2
100
AcDbSymbolTableRecord
100
AcDbLayerTableRecord
  2
SOLBET_Bloczki
 70
     0
 62
   140
  6
Continuous
370
    -3
390
F
1001
AcAecLayerStandard
1000

1000

  0
LAYER
  5
3DF
102
{ACAD_XDICTIONARY
360
405
102
}
330
2
100
AcDbSymbolTableRecord
100
AcDbLayerTableRecord
  2
SOLBET_Wymiary_Opisy
 70
     0
 62
     1
  6
Continuous
370
    -3
390
F
1001
AcAecLayerStandard
1000

1000

  0
LAYER
  5
3E0
102
{ACAD_XDICTIONARY
360
407
102
}
330
2
100
AcDbSymbolTableRecord
100
AcDbLayerTableRecord
  2
SOLBET_Beton
 70
     0
 62
     9
  6
Continuous
370
    -3
390
F
1001
AcAecLayerStandard
1000

1000

  0
LAYER
  5
3E1
102
{ACAD_XDICTIONARY
360
409
102
}
330
2
100
AcDbSymbolTableRecord
100
AcDbLayerTableRecord
  2
SOLBET_Izolacja
 70
     0
 62
    40
  6
Continuous
370
    -3
390
F
1001
AcAecLayerStandard
1000

1000

  0
LAYER
  5
3E2
102
{ACAD_XDICTIONARY
360
40B
102
}
330
2
100
AcDbSymbolTableRecord
100
AcDbLayerTableRecord
  2
SOLBET_Zbrojenie_Konstrukcja
 70
     0
 62
     7
  6
Continuous
370
    -3
390
F
1001
AcAecLayerStandard
1000

1000

  0
LAYER
  5
3E4
102
{ACAD_XDICTIONARY
360
40F
102
}
330
2
100
AcDbSymbolTableRecord
100
AcDbLayerTableRecord
  2
SOLBET_Tynki_Posadzki
 70
     0
 62
     3
  6
Continuous
370
    -3
390
F
1001
AcAecLayerStandard
1000

1000

  0
LAYER
  5
3E8
102
{ACAD_XDICTIONARY
360
411
102
}
330
2
100
AcDbSymbolTableRecord
100
AcDbLayerTableRecord
  2
SOLBET_Ramka_05
 70
     0
 62
     2
  6
Continuous
370
    -3
390
F
1001
AcAecLayerStandard
1000

1000

  0
LAYER
  5
472
330
2
100
AcDbSymbolTableRecord
100
AcDbLayerTableRecord
  2
SOLBET_Zaprawy
 70
     0
 62
     4
  6
Continuous
370
    -3
390
F
1001
AcAecLayerStandard
1000

1000

  0
LAYER
  5
4E2
330
2
100
AcDbSymbolTableRecord
100
AcDbLayerTableRecord
  2
SOLBET_Emulsje_Folie
 70
     0
 62
     6
  6
Continuous
370
    -3
390
F
1001
AcAecLayerStandard
1000

1000

  0
LAYER
  5
2696
102
{ACAD_XDICTIONARY
360
2697
102
}
330
2
100
AcDbSymbolTableRecord
100
AcDbLayerTableRecord
  2
SOLBET_Wymiary_Opisy @ 1
 70
     0
 62
     1
  6
Continuous
370
    -3
390
F
1001
AcAecLayerStandard
1000

1000

1001
AcadAnnotativeDecomposition
1000
AnnotativeData
1002
{
1070
     1
1070
     1
1002
}
  0
ENDTAB
  0
TABLE
  2
STYLE
  5
3
330
0
100
AcDbSymbolTable
 70
     5
  0
STYLE
  5
11
330
3
100
AcDbSymbolTableRecord
100
AcDbTextStyleTableRecord
  2
Standard
 70
     0
 40
0.0
 41
1.0
 50
0.0
 71
     0
 42
2.5
  3
txt.shx
  4

  0
STYLE
  5
7D7
330
3
100
AcDbSymbolTableRecord
100
AcDbTextStyleTableRecord
  2
Solbet_5
 70
     0
 40
5.0
 41
1.0
 50
0.0
 71
     0
 42
5.0
  3
isocpeur.ttf
  4

1001
ACAD
1000
ISOCPEUR
1071
       34
  0
STYLE
  5
7D9
330
3
100
AcDbSymbolTableRecord
100
AcDbTextStyleTableRecord
  2
Solbet_2_5
 70
     0
 40
2.5
 41
1.0
 50
0.0
 71
     0
 42
2.5
  3
isocpeur.ttf
  4

1001
ACAD
1000
ISOCPEUR
1071
       34
  0
STYLE
  5
7E7
330
3
100
AcDbSymbolTableRecord
100
AcDbTextStyleTableRecord
  2

 70
     1
 40
0.0
 41
1.0
 50
0.0
 71
     0
 42
2.5
  3
ltypeshp.shx
  4

  0
STYLE
  5
224D
330
3
100
AcDbSymbolTableRecord
100
AcDbTextStyleTableRecord
  2
Solbet_1
 70
     0
 40
1.0
 41
1.0
 50
0.0
 71
     0
 42
2.5
  3
isocpeur.ttf
  4

1001
ACAD
1000
ISOCPEUR
1071
       34
  0
ENDTAB
  0
TABLE
  2
VIEW
  5
6
330
0
100
AcDbSymbolTable
 70
     0
  0
ENDTAB
  0
TABLE
  2
UCS
  5
7
330
0
100
AcDbSymbolTable
 70
     0
  0
ENDTAB
  0
TABLE
  2
APPID
  5
9
330
0
100
AcDbSymbolTable
 70
    13
  0
APPID
  5
12
330
9
100
AcDbSymbolTableRecord
100
AcDbRegAppTableRecord
  2
ACAD
 70
     0
  0
APPID
  5
9E
330
9
100
AcDbSymbolTableRecord
100
AcDbRegAppTableRecord
  2
ACAD_PSEXT
 70
     0
  0
APPID
  5
133
330
9
100
AcDbSymbolTableRecord
100
AcDbRegAppTableRecord
  2
AcadAnnoPO
 70
     0
  0
APPID
  5
134
330
9
100
AcDbSymbolTableRecord
100
AcDbRegAppTableRecord
  2
AcadAnnotative
 70
     0
  0
APPID
  5
135
330
9
100
AcDbSymbolTableRecord
100
AcDbRegAppTableRecord
  2
ACAD_DSTYLE_DIMJAG
 70
     0
  0
APPID
  5
136
330
9
100
AcDbSymbolTableRecord
100
AcDbRegAppTableRecord
  2
ACAD_DSTYLE_DIMTALN
 70
     0
  0
APPID
  5
165
330
9
100
AcDbSymbolTableRecord
100
AcDbRegAppTableRecord
  2
ACAD_MLEADERVER
 70
     0
  0
APPID
  5
2C4
330
9
100
AcDbSymbolTableRecord
100
AcDbRegAppTableRecord
  2
ASO_SCHRAFF
 70
     0
  0
APPID
  5
3DE
330
9
100
AcDbSymbolTableRecord
100
AcDbRegAppTableRecord
  2
AcAecLayerStandard
 70
     0
  0
APPID
  5
7DE
330
9
100
AcDbSymbolTableRecord
100
AcDbRegAppTableRecord
  2
ACAD_EXEMPT_FROM_CAD_STANDARDS
 70
     0
  0
APPID
  5
948
330
9
100
AcDbSymbolTableRecord
100
AcDbRegAppTableRecord
  2
ACAD_DSTYLE_DIMBREAK
 70
     0
  0
APPID
  5
1D0A
330
9
100
AcDbSymbolTableRecord
100
AcDbRegAppTableRecord
  2
AcadAnnotativeDecomposition
 70
     0
  0
APPID
  5
224E
330
9
100
AcDbSymbolTableRecord
100
AcDbRegAppTableRecord
  2
AcDbAttr
 70
     0
  0
ENDTAB
  0
TABLE
  2
DIMSTYLE
  5
A
330
0
100
AcDbSymbolTable
 70
     2
100
AcDbDimStyleTable
 71
     1
340
949
  0
DIMSTYLE
105
949
330
A
100
AcDbSymbolTableRecord
100
AcDbDimStyleTableRecord
  2
Solbet
 70
     0
 41
2.5
 42
0.0
 43
3.75
 44
1.25
 73
     0
 74
     0
 77
     1
 78
     8
140
2.5
141
2.5
143
0.03937007874016
147
0.625
171
     3
172
     1
271
     2
272
     2
274
     3
278
    44
283
     0
284
     8
340
7D9
1001
ACAD_DSTYLE_DIMBREAK
1070
   391
1040
3.75
1001
ACAD_DSTYLE_DIMJAG
1070
   388
1040
1.5
1001
ACAD_DSTYLE_DIMTALN
1070
   392
1070
     0
  0
DIMSTYLE
105
954
330
A
100
AcDbSymbolTableRecord
100
AcDbDimStyleTableRecord
  2
Solbet$7
 70
     0
 41
2.5
 42
0.0
 43
3.75
 44
1.25
 73
     0
 74
     0
 77
     1
 78
     8
140
2.5
141
2.5
143
0.03937007874016
147
0.625
171
     3
172
     1
271
     2
272
     2
274
     3
278
    44
283
     0
284
     8
340
7D9
341
958
1001
ACAD_DSTYLE_DIMBREAK
1070
   391
1040
3.75
1001
ACAD_DSTYLE_DIMJAG
1070
   388
1040
1.5
1001
ACAD_DSTYLE_DIMTALN
1070
   392
1070
     0
  0
ENDTAB
  0
TABLE
  2
BLOCK_RECORD
  5
1
330
0
100
AcDbSymbolTable
 70
    10
  0
BLOCK_RECORD
  5
1F
102
{ACAD_XDICTIONARY
360
4A3
102
}
330
1
100
AcDbSymbolTableRecord
100
AcDbBlockTableRecord
  2
*Model_Space
340
22
  0
BLOCK_RECORD
  5
D2
330
1
100
AcDbSymbolTableRecord
100
AcDbBlockTableRecord
  2
*Paper_Space
340
D3
  0
BLOCK_RECORD
  5
D6
330
1
100
AcDbSymbolTableRecord
100
AcDbBlockTableRecord
  2
*Paper_Space0
340
D7
  0
BLOCK_RECORD
  5
958
330
1
100
AcDbSymbolTableRecord
100
AcDbBlockTableRecord
  2
_DotSmall
340
0
102
{BLKREFS
331
2316
331
2324
331
23C6
331
23C9
331
25EC
102
}
  0
BLOCK_RECORD
  5
1EF2
330
1
100
AcDbSymbolTableRecord
100
AcDbBlockTableRecord
  2
_None
340
0
  0
BLOCK_RECORD
  5
224F
102
{ACAD_XDICTIONARY
360
225B
102
}
330
1
100
AcDbSymbolTableRecord
100
AcDbBlockTableRecord
  2
SOLBET_Bloczek_Optimal_420x240x590_P+W_PRA
340
0
1001
ACAD
1000
DesignCenter Data
1002
{
1070
     1
1070
     4
1002
}
  0
BLOCK_RECORD
  5
2285
102
{ACAD_XDICTIONARY
360
228F
102
}
330
1
100
AcDbSymbolTableRecord
100
AcDbBlockTableRecord
  2
SOLBET_Plytka_80x240x590_brak_PRA
340
0
1001
ACAD
1000
DesignCenter Data
1002
{
1070
     1
1070
     4
1002
}
  0
BLOCK_RECORD
  5
2524
102
{ACAD_XDICTIONARY
360
2530
102
}
330
1
100
AcDbSymbolTableRecord
100
AcDbBlockTableRecord
  2
SOLBET_Bloczek_Ideal_420x240x590_P+W_PRZ
340
0
1001
ACAD
1000
DesignCenter Data
1002
{
1070
     1
1070
     4
1002
}
  0
BLOCK_RECORD
  5
2534
102
{ACAD_XDICTIONARY
360
2540
102
}
330
1
100
AcDbSymbolTableRecord
100
AcDbBlockTableRecord
  2
SOLBET_Bloczek_Ideal_420x240x590_P+W_PRA
340
0
1001
ACAD
1000
DesignCenter Data
1002
{
1070
     1
1070
     4
1002
}
  0
BLOCK_RECORD
  5
26D9
102
{ACAD_XDICTIONARY
360
26E3
102
}
330
1
100
AcDbSymbolTableRecord
100
AcDbBlockTableRecord
  2
SOLBET_Plytka_80x240x590_KG600_PRA
340
0
102
{BLKREFS
331
26E7
331
26E8
102
}
1001
ACAD
1000
DesignCenter Data
1002
{
1070
     1
1070
     4
1002
}
  0
BLOCK_RECORD
  5
2730
102
{ACAD_XDICTIONARY
360
273C
102
}
330
1
100
AcDbSymbolTableRecord
100
AcDbBlockTableRecord
  2
SOLBET_Bloczek_Ideal_420x240x590_P+W_KG400_PRA
340
0
102
{BLKREFS
331
2740
331
2741
331
2742
331
2743
102
}
1001
ACAD
1000
DesignCenter Data
1002
{
1070
     1
1070
     4
1002
}
  0
ENDTAB
  0
ENDSEC
  0
SECTION
  2
BLOCKS
  0
BLOCK
  5
20
330
1F
100
AcDbEntity
  8
0
100
AcDbBlockBegin
  2
*Model_Space
 70
     0
 10
0.0
 20
0.0
 30
0.0
  3
*Model_Space
  1

  0
ENDBLK
  5
21
330
1F
100
AcDbEntity
  8
0
100
AcDbBlockEnd
  0
BLOCK
  5
D4
330
D2
100
AcDbEntity
 67
     1
  8
0
100
AcDbBlockBegin
  2
*Paper_Space
 70
     0
 10
0.0
 20
0.0
 30
0.0
  3
*Paper_Space
  1

  0
ENDBLK
  5
D5
330
D2
100
AcDbEntity
 67
     1
  8
0
100
AcDbBlockEnd
  0
BLOCK
  5
D8
330
D6
100
AcDbEntity
 67
     1
  8
0
100
AcDbBlockBegin
  2
*Paper_Space0
 70
     0
 10
0.0
 20
0.0
 30
0.0
  3
*Paper_Space0
  1

  0
ENDBLK
  5
D9
330
D6
100
AcDbEntity
 67
     1
  8
0
100
AcDbBlockEnd
  0
BLOCK
  5
95A
330
958
100
AcDbEntity
  8
0
100
AcDbBlockBegin
  2
_DotSmall
 70
     0
 10
0.0
 20
0.0
 30
0.0
  3
_DotSmall
  1

  0
LWPOLYLINE
  5
959
330
958
100
AcDbEntity
  8
0
  6
ByBlock
 62
     0
100
AcDbPolyline
 90
        2
 70
     1
 43
0.5
 10
-0.0625
 20
0.0
 42
1.0
 10
0.0625
 20
0.0
 42
1.0
  0
ENDBLK
  5
95B
330
958
100
AcDbEntity
  8
0
100
AcDbBlockEnd
  0
BLOCK
  5
1EF3
330
1EF2
100
AcDbEntity
  8
0
100
AcDbBlockBegin
  2
_None
 70
     0
 10
0.0
 20
0.0
 30
0.0
  3
_None
  1

  0
ENDBLK
  5
1EF4
330
1EF2
100
AcDbEntity
  8
0
100
AcDbBlockEnd
  0
BLOCK
  5
225D
330
224F
100
AcDbEntity
  8
0
100
AcDbBlockBegin
  2
SOLBET_Bloczek_Optimal_420x240x590_P+W_PRA
 70
     2
 10
0.0
 20
0.0
 30
0.0
  3
SOLBET_Bloczek_Optimal_420x240x590_P+W_PRA
  1

  0
ATTDEF
  5
2250
330
224F
100
AcDbEntity
  8
SOLBET_Wymiary_Opisy
100
AcDbText
 10
-0.0000000703746536
 20
6.303237281370451
 30
0.0
 40
0.9913121336814832
  1
420x240x590
  7
Solbet_1
100
AcDbAttributeDefinition
  3

  2
WYMIARY
 70
     3
1001
AcDbAttr
1070
     0
1070
     1
  0
ATTDEF
  5
2251
330
224F
100
AcDbEntity
  8
SOLBET_Wymiary_Opisy
100
AcDbText
 10
-0.0000000703746536
 20
4.790717873654354
 30
0.0
 40
0.9913121336814832
  1
400
  7
Solbet_1
100
AcDbAttributeDefinition
  3

  2
KLASA_GĘSTOŚCI
 70
     9
1001
AcDbAttr
1070
     0
1070
     1
  0
ATTDEF
  5
2252
330
224F
100
AcDbEntity
  8
SOLBET_Wymiary_Opisy
100
AcDbText
 10
-0.0000000703746536
 20
3.269569038442127
 30
0.0
 40
0.9913121336814832
  1
Pióra+Wpusty
  7
Solbet_1
100
AcDbAttributeDefinition
  3

  2
PROFILOWANIE
 70
     3
1001
AcDbAttr
1070
     0
1070
     1
  0
ATTDEF
  5
2253
330
224F
100
AcDbEntity
  8
SOLBET_Wymiary_Opisy
100
AcDbText
 10
-0.0000000703746536
 20
0.2448646291013483
 30
0.0
 40
0.9913121336814832
  1
SOLBET
  7
Solbet_1
100
AcDbAttributeDefinition
  3

  2
FIRMA
 70
     3
1001
AcDbAttr
1070
     0
1070
     1
  0
ATTDEF
  5
2254
330
224F
100
AcDbEntity
  8
SOLBET_Wymiary_Opisy
100
AcDbText
 10
-0.0000000703746536
 20
9.333547279718283
 30
0.0
 40
0.9913121336814832
  1
Bloczek
  7
Solbet_1
100
AcDbAttributeDefinition
  3
Nazwa
  2
NAZWA
 70
     3
1001
AcDbAttr
1070
     0
1070
     1
  0
ATTDEF
  5
2255
330
224F
100
AcDbEntity
  8
SOLBET_Wymiary_Opisy
100
AcDbText
 10
-0.0000000703746536
 20
7.794499099484078
 30
0.0
 40
0.9913121336814832
  1
OPTIMAL
  7
Solbet_1
100
AcDbAttributeDefinition
  3

  2
SYSTEM
 70
     3
1001
AcDbAttr
1070
     0
1070
     1
  0
ATTDEF
  5
2256
330
224F
100
AcDbEntity
  8
SOLBET_Wymiary_Opisy
100
AcDbText
 10
-0.0000000703746536
 20
1.74418138862846
 30
0.0
 40
0.9913121336814832
  1
Prawo
  7
Solbet_1
100
AcDbAttributeDefinition
  3

  2
WIDOK
 70
    11
1001
AcDbAttr
1070
     0
1070
     1
  0
LINE
  5
2257
330
224F
100
AcDbEntity
  8
SOLBET_Bloczki
100
AcDbLine
 10
21.00000014074931
 20
12.00000020414847
 30
0.0
 11
21.00000014074931
 21
0.000000204148364
 31
0.0
  0
LINE
  5
2258
330
224F
100
AcDbEntity
  8
SOLBET_Bloczki
100
AcDbLine
 10
21.00000014074931
 20
12.00000020414847
 30
0.0
 11
0.0000001407493072
 21
12.00000020414847
 31
0.0
  0
LINE
  5
2259
330
224F
100
AcDbEntity
  8
SOLBET_Bloczki
100
AcDbLine
 10
0.0000001407493072
 20
12.00000020414847
 30
0.0
 11
0.0000001407493072
 21
0.000000204148364
 31
0.0
  0
LINE
  5
225A
330
224F
100
AcDbEntity
  8
SOLBET_Bloczki
100
AcDbLine
 10
0.0000001407493072
 20
0.000000204148364
 30
0.0
 11
21.00000014074931
 21
0.000000204148364
 31
0.0
  0
ENDBLK
  5
225E
330
224F
100
AcDbEntity
  8
0
100
AcDbBlockEnd
  0
BLOCK
  5
2291
330
2285
100
AcDbEntity
  8
0
100
AcDbBlockBegin
  2
SOLBET_Plytka_80x240x590_brak_PRA
 70
     2
 10
0.0
 20
0.0
 30
0.0
  3
SOLBET_Plytka_80x240x590_brak_PRA
  1

  0
ATTDEF
  5
2286
330
2285
100
AcDbEntity
  8
SOLBET_Wymiary_Opisy
100
AcDbText
 10
0.0000000947117284
 20
4.975188798271157
 30
0.0
 40
1.029483505648801
  1
80x240x590
  7
Solbet_1
100
AcDbAttributeDefinition
  3

  2
WYMIARY
 70
     3
1001
AcDbAttr
1070
     0
1070
     1
  0
ATTDEF
  5
2287
330
2285
100
AcDbEntity
  8
SOLBET_Wymiary_Opisy
100
AcDbText
 10
0.0000000947117284
 20
3.40442846021831
 30
0.0
 40
1.029483505648801
  1
600
  7
Solbet_1
100
AcDbAttributeDefinition
  3

  2
KLASA_GĘSTOŚCI
 70
     3
1001
AcDbAttr
1070
     0
1070
     1
  0
ATTDEF
  5
2288
330
2285
100
AcDbEntity
  8
SOLBET_Wymiary_Opisy
100
AcDbText
 10
0.0000000947117284
 20
0.2542933553923256
 30
0.0
 40
1.029483505648801
  1
SOLBET
  7
Solbet_1
100
AcDbAttributeDefinition
  3

  2
FIRMA
 70
     3
1001
AcDbAttr
1070
     0
1070
     1
  0
ATTDEF
  5
2289
330
2285
100
AcDbEntity
  8
SOLBET_Wymiary_Opisy
100
AcDbText
 10
-0.0000001564046322
 20
6.512920961642439
 30
0.0
 40
1.029483505648801
  1
Płytka
  7
Solbet_1
100
AcDbAttributeDefinition
  3
Nazwa
  2
NAZWA
 70
     3
1001
AcDbAttr
1070
     0
1070
     1
  0
ATTDEF
  5
228A
330
2285
100
AcDbEntity
  8
SOLBET_Wymiary_Opisy
100
AcDbText
 10
0.0000000947117284
 20
1.811342665324326
 30
0.0
 40
1.029483505648801
  1
Prawo
  7
Solbet_1
100
AcDbAttributeDefinition
  3

  2
WIDOK
 70
    11
1001
AcDbAttr
1070
     0
1070
     1
  0
LINE
  5
228B
330
2285
100
AcDbEntity
  8
SOLBET_Bloczki
100
AcDbLine
 10
3.999999830192336
 20
12.00000020463494
 30
0.0
 11
3.999999830192336
 21
0.0000002046349437
 31
0.0
  0
LINE
  5
228C
330
2285
100
AcDbEntity
  8
SOLBET_Bloczki
100
AcDbLine
 10
3.999999830192336
 20
0.0000002046349437
 30
0.0
 11
-0.000000169807663
 21
0.0000002046349437
 31
0.0
  0
LINE
  5
228D
330
2285
100
AcDbEntity
  8
SOLBET_Bloczki
100
AcDbLine
 10
-0.000000169807663
 20
0.0000002046349437
 30
0.0
 11
-0.000000169807663
 21
12.00000020463517
 31
0.0
  0
LINE
  5
228E
330
2285
100
AcDbEntity
  8
SOLBET_Bloczki
100
AcDbLine
 10
-0.000000169807663
 20
12.00000020463517
 30
0.0
 11
3.999999830192336
 21
12.00000020463517
 31
0.0
  0
ENDBLK
  5
2292
330
2285
100
AcDbEntity
  8
0
100
AcDbBlockEnd
  0
BLOCK
  5
2532
330
2524
100
AcDbEntity
  8
0
100
AcDbBlockBegin
  2
SOLBET_Bloczek_Ideal_420x240x590_P+W_PRZ
 70
     2
 10
0.0
 20
0.0
 30
0.0
  3
SOLBET_Bloczek_Ideal_420x240x590_P+W_PRZ
  1

  0
ATTDEF
  5
2525
330
2524
100
AcDbEntity
  8
SOLBET_Wymiary_Opisy
100
AcDbText
 10
0.0
 20
6.303237354177662
 30
0.0
 40
0.9913121336814832
  1
420x240x590
  7
Solbet_1
100
AcDbAttributeDefinition
  3

  2
WYMIARY
 70
     3
1001
AcDbAttr
1070
     0
1070
     1
  0
ATTDEF
  5
2526
330
2524
100
AcDbEntity
  8
SOLBET_Wymiary_Opisy
100
AcDbText
 10
0.0
 20
4.790717946461565
 30
0.0
 40
0.9913121336814832
  1
400
  7
Solbet_1
100
AcDbAttributeDefinition
  3

  2
KLASA_GĘSTOŚCI
 70
     9
1001
AcDbAttr
1070
     0
1070
     1
  0
ATTDEF
  5
2527
330
2524
100
AcDbEntity
  8
SOLBET_Wymiary_Opisy
100
AcDbText
 10
0.0
 20
3.269569111249338
 30
0.0
 40
0.9913121336814832
  1
Pióra+Wpusty
  7
Solbet_1
100
AcDbAttributeDefinition
  3

  2
PROFILOWANIE
 70
     3
1001
AcDbAttr
1070
     0
1070
     1
  0
ATTDEF
  5
2528
330
2524
100
AcDbEntity
  8
SOLBET_Wymiary_Opisy
100
AcDbText
 10
0.0
 20
0.2448647019085592
 30
0.0
 40
0.9913121336814832
  1
SOLBET
  7
Solbet_1
100
AcDbAttributeDefinition
  3

  2
FIRMA
 70
     3
1001
AcDbAttr
1070
     0
1070
     1
  0
ATTDEF
  5
2529
330
2524
100
AcDbEntity
  8
SOLBET_Wymiary_Opisy
100
AcDbText
 10
0.0
 20
9.333547352525494
 30
0.0
 40
0.9913121336814832
  1
Bloczek
  7
Solbet_1
100
AcDbAttributeDefinition
  3
Nazwa
  2
NAZWA
 70
     3
1001
AcDbAttr
1070
     0
1070
     1
  0
ATTDEF
  5
252A
330
2524
100
AcDbEntity
  8
SOLBET_Wymiary_Opisy
100
AcDbText
 10
0.0
 20
7.794499172291289
 30
0.0
 40
0.9913121336814832
  1
SOLBET IDEAL
  7
Solbet_1
100
AcDbAttributeDefinition
  3

  2
SYSTEM
 70
     3
1001
AcDbAttr
1070
     0
1070
     1
  0
ATTDEF
  5
252B
330
2524
100
AcDbEntity
  8
SOLBET_Wymiary_Opisy
100
AcDbText
 10
0.0
 20
1.744181461435671
 30
0.0
 40
0.9913121336814832
  1
Przód
  7
Solbet_1
100
AcDbAttributeDefinition
  3

  2
WIDOK
 70
    11
1001
AcDbAttr
1070
     0
1070
     1
  0
LINE
  5
252C
330
2524
100
AcDbEntity
  8
SOLBET_Bloczki
100
AcDbLine
 10
-0.0000000727372935
 20
0.0000000585339421
 30
0.0
 11
29.49999992726271
 21
0.0000000585339421
 31
0.0
  0
LINE
  5
252D
330
2524
100
AcDbEntity
  8
SOLBET_Bloczki
100
AcDbLine
 10
29.49999992726271
 20
0.0000000585339421
 30
0.0
 11
29.49999992726271
 21
12.00000005853394
 31
0.0
  0
LINE
  5
252E
330
2524
100
AcDbEntity
  8
SOLBET_Bloczki
100
AcDbLine
 10
29.49999992726271
 20
12.00000005853394
 30
0.0
 11
-0.0000000727372935
 21
12.00000005853394
 31
0.0
  0
LINE
  5
252F
330
2524
100
AcDbEntity
  8
SOLBET_Bloczki
100
AcDbLine
 10
-0.0000000727372935
 20
12.00000005853394
 30
0.0
 11
-0.0000000727372935
 21
0.0000000585339421
 31
0.0
  0
ENDBLK
  5
2533
330
2524
100
AcDbEntity
  8
0
100
AcDbBlockEnd
  0
BLOCK
  5
2542
330
2534
100
AcDbEntity
  8
0
100
AcDbBlockBegin
  2
SOLBET_Bloczek_Ideal_420x240x590_P+W_PRA
 70
     2
 10
0.0
 20
0.0
 30
0.0
  3
SOLBET_Bloczek_Ideal_420x240x590_P+W_PRA
  1

  0
ATTDEF
  5
2535
330
2534
100
AcDbEntity
  8
SOLBET_Wymiary_Opisy
100
AcDbText
 10
-0.0000000703746536
 20
6.303237281370451
 30
0.0
 40
0.9913121336814832
  1
420x240x590
  7
Solbet_1
100
AcDbAttributeDefinition
  3

  2
WYMIARY
 70
     3
1001
AcDbAttr
1070
     0
1070
     1
  0
ATTDEF
  5
2536
330
2534
100
AcDbEntity
  8
SOLBET_Wymiary_Opisy
100
AcDbText
 10
-0.0000000703746536
 20
4.790717873654354
 30
0.0
 40
0.9913121336814832
  1
400
  7
Solbet_1
100
AcDbAttributeDefinition
  3

  2
KLASA_GĘSTOŚCI
 70
     9
1001
AcDbAttr
1070
     0
1070
     1
  0
ATTDEF
  5
2537
330
2534
100
AcDbEntity
  8
SOLBET_Wymiary_Opisy
100
AcDbText
 10
-0.0000000703746536
 20
3.269569038442127
 30
0.0
 40
0.9913121336814832
  1
Pióra+Wpusty
  7
Solbet_1
100
AcDbAttributeDefinition
  3

  2
PROFILOWANIE
 70
     3
1001
AcDbAttr
1070
     0
1070
     1
  0
ATTDEF
  5
2538
330
2534
100
AcDbEntity
  8
SOLBET_Wymiary_Opisy
100
AcDbText
 10
-0.0000000703746536
 20
0.2448646291013483
 30
0.0
 40
0.9913121336814832
  1
SOLBET
  7
Solbet_1
100
AcDbAttributeDefinition
  3

  2
FIRMA
 70
     3
1001
AcDbAttr
1070
     0
1070
     1
  0
ATTDEF
  5
2539
330
2534
100
AcDbEntity
  8
SOLBET_Wymiary_Opisy
100
AcDbText
 10
-0.0000000703746536
 20
9.333547279718283
 30
0.0
 40
0.9913121336814832
  1
Bloczek
  7
Solbet_1
100
AcDbAttributeDefinition
  3
Nazwa
  2
NAZWA
 70
     3
1001
AcDbAttr
1070
     0
1070
     1
  0
ATTDEF
  5
253A
330
2534
100
AcDbEntity
  8
SOLBET_Wymiary_Opisy
100
AcDbText
 10
-0.0000000703746536
 20
7.794499099484078
 30
0.0
 40
0.9913121336814832
  1
SOLBET IDEAL
  7
Solbet_1
100
AcDbAttributeDefinition
  3

  2
SYSTEM
 70
     3
1001
AcDbAttr
1070
     0
1070
     1
  0
ATTDEF
  5
253B
330
2534
100
AcDbEntity
  8
SOLBET_Wymiary_Opisy
100
AcDbText
 10
-0.0000000703746536
 20
1.74418138862846
 30
0.0
 40
0.9913121336814832
  1
Prawo
  7
Solbet_1
100
AcDbAttributeDefinition
  3

  2
WIDOK
 70
    11
1001
AcDbAttr
1070
     0
1070
     1
  0
LINE
  5
253C
330
2534
100
AcDbEntity
  8
SOLBET_Bloczki
100
AcDbLine
 10
21.00000014074931
 20
12.00000020414847
 30
0.0
 11
21.00000014074931
 21
0.000000204148364
 31
0.0
  0
LINE
  5
253D
330
2534
100
AcDbEntity
  8
SOLBET_Bloczki
100
AcDbLine
 10
21.00000014074931
 20
12.00000020414847
 30
0.0
 11
0.0000001407493072
 21
12.00000020414847
 31
0.0
  0
LINE
  5
253E
330
2534
100
AcDbEntity
  8
SOLBET_Bloczki
100
AcDbLine
 10
0.0000001407493072
 20
12.00000020414847
 30
0.0
 11
0.0000001407493072
 21
0.000000204148364
 31
0.0
  0
LINE
  5
253F
330
2534
100
AcDbEntity
  8
SOLBET_Bloczki
100
AcDbLine
 10
0.0000001407493072
 20
0.000000204148364
 30
0.0
 11
21.00000014074931
 21
0.000000204148364
 31
0.0
  0
ENDBLK
  5
2543
330
2534
100
AcDbEntity
  8
0
100
AcDbBlockEnd
  0
BLOCK
  5
26E5
330
26D9
100
AcDbEntity
  8
0
100
AcDbBlockBegin
  2
SOLBET_Plytka_80x240x590_KG600_PRA
 70
     2
 10
0.0
 20
0.0
 30
0.0
  3
SOLBET_Plytka_80x240x590_KG600_PRA
  1

  0
ATTDEF
  5
26DA
330
26D9
100
AcDbEntity
  8
SOLBET_Wymiary_Opisy
100
AcDbText
 10
0.0000000947117284
 20
4.975188798271157
 30
0.0
 40
1.029483505648801
  1
80x240x590
  7
Solbet_1
100
AcDbAttributeDefinition
  3

  2
WYMIARY
 70
    11
1001
AcDbAttr
1070
     0
1070
     1
  0
ATTDEF
  5
26DB
330
26D9
100
AcDbEntity
  8
SOLBET_Wymiary_Opisy
100
AcDbText
 10
0.0000000947117284
 20
3.40442846021831
 30
0.0
 40
1.029483505648801
  1
600
  7
Solbet_1
100
AcDbAttributeDefinition
  3

  2
KLASA_GĘSTOŚCI
 70
    11
1001
AcDbAttr
1070
     0
1070
     1
  0
ATTDEF
  5
26DC
330
26D9
100
AcDbEntity
  8
SOLBET_Wymiary_Opisy
100
AcDbText
 10
0.0000000947117284
 20
0.2542933553923256
 30
0.0
 40
1.029483505648801
  1
SOLBET
  7
Solbet_1
100
AcDbAttributeDefinition
  3

  2
FIRMA
 70
    11
1001
AcDbAttr
1070
     0
1070
     1
  0
ATTDEF
  5
26DD
330
26D9
100
AcDbEntity
  8
SOLBET_Wymiary_Opisy
100
AcDbText
 10
-0.0000001564046322
 20
6.512920961642439
 30
0.0
 40
1.029483505648801
  1
Płytka
  7
Solbet_1
100
AcDbAttributeDefinition
  3
Nazwa
  2
NAZWA
 70
    11
1001
AcDbAttr
1070
     0
1070
     1
  0
ATTDEF
  5
26DE
330
26D9
100
AcDbEntity
  8
SOLBET_Wymiary_Opisy
100
AcDbText
 10
0.0000000947117284
 20
1.811342665324326
 30
0.0
 40
1.029483505648801
  1
Prawo
  7
Solbet_1
100
AcDbAttributeDefinition
  3

  2
WIDOK
 70
    11
1001
AcDbAttr
1070
     0
1070
     1
  0
LINE
  5
26DF
330
26D9
100
AcDbEntity
  8
SOLBET_Bloczki
100
AcDbLine
 10
3.999999830192336
 20
12.00000020463494
 30
0.0
 11
3.999999830192336
 21
0.0000002046349437
 31
0.0
  0
LINE
  5
26E0
330
26D9
100
AcDbEntity
  8
SOLBET_Bloczki
100
AcDbLine
 10
3.999999830192336
 20
0.0000002046349437
 30
0.0
 11
-0.000000169807663
 21
0.0000002046349437
 31
0.0
  0
LINE
  5
26E1
330
26D9
100
AcDbEntity
  8
SOLBET_Bloczki
100
AcDbLine
 10
-0.000000169807663
 20
0.0000002046349437
 30
0.0
 11
-0.000000169807663
 21
12.00000020463517
 31
0.0
  0
LINE
  5
26E2
330
26D9
100
AcDbEntity
  8
SOLBET_Bloczki
100
AcDbLine
 10
-0.000000169807663
 20
12.00000020463517
 30
0.0
 11
3.999999830192336
 21
12.00000020463517
 31
0.0
  0
ENDBLK
  5
26E6
330
26D9
100
AcDbEntity
  8
0
100
AcDbBlockEnd
  0
BLOCK
  5
273E
330
2730
100
AcDbEntity
  8
0
100
AcDbBlockBegin
  2
SOLBET_Bloczek_Ideal_420x240x590_P+W_KG400_PRA
 70
     2
 10
0.0
 20
0.0
 30
0.0
  3
SOLBET_Bloczek_Ideal_420x240x590_P+W_KG400_PRA
  1

  0
ATTDEF
  5
2731
330
2730
100
AcDbEntity
  8
SOLBET_Wymiary_Opisy
100
AcDbText
 10
-0.0000000703746536
 20
6.303237281370451
 30
0.0
 40
0.9913121336814832
  1
420x240x590
  7
Solbet_1
100
AcDbAttributeDefinition
  3

  2
WYMIARY
 70
    11
1001
AcDbAttr
1070
     0
1070
     1
  0
ATTDEF
  5
2732
330
2730
100
AcDbEntity
  8
SOLBET_Wymiary_Opisy
100
AcDbText
 10
-0.0000000703746536
 20
4.790717873654354
 30
0.0
 40
0.9913121336814832
  1
400
  7
Solbet_1
100
AcDbAttributeDefinition
  3

  2
KLASA_GĘSTOŚCI
 70
    11
1001
AcDbAttr
1070
     0
1070
     1
  0
ATTDEF
  5
2733
330
2730
100
AcDbEntity
  8
SOLBET_Wymiary_Opisy
100
AcDbText
 10
-0.0000000703746536
 20
3.269569038442127
 30
0.0
 40
0.9913121336814832
  1
Pióra+Wpusty
  7
Solbet_1
100
AcDbAttributeDefinition
  3

  2
PROFILOWANIE
 70
    11
1001
AcDbAttr
1070
     0
1070
     1
  0
ATTDEF
  5
2734
330
2730
100
AcDbEntity
  8
SOLBET_Wymiary_Opisy
100
AcDbText
 10
-0.0000000703746536
 20
0.2448646291013483
 30
0.0
 40
0.9913121336814832
  1
SOLBET
  7
Solbet_1
100
AcDbAttributeDefinition
  3

  2
FIRMA
 70
    11
1001
AcDbAttr
1070
     0
1070
     1
  0
ATTDEF
  5
2735
330
2730
100
AcDbEntity
  8
SOLBET_Wymiary_Opisy
100
AcDbText
 10
-0.0000000703746536
 20
9.333547279718283
 30
0.0
 40
0.9913121336814832
  1
Bloczek
  7
Solbet_1
100
AcDbAttributeDefinition
  3
Nazwa
  2
NAZWA
 70
    11
1001
AcDbAttr
1070
     0
1070
     1
  0
ATTDEF
  5
2736
330
2730
100
AcDbEntity
  8
SOLBET_Wymiary_Opisy
100
AcDbText
 10
-0.0000000703746536
 20
7.794499099484078
 30
0.0
 40
0.9913121336814832
  1
SOLBET Ideal
  7
Solbet_1
100
AcDbAttributeDefinition
  3

  2
SYSTEM
 70
    11
1001
AcDbAttr
1070
     0
1070
     1
  0
ATTDEF
  5
2737
330
2730
100
AcDbEntity
  8
SOLBET_Wymiary_Opisy
100
AcDbText
 10
-0.0000000703746536
 20
1.74418138862846
 30
0.0
 40
0.9913121336814832
  1
Prawo
  7
Solbet_1
100
AcDbAttributeDefinition
  3

  2
WIDOK
 70
    11
1001
AcDbAttr
1070
     0
1070
     1
  0
LINE
  5
2738
330
2730
100
AcDbEntity
  8
SOLBET_Bloczki
100
AcDbLine
 10
21.00000014074931
 20
12.00000020414847
 30
0.0
 11
21.00000014074931
 21
0.000000204148364
 31
0.0
  0
LINE
  5
2739
330
2730
100
AcDbEntity
  8
SOLBET_Bloczki
100
AcDbLine
 10
21.00000014074931
 20
12.00000020414847
 30
0.0
 11
0.0000001407493072
 21
12.00000020414847
 31
0.0
  0
LINE
  5
273A
330
2730
100
AcDbEntity
  8
SOLBET_Bloczki
100
AcDbLine
 10
0.0000001407493072
 20
12.00000020414847
 30
0.0
 11
0.0000001407493072
 21
0.000000204148364
 31
0.0
  0
LINE
  5
273B
330
2730
100
AcDbEntity
  8
SOLBET_Bloczki
100
AcDbLine
 10
0.0000001407493072
 20
0.000000204148364
 30
0.0
 11
21.00000014074931
 21
0.000000204148364
 31
0.0
  0
ENDBLK
  5
273F
330
2730
100
AcDbEntity
  8
0
100
AcDbBlockEnd
  0
ENDSEC
  0
SECTION
  2
ENTITIES
  0
LINE
  5
216F
330
1F
100
AcDbEntity
  8
SOLBET_Wymiary_Opisy
100
AcDbLine
 10
146.1718749616682
 20
206.3541747881245
 30
0.0
 11
146.1718749616682
 21
155.5808275368472
 31
0.0
  0
LWPOLYLINE
  5
2170
330
1F
100
AcDbEntity
  8
SOLBET_Zbrojenie_Konstrukcja
100
AcDbPolyline
 90
        2
 70
     1
 43
0.3
 10
72.71335373895794
 20
174.521134411696
 42
1.0
 10
73.0133537389463
 20
174.521134411696
 42
1.0
  0
LWPOLYLINE
  5
2171
330
1F
100
AcDbEntity
  8
SOLBET_Zbrojenie_Konstrukcja
100
AcDbPolyline
 90
        2
 70
     1
 43
0.3
 10
81.85599095879092
 20
174.4995147366153
 42
1.0
 10
82.15599095877928
 20
174.4995147366153
 42
1.0
  0
LWPOLYLINE
  5
2172
330
1F
100
AcDbEntity
  8
SOLBET_Zbrojenie_Konstrukcja
100
AcDbPolyline
 90
        2
 70
     1
 43
0.3
 10
81.85599095879092
 20
166.1395110684079
 42
1.0
 10
82.15599095877928
 20
166.1395110684079
 42
1.0
  0
LWPOLYLINE
  5
2173
330
1F
100
AcDbEntity
  8
SOLBET_Zbrojenie_Konstrukcja
100
AcDbPolyline
 90
        2
 70
     1
 43
0.3
 10
72.71335373895794
 20
166.1395110684079
 42
1.0
 10
73.0133537389463
 20
166.1395110684079
 42
1.0
  0
LINE
  5
2174
330
1F
100
AcDbEntity
  8
SOLBET_Zbrojenie_Konstrukcja
100
AcDbLine
 10
75.15827381022768
 20
173.4321678988599
 30
0.0
 11
73.74406024784343
 21
174.8463814612332
 31
0.0
  0
LINE
  5
2175
330
1F
100
AcDbEntity
  8
SOLBET_Zbrojenie_Konstrukcja
100
AcDbLine
 10
73.95827381021604
 20
172.2321678988592
 30
0.0
 11
72.54406024784635
 21
173.6463814612325
 31
0.0
  0
LWPOLYLINE
  5
2176
330
1F
100
AcDbEntity
  8
SOLBET_Zbrojenie_Konstrukcja
100
AcDbPolyline
 90
        5
 70
     0
 43
0.0
 10
82.29768479856806
 20
165.8232896680874
 10
82.29768479856806
 20
174.8463814612332
 10
72.54406024784635
 20
174.8463814612332
 10
72.54406024784635
 20
165.8232896680874
 10
82.29768479856806
 20
165.8232896680874
  0
LINE
  5
2178
330
1F
100
AcDbEntity
  8
SOLBET_Izolacja
  6
Continuous
100
AcDbLine
 10
71.67295348575658
 20
164.6385231874428
 30
0.0
 11
71.67295348575658
 21
176.6385231874428
 31
0.0
  0
LINE
  5
217C
330
1F
100
AcDbEntity
  8
SOLBET_Wymiary_Opisy
100
AcDbLine
 10
61.56906449296889
 20
206.3541747881245
 30
0.0
 11
146.1718749616682
 21
206.3541747881245
 31
0.0
  0
LINE
  5
217F
330
1F
100
AcDbEntity
  8
SOLBET_Tynki_Posadzki
100
AcDbLine
 10
86.9710196769572
 20
182.5118300209979
 30
0.0
 11
86.9710196769572
 21
182.0118300209978
 31
0.0
  0
ARC
  5
2180
330
1F
100
AcDbEntity
  8
SOLBET_Tynki_Posadzki
100
AcDbCircle
 10
86.17295348575657
 20
182.5118300209979
 30
0.0
 40
1.5000521396288
100
AcDbArc
 50
0.0
 51
90.0
  0
LINE
  5
2182
330
1F
100
AcDbEntity
  8
SOLBET_Izolacja
  6
Continuous
100
AcDbLine
 10
86.67295348577113
 20
182.0118300209978
 30
0.0
 11
85.67295348577113
 21
182.0118300209978
 31
0.0
  0
LINE
  5
2184
330
1F
100
AcDbEntity
  8
SOLBET_Izolacja
  6
Continuous
100
AcDbLine
 10
86.67295348577113
 20
176.6385231874428
 30
0.0
 11
85.67295348577113
 21
176.6385231874428
 31
0.0
  0
LINE
  5
2185
330
1F
100
AcDbEntity
  8
SOLBET_Tynki_Posadzki
100
AcDbLine
 10
86.9710196769572
 20
182.5118300209979
 30
0.0
 11
146.1718749616682
 21
182.5118300209979
 31
0.0
  0
LINE
  5
2188
330
1F
100
AcDbEntity
  8
SOLBET_Izolacja
  6
Continuous
100
AcDbLine
 10
86.67295348577113
 20
176.6385231874428
 30
0.0
 11
86.67295348577113
 21
182.0118300209978
 31
0.0
  0
LINE
  5
2189
330
1F
100
AcDbEntity
  8
SOLBET_Izolacja
  6
Continuous
100
AcDbLine
 10
86.67295348577113
 20
179.1385231874428
 30
0.0
 11
146.1718749616682
 21
179.1385231874428
 31
0.0
  0
LINE
  5
218A
330
1F
100
AcDbEntity
  8
SOLBET_Tynki_Posadzki
100
AcDbLine
 10
86.17295348575657
 20
182.0118300209978
 30
0.0
 11
86.17295348575657
 21
206.3541747881245
 31
0.0
  0
LINE
  5
218B
330
1F
100
AcDbEntity
  8
SOLBET_Izolacja
  6
Continuous
100
AcDbLine
 10
86.17295348575657
 20
176.6385231874428
 30
0.0
 11
146.1718749616682
 21
176.6385231874428
 31
0.0
  0
LINE
  5
218C
330
1F
100
AcDbEntity
  8
SOLBET_Emulsje_Folie
100
AcDbLine
 10
86.78776953542342
 20
182.2618300209978
 30
0.0
 11
86.78776953542342
 21
179.5843625010147
 31
0.0
  0
LINE
  5
218D
330
1F
100
AcDbEntity
  8
SOLBET_Emulsje_Folie
100
AcDbLine
 10
87.03776953542343
 20
179.3343625010147
 30
0.0
 11
146.1718749616682
 21
179.3343625010147
 31
0.0
  0
ARC
  5
218E
330
1F
100
AcDbEntity
  8
SOLBET_Emulsje_Folie
100
AcDbCircle
 10
87.03776953542343
 20
179.5843625010147
 30
0.0
 40
0.25
100
AcDbArc
 50
180.0
 51
270.0
  0
LWPOLYLINE
  5
218F
102
{ACAD_REACTORS
330
2276
102
}
330
1F
100
AcDbEntity
  8
SOLBET_Tynki_Posadzki
100
AcDbPolyline
 90
        5
 70
     1
 43
0.0
 10
86.78776953542342
 20
179.5843625010147
 42
0.0737237824442244
 10
86.79852271862705
 20
179.5118300209979
 10
146.1718749616682
 20
179.5118300209979
 10
146.1718749616682
 20
182.0118300209978
 10
86.78776953542342
 20
182.0118300209978
1001
ASO_SCHRAFF
1005
0
1070
     1
1002
{
1070
     1
1005
0
1002
}
1002
{
1070
     2
1005
0
1002
}
1002
{
1070
     4
1000
AR-CONC
1040
0.01
1040
0.0
1070
     0
1000
T__SCHR
1070
   256
1000
_bylayer
1040
50.0
1070
     1
1002
}
  0
LINE
  5
2192
330
1F
100
AcDbEntity
  8
SOLBET_Tynki_Posadzki
100
AcDbLine
 10
86.17295348575657
 20
164.1385231874428
 30
0.0
 11
86.17295348575657
 21
155.5808275368472
 31
0.0
  0
LINE
  5
2193
330
1F
100
AcDbEntity
  8
SOLBET_Tynki_Posadzki
100
AcDbLine
 10
86.17295348575657
 20
164.1385231874428
 30
0.0
 11
85.67494665327627
 21
164.6385231874428
 31
0.0
  0
LWPOLYLINE
  5
219D
102
{ACAD_REACTORS
330
22D5
102
}
330
1F
100
AcDbEntity
  8
SOLBET_Zbrojenie_Konstrukcja
100
AcDbPolyline
 90
       16
 70
     1
 43
0.0
 10
82.03385717404103
 20
176.8168610854918
 42
-0.0869419154568836
 10
81.98714042814186
 20
176.7924571956864
 42
-0.04426695874853
 10
81.9305322025009
 20
176.7798301750135
 42
-0.0327594189474477
 10
81.85239629971125
 20
176.7747053015573
 42
-0.0327594189473721
 10
81.77426039693614
 20
176.7798301750135
 42
-0.0442669587487512
 10
81.71765217129518
 20
176.7924571956864
 42
-0.0869419154555393
 10
81.67093542542511
 20
176.8168610854918
 42
-0.233077666948955
 10
81.6618393258666
 20
176.8353140592517
 42
-0.2330776669476068
 10
81.67093542542511
 20
176.8537670330133
 42
-0.0869419154571649
 10
81.71765217129518
 20
176.8781709228169
 42
-0.0442669587478621
 10
81.77426039693614
 20
176.8907979434898
 42
-0.032759418947709
 10
81.85239629971125
 20
176.8959228169478
 42
-0.0327594189469762
 10
81.9305322025009
 20
176.8907979434898
 42
-0.0442669587489952
 10
81.98714042814186
 20
176.8781709228169
 42
-0.0869419154555225
 10
82.03385717404103
 20
176.8537670330133
 42
-0.2095631734287794
 10
82.04285981577209
 20
176.837397315865
 42
-0.256839199828224
1001
ASO_SCHRAFF
1005
0
1070
     1
1002
{
1070
     1
1005
0
1002
}
1002
{
1070
     2
1005
0
1002
}
1002
{
1070
     4
1000
SOFIFUELL
1040
1.0
1040
0.0
1070
     0
1000
T__SCHR
1070
   256
1000
_bylayer
1040
50.0
1070
     1
1002
}
  0
LWPOLYLINE
  5
219F
102
{ACAD_REACTORS
330
22D5
102
}
330
1F
100
AcDbEntity
  8
SOLBET_Zbrojenie_Konstrukcja
100
AcDbPolyline
 90
       16
 70
     1
 43
0.0
 10
72.51142467968543
 20
176.8168610854918
 42
0.0869419154568836
 10
72.5581414255555
 20
176.7924571956864
 42
0.04426695874853
 10
72.61474965121101
 20
176.7798301750135
 42
0.0327594189474477
 10
72.69288555398611
 20
176.7747053015573
 42
0.0327594189473721
 10
72.77102145676122
 20
176.7798301750135
 42
0.0442669587487512
 10
72.82762968240217
 20
176.7924571956864
 42
0.0869419154555393
 10
72.87434642827225
 20
176.8168610854918
 42
0.233077666948955
 10
72.88344252784532
 20
176.8353140592517
 42
0.2330776669476068
 10
72.87434642827225
 20
176.8537670330133
 42
0.0869419154571649
 10
72.82762968240217
 20
176.8781709228169
 42
0.0442669587478621
 10
72.77102145676122
 20
176.8907979434898
 42
0.032759418947709
 10
72.69288555398611
 20
176.8959228169478
 42
0.0327594189469762
 10
72.61474965121101
 20
176.8907979434898
 42
0.0442669587489952
 10
72.5581414255555
 20
176.8781709228169
 42
0.0869419154555225
 10
72.51142467968543
 20
176.8537670330133
 42
0.2095631734287794
 10
72.50242203793982
 20
176.837397315865
 42
0.256839199828224
1001
ASO_SCHRAFF
1005
0
1070
     1
1002
{
1070
     1
1005
0
1002
}
1002
{
1070
     2
1005
0
1002
}
1002
{
1070
     4
1000
SOFIFUELL
1040
1.0
1040
0.0
1070
     0
1000
T__SCHR
1070
   256
1000
_bylayer
1040
50.0
1070
     1
1002
}
  0
LINE
  5
21A7
330
1F
100
AcDbEntity
  8
SOLBET_Wymiary_Opisy
100
AcDbLine
 10
61.56906449296889
 20
155.5808275368472
 30
0.0
 11
146.1718749616682
 21
155.5808275368472
 31
0.0
  0
LINE
  5
21A8
330
1F
100
AcDbEntity
  8
SOLBET_Tynki_Posadzki
100
AcDbLine
 10
63.92295348577113
 20
155.5808275368472
 30
0.0
 11
63.92295348577113
 21
206.3541747881245
 31
0.0
  0
LINE
  5
21A9
330
1F
100
AcDbEntity
  8
SOLBET_Zaprawy
100
AcDbLine
 10
64.38963167922134
 20
155.5808275368472
 30
0.0
 11
64.38963167922134
 21
206.3541747881245
 31
0.0
  0
LINE
  5
21AD
330
1F
100
AcDbEntity
  8
SOLBET_Wymiary_Opisy
100
AcDbLine
 10
311.8761214155572
 20
206.3541747881245
 30
0.0
 11
311.8761214155572
 21
155.5808275368472
 31
0.0
  0
LWPOLYLINE
  5
21AE
330
1F
100
AcDbEntity
  8
SOLBET_Zbrojenie_Konstrukcja
100
AcDbPolyline
 90
        2
 70
     1
 43
0.3
 10
238.417600192847
 20
174.521134411696
 42
1.0
 10
238.7176001928353
 20
174.521134411696
 42
1.0
  0
LWPOLYLINE
  5
21AF
330
1F
100
AcDbEntity
  8
SOLBET_Zbrojenie_Konstrukcja
100
AcDbPolyline
 90
        2
 70
     1
 43
0.3
 10
248.7664101850285
 20
174.4995147366153
 42
1.0
 10
249.0664101850168
 20
174.4995147366153
 42
1.0
  0
LWPOLYLINE
  5
21B0
330
1F
100
AcDbEntity
  8
SOLBET_Zbrojenie_Konstrukcja
100
AcDbPolyline
 90
        2
 70
     1
 43
0.3
 10
248.7664101850285
 20
165.7047445877633
 42
1.0
 10
249.0664101850168
 20
165.7047445877633
 42
1.0
  0
LWPOLYLINE
  5
21B1
330
1F
100
AcDbEntity
  8
SOLBET_Zbrojenie_Konstrukcja
100
AcDbPolyline
 90
        2
 70
     1
 43
0.3
 10
238.417600192847
 20
165.7047445877633
 42
1.0
 10
238.7176001928353
 20
165.7047445877633
 42
1.0
  0
LINE
  5
21B2
330
1F
100
AcDbEntity
  8
SOLBET_Zbrojenie_Konstrukcja
100
AcDbLine
 10
240.8625202641167
 20
173.4321678988599
 30
0.0
 11
239.4483067017325
 21
174.8463814612332
 31
0.0
  0
LINE
  5
21B3
330
1F
100
AcDbEntity
  8
SOLBET_Zbrojenie_Konstrukcja
100
AcDbLine
 10
239.6625202641051
 20
172.2321678988592
 30
0.0
 11
238.2483067017354
 21
173.6463814612325
 31
0.0
  0
LWPOLYLINE
  5
21B4
330
1F
100
AcDbEntity
  8
SOLBET_Zbrojenie_Konstrukcja
100
AcDbPolyline
 90
        5
 70
     0
 43
0.0
 10
249.2081040248056
 20
165.388523187441
 10
249.2081040248056
 20
174.8463814612332
 10
238.2483067017354
 20
174.8463814612332
 10
238.2483067017354
 20
165.388523187441
 10
249.2081040248056
 20
165.388523187441
  0
LINE
  5
21B6
330
1F
100
AcDbEntity
  8
SOLBET_Izolacja
  6
Continuous
100
AcDbLine
 10
237.3771999396456
 20
164.6385231874428
 30
0.0
 11
237.3771999396456
 21
176.6385231874428
 31
0.0
  0
LINE
  5
21BA
330
1F
100
AcDbEntity
  8
SOLBET_Wymiary_Opisy
100
AcDbLine
 10
227.2733109468725
 20
206.3541747881245
 30
0.0
 11
311.8761214155572
 21
206.3541747881245
 31
0.0
  0
LINE
  5
21BD
330
1F
100
AcDbEntity
  8
SOLBET_Tynki_Posadzki
100
AcDbLine
 10
252.6752661308462
 20
182.5118300209979
 30
0.0
 11
252.6752661308462
 21
182.0118300209978
 31
0.0
  0
ARC
  5
21BE
330
1F
100
AcDbEntity
  8
SOLBET_Tynki_Posadzki
100
AcDbCircle
 10
251.8771999396456
 20
182.5118300209979
 30
0.0
 40
1.5000521396288
100
AcDbArc
 50
0.0
 51
90.0
  0
LINE
  5
21C0
330
1F
100
AcDbEntity
  8
SOLBET_Izolacja
  6
Continuous
100
AcDbLine
 10
252.3771999396311
 20
182.0118300209978
 30
0.0
 11
251.3771999396456
 21
182.0118300209978
 31
0.0
  0
LINE
  5
21C2
330
1F
100
AcDbEntity
  8
SOLBET_Izolacja
  6
Continuous
100
AcDbLine
 10
252.3771999396311
 20
176.6385231874428
 30
0.0
 11
251.3771999396456
 21
176.6385231874428
 31
0.0
  0
LINE
  5
21C3
330
1F
100
AcDbEntity
  8
SOLBET_Tynki_Posadzki
100
AcDbLine
 10
252.6752661308462
 20
182.5118300209979
 30
0.0
 11
311.8761214155572
 21
182.5118300209979
 31
0.0
  0
LINE
  5
21C6
330
1F
100
AcDbEntity
  8
SOLBET_Izolacja
  6
Continuous
100
AcDbLine
 10
252.3771999396311
 20
176.6385231874428
 30
0.0
 11
252.3771999396311
 21
182.0118300209978
 31
0.0
  0
LINE
  5
21C7
330
1F
100
AcDbEntity
  8
SOLBET_Izolacja
  6
Continuous
100
AcDbLine
 10
252.3771999396311
 20
179.1385231874428
 30
0.0
 11
311.8761214155572
 21
179.1385231874428
 31
0.0
  0
LINE
  5
21C8
330
1F
100
AcDbEntity
  8
SOLBET_Tynki_Posadzki
100
AcDbLine
 10
251.8771999396456
 20
182.0118300209978
 30
0.0
 11
251.8771999396456
 21
206.3541747881245
 31
0.0
  0
LINE
  5
21C9
330
1F
100
AcDbEntity
  8
SOLBET_Izolacja
  6
Continuous
100
AcDbLine
 10
251.8771999396456
 20
176.6385231874428
 30
0.0
 11
311.8761214155572
 21
176.6385231874428
 31
0.0
  0
LINE
  5
21CA
330
1F
100
AcDbEntity
  8
SOLBET_Emulsje_Folie
100
AcDbLine
 10
252.4920159893124
 20
182.2618300209978
 30
0.0
 11
252.4920159893124
 21
179.5843625010147
 31
0.0
  0
LINE
  5
21CB
330
1F
100
AcDbEntity
  8
SOLBET_Emulsje_Folie
100
AcDbLine
 10
252.7420159893125
 20
179.3343625010147
 30
0.0
 11
311.8761214155572
 21
179.3343625010147
 31
0.0
  0
ARC
  5
21CC
330
1F
100
AcDbEntity
  8
SOLBET_Emulsje_Folie
100
AcDbCircle
 10
252.7507982008614
 20
179.6115563966438
 30
0.0
 40
0.2773329821959074
100
AcDbArc
 50
201.0750648412864
 51
268.1853301852649
  0
LINE
  5
21CF
330
1F
100
AcDbEntity
  8
SOLBET_Tynki_Posadzki
100
AcDbLine
 10
251.8771999396456
 20
164.1385231874428
 30
0.0
 11
251.8771999396456
 21
155.5808275368472
 31
0.0
  0
LINE
  5
21D0
330
1F
100
AcDbEntity
  8
SOLBET_Tynki_Posadzki
100
AcDbLine
 10
251.8771999396456
 20
164.1385231874428
 30
0.0
 11
251.3791931071653
 21
164.6385231874428
 31
0.0
  0
LWPOLYLINE
  5
21D8
102
{ACAD_REACTORS
330
2327
102
}
330
1F
100
AcDbEntity
  8
SOLBET_Zbrojenie_Konstrukcja
100
AcDbPolyline
 90
       16
 70
     1
 43
0.0
 10
247.7381036279009
 20
176.8168610854918
 42
-0.0869419154568836
 10
247.6913868820309
 20
176.7924571956864
 42
-0.04426695874853
 10
247.6347786563899
 20
176.7798301750135
 42
-0.0327594189474477
 10
247.5566427536003
 20
176.7747053015573
 42
-0.0327594189473721
 10
247.4785068508252
 20
176.7798301750135
 42
-0.0442669587487512
 10
247.4218986251842
 20
176.7924571956864
 42
-0.0869419154555393
 10
247.3751818793141
 20
176.8168610854918
 42
-0.233077666948955
 10
247.3660857797556
 20
176.8353140592517
 42
-0.2330776669476068
 10
247.3751818793141
 20
176.8537670330133
 42
-0.0869419154571649
 10
247.4218986251842
 20
176.8781709228169
 42
-0.0442669587478621
 10
247.4785068508252
 20
176.8907979434898
 42
-0.032759418947709
 10
247.5566427536003
 20
176.8959228169478
 42
-0.0327594189469762
 10
247.6347786563899
 20
176.8907979434898
 42
-0.0442669587489952
 10
247.6913868820309
 20
176.8781709228169
 42
-0.0869419154555225
 10
247.7381036279009
 20
176.8537670330133
 42
-0.2095631734287794
 10
247.7471062696466
 20
176.837397315865
 42
-0.256839199828224
1001
ASO_SCHRAFF
1005
0
1070
     1
1002
{
1070
     1
1005
0
1002
}
1002
{
1070
     2
1005
0
1002
}
1002
{
1070
     4
1000
SOFIFUELL
1040
1.0
1040
0.0
1070
     0
1000
T__SCHR
1070
   256
1000
_bylayer
1040
50.0
1070
     1
1002
}
  0
LWPOLYLINE
  5
21DA
102
{ACAD_REACTORS
330
2327
102
}
330
1F
100
AcDbEntity
  8
SOLBET_Zbrojenie_Konstrukcja
100
AcDbPolyline
 90
       16
 70
     1
 43
0.0
 10
238.2156711335745
 20
176.8168610854918
 42
0.0869419154568836
 10
238.2623878794445
 20
176.7924571956864
 42
0.04426695874853
 10
238.3189961051
 20
176.7798301750135
 42
0.0327594189474477
 10
238.3971320078751
 20
176.7747053015573
 42
0.0327594189473721
 10
238.4752679106502
 20
176.7798301750135
 42
0.0442669587487512
 10
238.5318761362912
 20
176.7924571956864
 42
0.0869419154555393
 10
238.5785928821613
 20
176.8168610854918
 42
0.233077666948955
 10
238.5876889817198
 20
176.8353140592517
 42
0.2330776669476068
 10
238.5785928821613
 20
176.8537670330133
 42
0.0869419154571649
 10
238.5318761362912
 20
176.8781709228169
 42
0.0442669587478621
 10
238.4752679106502
 20
176.8907979434898
 42
0.032759418947709
 10
238.3971320078751
 20
176.8959228169478
 42
0.0327594189469762
 10
238.3189961051
 20
176.8907979434898
 42
0.0442669587489952
 10
238.2623878794445
 20
176.8781709228169
 42
0.0869419154555225
 10
238.2156711335745
 20
176.8537670330133
 42
0.2095631734287794
 10
238.2066684918143
 20
176.837397315865
 42
0.256839199828224
1001
ASO_SCHRAFF
1005
0
1070
     1
1002
{
1070
     1
1005
0
1002
}
1002
{
1070
     2
1005
0
1002
}
1002
{
1070
     4
1000
SOFIFUELL
1040
1.0
1040
0.0
1070
     0
1000
T__SCHR
1070
   256
1000
_bylayer
1040
50.0
1070
     1
1002
}
  0
LINE
  5
21E2
330
1F
100
AcDbEntity
  8
SOLBET_Wymiary_Opisy
100
AcDbLine
 10
227.2733109468725
 20
155.5808275368472
 30
0.0
 11
311.8761214155572
 21
155.5808275368472
 31
0.0
  0
LINE
  5
21E3
330
1F
100
AcDbEntity
  8
SOLBET_Tynki_Posadzki
100
AcDbLine
 10
229.6271999396456
 20
155.5808275368472
 30
0.0
 11
229.6271999396456
 21
206.3541747881245
 31
0.0
  0
LWPOLYLINE
  5
21EB
330
1F
100
AcDbEntity
  8
SOLBET_Zbrojenie_Konstrukcja
100
AcDbPolyline
 90
        6
 70
     0
 43
0.0
 10
121.2987556770219
 20
175.2598087501992
 10
72.79875567700742
 20
175.2598087501992
 42
0.4142135623730951
 10
72.29875567702197
 20
174.7598087501992
 10
72.29875567702197
 20
168.66317497007
 42
0.4142135623730964
 10
72.79875567700742
 20
168.16317497007
 10
91.29875567702198
 20
168.16317497007
  0
LINE
  5
21F4
330
1F
100
AcDbEntity
  8
SOLBET_Zbrojenie_Konstrukcja
100
AcDbLine
 10
145.1749466532762
 20
174.1385231874428
 30
0.0
 11
146.1718749616682
 21
172.2692826092316
 31
0.0
  0
LINE
  5
21F5
330
1F
100
AcDbEntity
  8
SOLBET_Zbrojenie_Konstrukcja
100
AcDbLine
 10
141.7082799866164
 20
167.6385231874428
 30
0.0
 11
145.1749466532762
 21
174.1385231874428
 31
0.0
  0
LINE
  5
21F6
330
1F
100
AcDbEntity
  8
SOLBET_Zbrojenie_Konstrukcja
100
AcDbLine
 10
117.7082799866164
 20
167.6385231874428
 30
0.0
 11
121.1749466532762
 21
174.1385231874428
 31
0.0
  0
LINE
  5
21F7
330
1F
100
AcDbEntity
  8
SOLBET_Zbrojenie_Konstrukcja
100
AcDbLine
 10
125.7082799866309
 20
167.6385231874428
 30
0.0
 11
129.1749466532908
 21
174.1385231874428
 31
0.0
  0
LINE
  5
21F8
330
1F
100
AcDbEntity
  8
SOLBET_Zbrojenie_Konstrukcja
100
AcDbLine
 10
133.7082799866164
 20
167.6385231874428
 30
0.0
 11
137.1749466532908
 21
174.1385231874428
 31
0.0
  0
LINE
  5
21F9
330
1F
100
AcDbEntity
  8
SOLBET_Zbrojenie_Konstrukcja
100
AcDbLine
 10
109.7082799866164
 20
167.6385231874428
 30
0.0
 11
113.1749466532908
 21
174.1385231874428
 31
0.0
  0
LINE
  5
21FA
330
1F
100
AcDbEntity
  8
SOLBET_Zbrojenie_Konstrukcja
100
AcDbLine
 10
101.7082799866309
 20
167.6385231874428
 30
0.0
 11
105.1749466532908
 21
174.1385231874428
 31
0.0
  0
LINE
  5
21FB
330
1F
100
AcDbEntity
  8
SOLBET_Zbrojenie_Konstrukcja
100
AcDbLine
 10
93.70827998661638
 20
167.6385231874428
 30
0.0
 11
97.17494665327627
 21
174.1385231874428
 31
0.0
  0
LINE
  5
21FC
330
1F
100
AcDbEntity
  8
SOLBET_Zbrojenie_Konstrukcja
100
AcDbLine
 10
85.7082799866164
 20
167.6385231874428
 30
0.0
 11
89.17494665329082
 21
174.1385231874428
 31
0.0
  0
LINE
  5
21FD
330
1F
100
AcDbEntity
  8
SOLBET_Zbrojenie_Konstrukcja
100
AcDbLine
 10
89.17494665329082
 20
174.1385231874428
 30
0.0
 11
92.64161331995069
 21
167.6385231874428
 31
0.0
  0
LINE
  5
21FE
330
1F
100
AcDbEntity
  8
SOLBET_Zbrojenie_Konstrukcja
100
AcDbLine
 10
97.17494665327627
 20
174.1385231874428
 30
0.0
 11
100.6416133199507
 21
167.6385231874428
 31
0.0
  0
LINE
  5
21FF
330
1F
100
AcDbEntity
  8
SOLBET_Zbrojenie_Konstrukcja
100
AcDbLine
 10
105.1749466532908
 20
174.1385231874428
 30
0.0
 11
108.6416133199652
 21
167.6385231874428
 31
0.0
  0
LINE
  5
2200
330
1F
100
AcDbEntity
  8
SOLBET_Zbrojenie_Konstrukcja
100
AcDbLine
 10
113.1749466532908
 20
174.1385231874428
 30
0.0
 11
116.6416133199507
 21
167.6385231874428
 31
0.0
  0
LINE
  5
2201
330
1F
100
AcDbEntity
  8
SOLBET_Zbrojenie_Konstrukcja
100
AcDbLine
 10
146.1718749616682
 20
174.1385231874428
 30
0.0
 11
83.67494665327626
 21
174.1385231874428
 31
0.0
  0
LINE
  5
2202
330
1F
100
AcDbEntity
  8
SOLBET_Zbrojenie_Konstrukcja
100
AcDbLine
 10
137.1749466532908
 20
174.1385231874428
 30
0.0
 11
140.6416133199507
 21
167.6385231874428
 31
0.0
  0
LINE
  5
2203
330
1F
100
AcDbEntity
  8
SOLBET_Zbrojenie_Konstrukcja
100
AcDbLine
 10
129.1749466532908
 20
174.1385231874428
 30
0.0
 11
132.6416133199652
 21
167.6385231874428
 31
0.0
  0
LINE
  5
2204
330
1F
100
AcDbEntity
  8
SOLBET_Zbrojenie_Konstrukcja
100
AcDbLine
 10
121.1749466532762
 20
174.1385231874428
 30
0.0
 11
124.6416133199507
 21
167.6385231874428
 31
0.0
  0
LWPOLYLINE
  5
2208
330
1F
100
AcDbEntity
  8
SOLBET_Zbrojenie_Konstrukcja
100
AcDbPolyline
 90
        2
 70
     1
 43
0.3
 10
257.6567989381918
 20
173.3697301206175
 42
1.0
 10
257.9567989382092
 20
173.3697301206175
 42
1.0
  0
LINE
  5
2209
330
1F
100
AcDbEntity
  8
SOLBET_Zbrojenie_Konstrukcja
  6
Continuous
100
AcDbLine
 10
258.0728561516487
 20
173.5630930051193
 30
0.0
 11
259.719791973276
 21
166.2480050096092
 31
0.0
  0
LWPOLYLINE
  5
220A
330
1F
100
AcDbEntity
  8
SOLBET_Zbrojenie_Konstrukcja
100
AcDbPolyline
 90
        2
 70
     1
 43
0.3
 10
255.5177375154933
 20
165.9101369872132
 42
1.0
 10
255.8177375154962
 20
165.9101369872132
 42
1.0
  0
LWPOLYLINE
  5
220B
330
1F
100
AcDbEntity
  8
SOLBET_Zbrojenie_Konstrukcja
100
AcDbPolyline
 90
        2
 70
     1
 43
0.3
 10
260.0958603608931
 20
165.9101369872132
 42
-1.0
 10
259.7958603609047
 20
165.9101369872132
 42
-1.0
  0
LINE
  5
220C
330
1F
100
AcDbEntity
  8
SOLBET_Zbrojenie_Konstrukcja
100
AcDbLine
 10
259.719791973276
 20
166.2480050096092
 30
0.0
 11
260.2819462296654
 21
166.2480050096092
 31
0.0
  0
LINE
  5
220D
330
1F
100
AcDbEntity
  8
SOLBET_Zbrojenie_Konstrukcja
100
AcDbLine
 10
257.5407417247377
 20
173.5630930051193
 30
0.0
 11
255.8938059031104
 21
166.2480050096092
 31
0.0
  0
LINE
  5
220E
330
1F
100
AcDbEntity
  8
SOLBET_Zbrojenie_Konstrukcja
100
AcDbLine
 10
255.8938059031104
 20
166.2480050096092
 30
0.0
 11
255.3316516467355
 21
166.2480050096092
 31
0.0
  0
LWPOLYLINE
  5
220F
330
1F
100
AcDbEntity
  8
SOLBET_Zbrojenie_Konstrukcja
100
AcDbPolyline
 90
        2
 70
     1
 43
0.3
 10
266.8141306894292
 20
165.9101369872132
 42
-1.0
 10
266.5141306894409
 20
165.9101369872132
 42
-1.0
  0
LWPOLYLINE
  5
2210
330
1F
100
AcDbEntity
  8
SOLBET_Zbrojenie_Konstrukcja
100
AcDbPolyline
 90
        2
 70
     1
 43
0.3
 10
297.9567989381946
 20
173.3697301206175
 42
-1.0
 10
297.6567989381917
 20
173.3697301206175
 42
-1.0
  0
LINE
  5
2211
330
1F
100
AcDbEntity
  8
SOLBET_Zbrojenie_Konstrukcja
100
AcDbLine
 10
297.5407417247232
 20
173.5630930051193
 30
0.0
 11
295.8938059030959
 21
166.2480050096092
 31
0.0
  0
LWPOLYLINE
  5
2212
330
1F
100
AcDbEntity
  8
SOLBET_Zbrojenie_Konstrukcja
100
AcDbPolyline
 90
        2
 70
     1
 43
0.3
 10
300.0958603609076
 20
165.9101369872132
 42
-1.0
 10
299.7958603608902
 20
165.9101369872132
 42
-1.0
  0
LWPOLYLINE
  5
2213
330
1F
100
AcDbEntity
  8
SOLBET_Zbrojenie_Konstrukcja
100
AcDbPolyline
 90
        2
 70
     1
 43
0.3
 10
295.5177375155079
 20
165.9101369872132
 42
1.0
 10
295.8177375154962
 20
165.9101369872132
 42
1.0
  0
LINE
  5
2214
330
1F
100
AcDbEntity
  8
SOLBET_Zbrojenie_Konstrukcja
100
AcDbLine
 10
295.8938059030959
 20
166.2480050096092
 30
0.0
 11
295.3316516467209
 21
166.2480050096092
 31
0.0
  0
LINE
  5
2215
330
1F
100
AcDbEntity
  8
SOLBET_Zbrojenie_Konstrukcja
100
AcDbLine
 10
298.0728561516632
 20
173.5630930051193
 30
0.0
 11
299.7197919732905
 21
166.2480050096092
 31
0.0
  0
LINE
  5
2216
330
1F
100
AcDbEntity
  8
SOLBET_Zbrojenie_Konstrukcja
100
AcDbLine
 10
299.7197919732905
 20
166.2480050096092
 30
0.0
 11
300.2819462296654
 21
166.2480050096092
 31
0.0
  0
LWPOLYLINE
  5
2217
330
1F
100
AcDbEntity
  8
SOLBET_Zbrojenie_Konstrukcja
100
AcDbPolyline
 90
        2
 70
     1
 43
0.3
 10
277.9567989382092
 20
173.3697301206175
 42
-1.0
 10
277.6567989381917
 20
173.3697301206175
 42
-1.0
  0
LINE
  5
2218
330
1F
100
AcDbEntity
  8
SOLBET_Zbrojenie_Konstrukcja
100
AcDbLine
 10
277.5407417247377
 20
173.5630930051193
 30
0.0
 11
275.893805903125
 21
166.2480050096092
 31
0.0
  0
LWPOLYLINE
  5
2219
330
1F
100
AcDbEntity
  8
SOLBET_Zbrojenie_Konstrukcja
100
AcDbPolyline
 90
        2
 70
     1
 43
0.3
 10
280.0958603608931
 20
165.9101369872132
 42
-1.0
 10
279.7958603609047
 20
165.9101369872132
 42
-1.0
  0
LWPOLYLINE
  5
221A
330
1F
100
AcDbEntity
  8
SOLBET_Zbrojenie_Konstrukcja
100
AcDbPolyline
 90
        2
 70
     1
 43
0.3
 10
275.5177375155079
 20
165.9101369872132
 42
1.0
 10
275.8177375154962
 20
165.9101369872132
 42
1.0
  0
LINE
  5
221B
330
1F
100
AcDbEntity
  8
SOLBET_Zbrojenie_Konstrukcja
100
AcDbLine
 10
275.893805903125
 20
166.2480050096092
 30
0.0
 11
275.3316516467355
 21
166.2480050096092
 31
0.0
  0
LINE
  5
221C
330
1F
100
AcDbEntity
  8
SOLBET_Zbrojenie_Konstrukcja
100
AcDbLine
 10
278.0728561516633
 20
173.5630930051193
 30
0.0
 11
279.7197919732759
 21
166.2480050096092
 31
0.0
  0
LINE
  5
221D
330
1F
100
AcDbEntity
  8
SOLBET_Zbrojenie_Konstrukcja
100
AcDbLine
 10
279.7197919732759
 20
166.2480050096092
 30
0.0
 11
280.2819462296654
 21
166.2480050096092
 31
0.0
  0
LWPOLYLINE
  5
221E
330
1F
100
AcDbEntity
  8
SOLBET_Zbrojenie_Konstrukcja
100
AcDbPolyline
 90
        2
 70
     1
 43
0.3
 10
288.7994671869572
 20
165.9101369872132
 42
1.0
 10
289.09946718696
 20
165.9101369872132
 42
1.0
  0
LWPOLYLINE
  5
221F
330
1F
100
AcDbEntity
  8
SOLBET_Zbrojenie_Konstrukcja
100
AcDbPolyline
 90
        2
 70
     1
 43
0.3
 10
306.8141306894147
 20
165.9101369872132
 42
-1.0
 10
306.5141306894263
 20
165.9101369872132
 42
-1.0
  0
LWPOLYLINE
  5
2220
330
1F
100
AcDbEntity
  8
SOLBET_Zbrojenie_Konstrukcja
100
AcDbPolyline
 90
        6
 70
     0
 43
0.0
 10
287.003002130911
 20
175.2598087501992
 10
238.5030021308964
 20
175.2598087501992
 42
0.4142135623730951
 10
238.003002130911
 20
174.7598087501992
 10
238.003002130911
 20
168.66317497007
 42
0.4142135623730964
 10
238.5030021308964
 20
168.16317497007
 10
257.0030021308964
 20
168.16317497007
  0
LWPOLYLINE
  5
222D
330
1F
100
AcDbEntity
  8
SOLBET_Ramka_05
100
AcDbPolyline
 90
        4
 70
     1
 43
0.0
 10
2.775479668714069
 20
0.0
 10
337.127253760804
 20
0.0
 10
337.127253760804
 20
297.0
 10
2.775479668714069
 20
297.0
  0
MTEXT
  5
222E
102
{ACAD_XDICTIONARY
360
222F
102
}
330
1F
100
AcDbEntity
  8
SOLBET_Wymiary_Opisy @ 1
100
AcDbMText
 10
20.36651210044306
 20
289.8967110907779
 30
0.0
 40
5.0
 41
218.5380526210574
 71
     1
 72
     5
  1
{\LDETAL 63\P}Oparcie stropu Filigran na \U+015Bcianach zewn\U+0119trznych jednowarstwowych
  7
Solbet_5
 73
     1
 44
1.0
1001
AcadAnnotative
1000
AnnotativeData
1002
{
1070
     1
1070
     0
1002
}
1001
ACAD
1000
MTEXTBEGIN
1070
    73
1070
     1
1070
    44
1040
1.0
1070
    74
1070
     0
1000
MTEXTEND
  0
MTEXT
  5
2243
102
{ACAD_XDICTIONARY
360
2244
102
}
330
1F
100
AcDbEntity
  8
SOLBET_Wymiary_Opisy @ 1
100
AcDbMText
 10
55.89653598754569
 20
230.5298272171369
 30
0.0
 40
5.0
 41
124.2624847080697
 71
     1
 72
     5
  1
Na \U+015Bcianie zewn\U+0119trznej\Pprostopad\U+0142ej do kierunku belek
  7
Solbet_5
 73
     1
 44
1.0
1001
AcadAnnotative
1000
AnnotativeData
1002
{
1070
     1
1070
     0
1002
}
1001
ACAD
1000
MTEXTBEGIN
1070
    73
1070
     1
1070
    44
1040
1.0
1070
    74
1070
     0
1000
MTEXTEND
  0
MTEXT
  5
2248
102
{ACAD_XDICTIONARY
360
2249
102
}
330
1F
100
AcDbEntity
  8
SOLBET_Wymiary_Opisy @ 1
100
AcDbMText
 10
220.2628162249521
 20
231.0298272171369
 30
0.0
 40
5.0
 41
124.2624847080697
 71
     1
 72
     5
  1
Na \U+015Bcianie zewn\U+0119trznej\Pr\U+00F3wnoleg\U+0142ej do kierunku belek
  7
Solbet_5
 73
     1
 44
1.0
1001
AcadAnnotative
1000
AnnotativeData
1002
{
1070
     1
1070
     0
1002
}
1001
ACAD
1000
MTEXTBEGIN
1070
    73
1070
     1
1070
    44
1040
1.0
1070
    74
1070
     0
1000
MTEXTEND
  0
LWPOLYLINE
  5
226B
330
1F
100
AcDbEntity
  8
SOLBET_Bloczki
100
AcDbPolyline
 90
        4
 70
     0
 43
0.0
 10
230.3771999396602
 20
206.3541747881245
 10
230.3771999396602
 20
200.6385231874428
 10
251.3771999396602
 20
200.6385233915914
 10
251.3771999396602
 20
206.3541747881245
  0
LWPOLYLINE
  5
2272
330
1F
100
AcDbEntity
  8
SOLBET_Bloczki
100
AcDbPolyline
 90
        4
 70
     0
 43
0.0
 10
230.3771999396602
 20
155.5808275368472
 10
230.3771999396602
 20
164.6385231874428
 10
251.3791931071653
 20
164.6385231874428
 10
251.3771999396456
 20
155.5808275368472
  0
LWPOLYLINE
  5
2273
330
1F
100
AcDbEntity
  8
SOLBET_Bloczki
100
AcDbPolyline
 90
        4
 70
     0
 43
0.0
 10
64.67295348577113
 20
155.5808275368472
 10
64.67295348577113
 20
164.6385231874428
 10
85.67295348577113
 20
164.6385231874428
 10
85.67295348577113
 20
155.5808275368472
  0
LWPOLYLINE
  5
2274
330
1F
100
AcDbEntity
  8
SOLBET_Bloczki
100
AcDbPolyline
 90
        4
 70
     0
 43
0.0
 10
64.67295348577113
 20
206.3541747881245
 10
64.67295362652044
 20
200.6385233915914
 10
85.67295348577113
 20
200.6385233915914
 10
85.67295348577113
 20
206.3541747881245
  0
HATCH
  5
2276
330
1F
100
AcDbEntity
  8
SOLBET_Tynki_Posadzki
100
AcDbHatch
 10
0.0
 20
0.0
 30
0.0
210
0.0
220
0.0
230
1.0
  2
AR-CONC
 70
     0
 71
     1
 91
        1
 92
        1
 93
        5
 72
     2
 10
87.03776953541828
 20
179.5843625009823
 40
0.2499999999948557
 50
179.9999999925678
 51
196.8657342987096
 73
     1
 72
     1
 10
86.79852271862705
 20
179.5118300209979
 11
146.1718749616682
 21
179.5118300209979
 72
     1
 10
146.1718749616682
 20
179.5118300209979
 11
146.1718749616682
 21
182.0118300209978
 72
     1
 10
146.1718749616682
 20
182.0118300209978
 11
86.78776953542342
 21
182.0118300209978
 72
     1
 10
86.78776953542342
 20
182.0118300209978
 11
86.78776953542342
 21
179.5843625010147
 97
        1
330
218F
 75
     0
 76
     1
 52
0.0
 41
0.05
 77
     0
 78
    13
 53
50.0
 43
966.5962084941618
 44
15.30769565059563
 45
9.1092334498002
 46
-0.7969542769451543
 79
     2
 49
0.9525000000000002
 49
-10.4775
 53
355.0
 43
966.5962084941618
 44
15.30769565059563
 45
-1.762141298783349
 46
9.552832144108998
 79
     2
 49
0.762
 49
-8.381999999999999
 53
100.451
 43
967.3553084941618
 44
15.24128315059563
 45
7.347125083297962
 46
8.755834391014593
 79
     2
 49
0.8095
 49
-8.9045
 53
46.1842
 43
966.5962084941618
 44
17.84769565059563
 45
13.5539520446065
 46
-2.102116396636357
 79
     2
 49
1.428749999999999
 49
-15.71625
 53
96.6356
 43
967.7257034941618
 44
17.67252065059563
 45
11.87021172331186
 46
12.37127779450246
 79
     2
 49
1.21425
 49
-13.35675
 53
351.184
 43
966.5962084941618
 44
17.84769565059563
 45
11.87023029069669
 46
12.37125589302988
 79
     2
 49
1.143
 49
-12.573
 53
21.0
 43
967.8662084941619
 44
17.21269565059563
 45
7.580743991769164
 46
-5.113275925838125
 79
     2
 49
0.9525000000000002
 49
-10.4775
 53
326.0
 43
967.8662084941619
 44
17.21269565059563
 45
3.090101417382353
 46
9.209398306115962
 79
     2
 49
0.762
 49
-8.381999999999999
 53
71.45140000000001
 43
968.4979334941619
 44
16.78659065059563
 45
10.67082453850622
 46
4.096142885802872
 79
     2
 49
0.8095
 49
-8.9045
 53
37.5
 43
966.5962084941618
 44
15.30769565059563
 45
0.1544301625295909
 46
4.227751943657655
 79
     6
 49
0.0
 49
-8.2804
 49
0.0
 49
-8.509
 49
0.0
 49
-8.41375
 53
7.499999999999999
 43
966.5962084941618
 44
15.30769565059563
 45
3.340983125515287
 46
5.009028740905975
 79
     6
 49
0.0
 49
-4.851399999999999
 49
0.0
 49
-8.0899
 49
0.0
 49
-3.20675
 53
327.5
 43
963.7641084941618
 44
15.30769565059563
 45
6.77952975834357
 46
-0.2864371996336729
 79
     6
 49
0.0
 49
-3.175
 49
0.0
 49
-9.906
 49
0.0
 49
-13.1445
 53
317.5
 43
962.4941084941619
 44
15.30769565059563
 45
7.406459069300902
 46
1.27132455166665
 79
     6
 49
0.0
 49
-4.1275
 49
0.0
 49
-6.5786
 49
0.0
 49
-9.3345
 98
        1
 10
966.5962084941618
 20
15.30769565059563
1001
ACAD
1010
0.0
1020
0.0
1030
0.0
  0
LINE
  5
2294
330
1F
100
AcDbEntity
  8
SOLBET_Izolacja
  6
BATTING
 48
0.049
100
AcDbLine
 10
86.17295348575657
 20
182.0118300209978
 30
0.0
 11
86.17295348577114
 21
176.6385231874428
 31
0.0
  0
LINE
  5
22A5
330
1F
100
AcDbEntity
  8
SOLBET_Izolacja
100
AcDbLine
 10
146.1718749616682
 20
176.6385231874428
 30
0.0
 11
146.1718749616682
 21
179.1385231874428
 31
0.0
  0
LINE
  5
22A6
330
1F
100
AcDbEntity
  8
SOLBET_Izolacja
  6
BATTING
 48
0.12
100
AcDbLine
 10
146.1718749616682
 20
177.8885231874428
 30
0.0
 11
86.67295348577113
 21
177.8885231874428
 31
0.0
  0
LINE
  5
22A7
330
1F
100
AcDbEntity
  8
SOLBET_Izolacja
100
AcDbLine
 10
68.67295348577113
 20
176.638523392078
 30
0.0
 11
71.67295348575658
 21
176.638523392078
 31
0.0
  0
LINE
  5
22A8
330
1F
100
AcDbEntity
  8
SOLBET_Izolacja
100
AcDbLine
 10
68.67295348577113
 20
164.6385231874428
 30
0.0
 11
71.67295348575658
 21
164.6385231874428
 31
0.0
  0
LINE
  5
22AD
330
1F
100
AcDbEntity
  8
SOLBET_Izolacja
  6
BATTING
 48
0.148
100
AcDbLine
 10
70.17295348576396
 20
176.6385231874428
 30
0.0
 11
70.17295348576386
 21
164.6385231874428
 31
0.0
  0
LWPOLYLINE
  5
22CE
102
{ACAD_REACTORS
330
22D3
102
}
330
1F
100
AcDbEntity
  8
SOLBET_Beton
100
AcDbPolyline
 90
        6
 70
     1
 43
0.0
 10
146.1718749616682
 20
167.6385231874428
 10
83.67494665327626
 20
167.6385231874428
 10
83.67494665327626
 20
165.1385231874428
 10
84.17494665329082
 20
164.6385231874428
 10
87.67494665330536
 20
164.6385231874428
 10
146.1718749616682
 20
164.6385231874428
  0
HATCH
  5
22D3
330
1F
100
AcDbEntity
  8
SOLBET_Beton
100
AcDbHatch
 10
0.0
 20
0.0
 30
0.0
210
0.0
220
0.0
230
1.0
  2
ANSI37
 70
     0
 71
     1
 91
        1
 92
        1
 93
        6
 72
     1
 10
146.1718749616682
 20
167.6385231874428
 11
83.67494665327626
 21
167.6385231874428
 72
     1
 10
83.67494665327626
 20
167.6385231874428
 11
83.67494665327626
 21
165.1385231874428
 72
     1
 10
83.67494665327626
 20
165.1385231874428
 11
84.17494665329082
 21
164.6385231874428
 72
     1
 10
84.17494665329082
 20
164.6385231874428
 11
87.67494665330536
 21
164.6385231874428
 72
     1
 10
87.67494665330536
 20
164.6385231874428
 11
146.1718749616682
 21
164.6385231874428
 72
     1
 10
146.1718749616682
 20
164.6385231874428
 11
146.1718749616682
 21
167.6385231874428
 97
        1
330
22CE
 75
     0
 76
     1
 52
0.0
 41
0.5
 77
     0
 78
     2
 53
45.0
 43
966.5962084941618
 44
15.30769565059563
 45
-1.122532015133643
 46
1.122532015133644
 79
     0
 53
135.0
 43
966.5962084941618
 44
15.30769565059563
 45
-1.122532015133644
 46
-1.122532015133643
 79
     0
 98
        1
 10
966.5962084941618
 20
15.30769565059563
1001
ACAD
1010
0.0
1020
0.0
1030
0.0
  0
HATCH
  5
22D5
102
{ACAD_XDICTIONARY
360
27D6
102
}
330
1F
100
AcDbEntity
  8
SOLBET_Zbrojenie_Konstrukcja
 62
     7
100
AcDbHatch
 10
0.0
 20
0.0
 30
0.0
210
0.0
220
0.0
230
1.0
  2
SOLID
 70
     1
 71
     1
 91
        2
 92
        1
 93
       16
 72
     2
 10
72.60442559269134
 20
176.9379769383738
 40
0.1527030439751516
 50
232.4805170811429
 51
252.3561575981378
 73
     1
 72
     2
 10
72.65761756814658
 20
177.1052151770009
 40
0.3281966755174354
 50
252.3561576059505
 51
262.4947782715064
 73
     1
 72
     2
 10
72.69288555398036
 20
177.37291359703
 40
0.5982082954726878
 50
262.4947782694562
 51
270.0000000005512
 73
     1
 72
     2
 10
72.69288555399178
 20
177.3729135970314
 40
0.5982082954740804
 50
269.9999999994569
 51
277.5052217305345
 73
     1
 72
     2
 10
72.72815353981873
 20
177.1052151769173
 40
0.3281966754354397
 50
277.5052217315981
 51
287.6438423972045
 73
     1
 72
     2
 10
72.78134551526524
 20
176.9379769383759
 40
0.1527030439774604
 50
287.6438424020175
 51
307.5194829187087
 73
     1
 72
     2
 10
72.86017699160914
 20
176.8353140592632
 40
0.0232655362361895
 50
307.5194828849478
 51
359.9999999715825
 73
     1
 72
     2
 10
72.86017699160716
 20
176.835314059241
 40
0.0232655362381564
 50
0.0000000263176802
 51
52.48051711264329
 73
     1
 72
     2
 10
72.78134551527177
 20
176.7326511801308
 40
0.1527030439722062
 50
52.48051708286226
 51
72.35615759992372
 73
     1
 72
     2
 10
72.7281535398173
 20
176.5654129415796
 40
0.3281966754419953
 50
72.35615760289665
 51
82.49477826829995
 73
     1
 72
     2
 10
72.69288555397832
 20
176.297714521479
 40
0.598208295468851
 50
82.49477826809805
 51
89.99999999925277
 73
     1
 72
     2
 10
72.69288555399478
 20
176.2977145214656
 40
0.5982082954821806
 50
90.00000000083025
 51
97.50522173181751
 73
     1
 72
     2
 10
72.65761756814582
 20
176.5654129415058
 40
0.3281966755139845
 50
97.50522172844034
 51
107.6438423941031
 73
     1
 72
     2
 10
72.60442559268724
 20
176.7326511801283
 40
0.1527030439750486
 50
107.643842400263
 51
127.5194829169507
 73
     1
 72
     2
 10
72.52559411635546
 20
176.835314059251
 40
0.0232655362332359
 50
127.5194829120216
 51
174.8627062185139
 73
     1
 72
     2
 10
72.52559411635371
 20
176.8353140592531
 40
0.0232655362313159
 50
174.8627062232872
 51
232.4805170897727
 73
     1
 97
        1
330
219F
 92
        1
 93
       16
 72
     2
 10
81.94085626102056
 20
176.9379769384569
 40
0.1527030440498836
 50
52.48051709578998
 51
72.35615761278573
 73
     0
 72
     2
 10
81.88766428555807
 20
177.1052151769189
 40
0.3281966754370635
 50
72.35615760282067
 51
82.4947782683767
 73
     0
 72
     2
 10
81.85239629972427
 20
177.3729135971409
 40
0.5982082955836177
 50
82.49477827015303
 51
90.0000000012481
 73
     0
 72
     2
 10
81.85239629970558
 20
177.3729135970314
 40
0.5982082954740804
 50
89.99999999945691
 51
97.50522173053449
 73
     0
 72
     2
 10
81.81712831387862
 20
177.1052151769173
 40
0.3281966754354397
 50
97.50522173159811
 51
107.6438423972044
 73
     0
 72
     2
 10
81.76393633843211
 20
176.9379769383759
 40
0.1527030439774604
 50
107.6438424020174
 51
127.5194829187087
 73
     0
 72
     2
 10
81.6851048620955
 20
176.8353140592484
 40
0.0232655362288987
 50
127.5194829213265
 51
180.0000000079793
 73
     0
 72
     2
 10
81.68510486209747
 20
176.8353140592558
 40
0.0232655362308805
 50
179.9999999899209
 51
232.4805170762646
 73
     0
 72
     2
 10
81.76393633842559
 20
176.7326511801308
 40
0.1527030439722062
 50
232.4805170828622
 51
252.3561575999238
 73
     0
 72
     2
 10
81.81712831388006
 20
176.5654129415796
 40
0.3281966754419953
 50
252.3561576028967
 51
262.4947782683
 73
     0
 72
     2
 10
81.85239629971905
 20
176.297714521479
 40
0.598208295468851
 50
262.4947782680981
 51
269.9999999992527
 73
     0
 72
     2
 10
81.85239629970984
 20
176.2977145213547
 40
0.5982082955931105
 50
270.0000000001334
 51
277.5052217311207
 73
     0
 72
     2
 10
81.88766428555881
 20
176.5654129415878
 40
0.3281966754336126
 50
277.5052217315701
 51
287.643842397233
 73
     0
 72
     2
 10
81.94085626102467
 20
176.7326511800452
 40
0.1527030440498066
 50
287.6438423856119
 51
307.5194829022971
 73
     0
 72
     2
 10
82.01968773736373
 20
176.8353140592676
 40
0.0232655362245023
 50
307.5194829511285
 51
354.8627062576217
 73
     0
 72
     2
 10
82.01968773736547
 20
176.8353140592399
 40
0.0232655362252526
 50
354.8627061892664
 51
412.4805170557385
 73
     0
 97
        1
330
219D
 75
     0
 76
     1
 98
        1
 10
966.5962084941618
 20
15.30769565059563
1001
ACAD
1010
0.0
1020
0.0
1030
0.0
  0
LWPOLYLINE
  5
22EA
102
{ACAD_REACTORS
330
22EC
102
}
330
1F
100
AcDbEntity
  8
SOLBET_Tynki_Posadzki
100
AcDbPolyline
 90
        4
 70
     1
 43
0.0
 10
311.8761214155572
 20
182.0118300209978
 10
252.4920159893124
 20
182.0118300209978
 10
252.4920159893123
 20
179.5118300209979
 10
311.8761214155572
 20
179.5118300209979
  0
HATCH
  5
22EC
330
1F
100
AcDbEntity
  8
SOLBET_Tynki_Posadzki
100
AcDbHatch
 10
0.0
 20
0.0
 30
0.0
210
0.0
220
0.0
230
1.0
  2
AR-CONC
 70
     0
 71
     1
 91
        1
 92
        1
 93
        4
 72
     1
 10
311.8761214155572
 20
182.0118300209978
 11
252.4920159893124
 21
182.0118300209978
 72
     1
 10
252.4920159893124
 20
182.0118300209978
 11
252.4920159893123
 21
179.5118300209979
 72
     1
 10
252.4920159893123
 20
179.5118300209979
 11
311.8761214155572
 21
179.5118300209979
 72
     1
 10
311.8761214155572
 20
179.5118300209979
 11
311.8761214155572
 21
182.0118300209978
 97
        1
330
22EA
 75
     0
 76
     1
 52
0.0
 41
0.05
 77
     0
 78
    13
 53
50.0
 43
987.4550185650265
 44
15.30769565059563
 45
9.1092334498002
 46
-0.7969542769451543
 79
     2
 49
0.9525000000000002
 49
-10.4775
 53
355.0
 43
987.4550185650265
 44
15.30769565059563
 45
-1.762141298783349
 46
9.552832144108998
 79
     2
 49
0.762
 49
-8.381999999999999
 53
100.451
 43
988.2141185650267
 44
15.24128315059563
 45
7.347125083297962
 46
8.755834391014593
 79
     2
 49
0.8095
 49
-8.9045
 53
46.1842
 43
987.4550185650265
 44
17.84769565059563
 45
13.5539520446065
 46
-2.102116396636357
 79
     2
 49
1.428749999999999
 49
-15.71625
 53
96.6356
 43
988.5845135650267
 44
17.67252065059563
 45
11.87021172331186
 46
12.37127779450246
 79
     2
 49
1.21425
 49
-13.35675
 53
351.184
 43
987.4550185650265
 44
17.84769565059563
 45
11.87023029069669
 46
12.37125589302988
 79
     2
 49
1.143
 49
-12.573
 53
21.0
 43
988.7250185650266
 44
17.21269565059563
 45
7.580743991769164
 46
-5.113275925838125
 79
     2
 49
0.9525000000000002
 49
-10.4775
 53
326.0
 43
988.7250185650266
 44
17.21269565059563
 45
3.090101417382353
 46
9.209398306115962
 79
     2
 49
0.762
 49
-8.381999999999999
 53
71.45140000000001
 43
989.3567435650266
 44
16.78659065059563
 45
10.67082453850622
 46
4.096142885802872
 79
     2
 49
0.8095
 49
-8.9045
 53
37.5
 43
987.4550185650265
 44
15.30769565059563
 45
0.1544301625295909
 46
4.227751943657655
 79
     6
 49
0.0
 49
-8.2804
 49
0.0
 49
-8.509
 49
0.0
 49
-8.41375
 53
7.499999999999999
 43
987.4550185650265
 44
15.30769565059563
 45
3.340983125515287
 46
5.009028740905975
 79
     6
 49
0.0
 49
-4.851399999999999
 49
0.0
 49
-8.0899
 49
0.0
 49
-3.20675
 53
327.5
 43
984.6229185650267
 44
15.30769565059563
 45
6.77952975834357
 46
-0.2864371996336729
 79
     6
 49
0.0
 49
-3.175
 49
0.0
 49
-9.906
 49
0.0
 49
-13.1445
 53
317.5
 43
983.3529185650267
 44
15.30769565059563
 45
7.406459069300902
 46
1.27132455166665
 79
     6
 49
0.0
 49
-4.1275
 49
0.0
 49
-6.5786
 49
0.0
 49
-9.3345
 98
        1
 10
987.4550185650265
 20
15.30769565059563
1001
ACAD
1010
0.0
1020
0.0
1030
0.0
  0
LWPOLYLINE
  5
22EF
102
{ACAD_REACTORS
330
22F1
102
}
330
1F
100
AcDbEntity
  8
SOLBET_Beton
100
AcDbPolyline
 90
        5
 70
     1
 43
0.0
 10
250.3771997189513
 20
167.6385231874428
 10
311.8761214155572
 20
167.6385231874428
 10
311.8761214155572
 20
164.6385231874428
 10
250.879192886471
 20
164.6385231874428
 10
250.3788606919449
 20
165.1385230770884
  0
HATCH
  5
22F1
330
1F
100
AcDbEntity
  8
SOLBET_Beton
100
AcDbHatch
 10
0.0
 20
0.0
 30
0.0
210
0.0
220
0.0
230
1.0
  2
ANSI37
 70
     0
 71
     1
 91
        1
 92
        1
 93
        5
 72
     1
 10
250.3771997189513
 20
167.6385231874428
 11
311.8761214155572
 21
167.6385231874428
 72
     1
 10
311.8761214155572
 20
167.6385231874428
 11
311.8761214155572
 21
164.6385231874428
 72
     1
 10
311.8761214155572
 20
164.6385231874428
 11
250.879192886471
 21
164.6385231874428
 72
     1
 10
250.879192886471
 20
164.6385231874428
 11
250.3788606919449
 21
165.1385230770884
 72
     1
 10
250.3788606919449
 20
165.1385230770884
 11
250.3771997189513
 21
167.6385231874428
 97
        1
330
22EF
 75
     0
 76
     1
 52
0.0
 41
0.7
 77
     0
 78
     2
 53
45.0
 43
987.4550185650265
 44
15.30769565059563
 45
-1.571544821187101
 46
1.571544821187101
 79
     0
 53
135.0
 43
987.4550185650265
 44
15.30769565059563
 45
-1.571544821187101
 46
-1.571544821187101
 79
     0
 98
        1
 10
987.4550185650265
 20
15.30769565059563
1001
ACAD
1010
0.0
1020
0.0
1030
0.0
  0
LINE
  5
22F2
330
1F
100
AcDbEntity
  8
SOLBET_Izolacja
  6
BATTING
 48
0.049
100
AcDbLine
 10
251.8771999396456
 20
182.0118300209978
 30
0.0
 11
251.8771999396456
 21
176.6385231874428
 31
0.0
  0
LINE
  5
22F3
330
1F
100
AcDbEntity
  8
SOLBET_Izolacja
100
AcDbLine
 10
311.8761214155572
 20
176.6385231874428
 30
0.0
 11
311.8761214155572
 21
179.1385231874428
 31
0.0
  0
LINE
  5
22F4
330
1F
100
AcDbEntity
  8
SOLBET_Izolacja
  6
BATTING
 48
0.12
100
AcDbLine
 10
311.8761214155572
 20
177.8885231874428
 30
0.0
 11
252.3771999396312
 21
177.8885231874428
 31
0.0
  0
LINE
  5
22F5
330
1F
100
AcDbEntity
  8
SOLBET_Izolacja
100
AcDbLine
 10
234.3771999396602
 20
176.638523392078
 30
0.0
 11
237.3771999396456
 21
176.638523392078
 31
0.0
  0
LINE
  5
22F6
330
1F
100
AcDbEntity
  8
SOLBET_Izolacja
100
AcDbLine
 10
234.3771999396602
 20
164.6385233920778
 30
0.0
 11
237.3771999396456
 21
164.6385233920778
 31
0.0
  0
LINE
  5
22F7
330
1F
100
AcDbEntity
  8
SOLBET_Izolacja
  6
BATTING
 48
0.148
100
AcDbLine
 10
235.8771999396529
 20
176.638523392078
 30
0.0
 11
235.8771999396529
 21
164.6385233920778
 31
0.0
  0
MTEXT
  5
2309
330
1F
100
AcDbEntity
  8
SOLBET_Wymiary_Opisy
100
AcDbMText
 10
48.4279894808285
 20
191.9776643005693
 30
0.0
 40
2.5
 41
0.0
 71
     3
 72
     1
  1
Zbrojenie MURFOR
  7
Solbet_2_5
 73
     1
 44
1.0
1001
ACAD
1000
MTEXTBEGIN
1070
    73
1070
     1
1070
    44
1040
1.0
1070
    74
1070
     0
1000
MTEXTEND
  0
LEADER
  5
230A
330
1F
100
AcDbEntity
  8
SOLBET_Wymiary_Opisy
100
AcDbLeader
  3
Solbet$7
 73
     0
 75
     1
 40
3.25
 41
31.0
 76
     3
 10
70.17295348576386
 20
171.6894876429605
 30
0.0
 10
53.93490816869371
 20
179.2673435618217
 30
0.0
 10
51.43490816869371
 20
179.2673435618217
 30
0.0
340
230B
213
-1.871493079280753
223
-0.1753245211093599
233
0.0
1001
ACAD
1000
DSTYLE
1002
{
1070
   147
1040
0.625
1070
    77
1070
     1
1002
}
  0
MTEXT
  5
230B
102
{ACAD_REACTORS
330
230A
102
}
330
1F
100
AcDbEntity
  8
SOLBET_Wymiary_Opisy
100
AcDbMText
 10
52.68140124797446
 20
183.317668082931
 30
0.0
 40
2.5
 41
0.0
 71
     3
 72
     1
  1
Warstwa docieplenia
  7
Solbet_2_5
 73
     1
 44
1.0
1001
ACAD
1000
MTEXTBEGIN
1070
    73
1070
     1
1070
    44
1040
1.0
1070
    74
1070
     0
1000
MTEXTEND
  0
MTEXT
  5
230D
102
{ACAD_XDICTIONARY
360
27D8
102
}
330
1F
100
AcDbEntity
  8
SOLBET_Wymiary_Opisy
100
AcDbMText
 10
49.72844552185211
 20
175.7686410375145
 30
0.0
 40
2.5
 41
0.0
 71
     3
 72
     1
  1
P\U+0142ytka SOLBET
  7
Solbet_2_5
 73
     1
 44
1.0
1001
ACAD
1000
MTEXTBEGIN
1070
    73
1070
     1
1070
    44
1040
1.0
1070
    74
1070
     0
1000
MTEXTEND
  0
LEADER
  5
230E
330
1F
100
AcDbEntity
  8
SOLBET_Wymiary_Opisy
100
AcDbLeader
  3
Solbet$7
 73
     0
 75
     1
 40
3.25
 41
27.75
 76
     3
 10
77.85901931127478
 20
167.2811565424344
 30
0.0
 10
52.5415390324049
 20
143.9047947108019
 30
0.0
 10
50.0415390324049
 20
143.9047947108019
 30
0.0
340
230F
213
0.431260170990754
223
-0.1753245211093599
233
0.0
1001
ACAD
1000
DSTYLE
1002
{
1070
   147
1040
0.625
1070
    77
1070
     1
1002
}
  0
MTEXT
  5
230F
102
{ACAD_XDICTIONARY
360
27DA
102
}
102
{ACAD_REACTORS
330
230E
102
}
330
1F
100
AcDbEntity
  8
SOLBET_Wymiary_Opisy
100
AcDbMText
 10
48.98527886141414
 20
147.9551192319113
 30
0.0
 40
2.5
 41
0.0
 71
     3
 72
     1
  1
Wieniec \U+017Celbetowy
  7
Solbet_2_5
 73
     1
 44
1.0
1001
ACAD
1000
MTEXTBEGIN
1070
    73
1070
     1
1070
    44
1040
1.0
1070
    74
1070
     0
1000
MTEXTEND
  0
LEADER
  5
2310
330
1F
100
AcDbEntity
  8
SOLBET_Wymiary_Opisy
100
AcDbLeader
  3
Solbet$7
 73
     0
 74
     0
 75
     1
 40
7.666666666666666
 41
34.75
 76
     3
 10
91.91089013743818
 20
175.2598087501992
 30
0.0
 10
101.9166654908783
 20
188.9078847179538
 30
0.0
 10
104.4166654908783
 20
188.9078847179538
 30
0.0
340
2311
213
1.177601578005123
223
-0.1753245211093599
233
0.0
1001
ACAD
1000
DSTYLE
1002
{
1070
   147
1040
0.625
1070
    77
1070
     1
1002
}
  0
MTEXT
  5
2311
102
{ACAD_XDICTIONARY
360
27DC
102
}
102
{ACAD_REACTORS
330
2310
102
}
330
1F
100
AcDbEntity
  8
SOLBET_Wymiary_Opisy
100
AcDbMText
 10
103.8640639128732
 20
197.3748759057298
 30
0.0
 40
2.5
 41
0.0
 71
     1
 72
     1
  1
Zbrojenie g\U+00F3rne\Pstrefy przypodporowej
  7
Solbet_2_5
 73
     1
 44
1.0
1001
ACAD
1000
MTEXTBEGIN
1070
    73
1070
     1
1070
    44
1040
1.0
1070
    74
1070
     0
1000
MTEXTEND
  0
LINE
  5
2315
330
1F
100
AcDbEntity
  8
SOLBET_Wymiary_Opisy
100
AcDbLine
 10
52.73059105883362
 20
187.9273397794599
 30
0.0
 11
22.35559105883362
 21
187.9273397794599
 31
0.0
1001
ACAD
1000
DSTYLE
1002
{
1070
   147
1040
0.625
1070
    77
1070
     1
1002
}
  0
INSERT
  5
2316
330
1F
100
AcDbEntity
  8
SOLBET_Wymiary_Opisy
100
AcDbBlockReference
  2
_DotSmall
 10
77.17532056360447
 20
177.053194535853
 30
0.0
 41
2.499999999999992
 42
2.5
 43
2.5
 50
331.510307469675
1001
ACAD
1000
DSTYLE
1002
{
1070
   147
1040
0.625
1070
    77
1070
     1
1002
}
  0
LINE
  5
2317
330
1F
100
AcDbEntity
  8
SOLBET_Wymiary_Opisy
100
AcDbLine
 10
77.17532056360447
 20
177.053194535853
 30
0.0
 11
52.73059105883374
 21
187.969727292244
 31
0.0
1001
ACAD
1000
DSTYLE
1002
{
1070
   147
1040
0.625
1070
    77
1070
     1
1002
}
  0
LINE
  5
231A
330
1F
100
AcDbEntity
  8
SOLBET_Wymiary_Opisy
100
AcDbLine
 10
218.6834194754021
 20
188.0446917505765
 30
0.0
 11
188.308419475402
 21
188.0446917505765
 31
0.0
1001
ACAD
1000
DSTYLE
1002
{
1070
   147
1040
0.625
1070
    77
1070
     1
1002
}
  0
MTEXT
  5
231B
330
1F
100
AcDbEntity
  8
SOLBET_Wymiary_Opisy
100
AcDbMText
 10
214.3808178973969
 20
192.0950162716859
 30
0.0
 40
2.5
 41
0.0
 71
     3
 72
     1
  1
Zbrojenie MURFOR
  7
Solbet_2_5
 73
     1
 44
1.0
1001
ACAD
1000
MTEXTBEGIN
1070
    73
1070
     1
1070
    44
1040
1.0
1070
    74
1070
     0
1000
MTEXTEND
  0
MTEXT
  5
231D
330
1F
100
AcDbEntity
  8
SOLBET_Wymiary_Opisy
100
AcDbMText
 10
218.6342296645429
 20
183.4350200540477
 30
0.0
 40
2.5
 41
0.0
 71
     3
 72
     1
  1
Warstwa docieplenia
  7
Solbet_2_5
 73
     1
 44
1.0
1001
ACAD
1000
MTEXTBEGIN
1070
    73
1070
     1
1070
    44
1040
1.0
1070
    74
1070
     0
1000
MTEXTEND
  0
MTEXT
  5
231F
102
{ACAD_XDICTIONARY
360
27DE
102
}
330
1F
100
AcDbEntity
  8
SOLBET_Wymiary_Opisy
100
AcDbMText
 10
213.2590939011213
 20
175.8859930086311
 30
0.0
 40
2.5
 41
0.0
 71
     3
 72
     1
  1
P\U+0142ytka SOLBET
  7
Solbet_2_5
 73
     1
 44
1.0
1001
ACAD
1000
MTEXTBEGIN
1070
    73
1070
     1
1070
    44
1040
1.0
1070
    74
1070
     0
1000
MTEXTEND
  0
LEADER
  5
2320
330
1F
100
AcDbEntity
  8
SOLBET_Wymiary_Opisy
100
AcDbLeader
  3
Solbet$7
 73
     0
 75
     1
 40
3.25
 41
27.75
 76
     3
 10
243.8118477278432
 20
167.3985085135511
 30
0.0
 10
218.7954009827793
 20
144.0221466819186
 30
0.0
 10
216.2954009827792
 20
144.0221466819186
 30
0.0
340
2321
213
0.7322937047966889
223
-0.1753245211093599
233
0.0
1001
ACAD
1000
DSTYLE
1002
{
1070
   147
1040
0.625
1070
    77
1070
     1
1002
}
  0
MTEXT
  5
2321
102
{ACAD_XDICTIONARY
360
27E0
102
}
102
{ACAD_REACTORS
330
2320
102
}
330
1F
100
AcDbEntity
  8
SOLBET_Wymiary_Opisy
100
AcDbMText
 10
214.9381072779826
 20
148.072471203028
 30
0.0
 40
2.5
 41
0.0
 71
     3
 72
     1
  1
Wieniec \U+017Celbetowy
  7
Solbet_2_5
 73
     1
 44
1.0
1001
ACAD
1000
MTEXTBEGIN
1070
    73
1070
     1
1070
    44
1040
1.0
1070
    74
1070
     0
1000
MTEXTEND
  0
LEADER
  5
2322
330
1F
100
AcDbEntity
  8
SOLBET_Wymiary_Opisy
100
AcDbLeader
  3
Solbet$7
 73
     0
 74
     0
 75
     1
 40
7.666666666666666
 41
34.75
 76
     3
 10
257.8637185540066
 20
175.3771607213159
 30
0.0
 10
267.8694939074468
 20
189.0252366890704
 30
0.0
 10
270.3694939074468
 20
189.0252366890704
 30
0.0
340
2323
213
1.177601578005123
223
-0.1753245211093599
233
0.0
1001
ACAD
1000
DSTYLE
1002
{
1070
   147
1040
0.625
1070
    77
1070
     1
1002
}
  0
MTEXT
  5
2323
102
{ACAD_XDICTIONARY
360
27E2
102
}
102
{ACAD_REACTORS
330
2322
102
}
330
1F
100
AcDbEntity
  8
SOLBET_Wymiary_Opisy
100
AcDbMText
 10
269.8168923294417
 20
197.4922278768465
 30
0.0
 40
2.5
 41
0.0
 71
     1
 72
     1
  1
Zbrojenie g\U+00F3rne\Pstrefy przypodporowej
  7
Solbet_2_5
 73
     1
 44
1.0
1001
ACAD
1000
MTEXTBEGIN
1070
    73
1070
     1
1070
    44
1040
1.0
1070
    74
1070
     0
1000
MTEXTEND
  0
INSERT
  5
2324
330
1F
100
AcDbEntity
  8
SOLBET_Wymiary_Opisy
100
AcDbBlockReference
  2
_DotSmall
 10
243.0385451456213
 20
177.09547904963
 30
0.0
 41
2.499999999999992
 42
2.5
 43
2.5
 50
331.510307469675
1001
ACAD
1000
DSTYLE
1002
{
1070
   147
1040
0.625
1070
    77
1070
     1
1002
}
  0
LINE
  5
2325
330
1F
100
AcDbEntity
  8
SOLBET_Wymiary_Opisy
100
AcDbLine
 10
243.0385451456213
 20
177.09547904963
 30
0.0
 11
218.6834194754021
 21
188.0870792633606
 31
0.0
1001
ACAD
1000
DSTYLE
1002
{
1070
   147
1040
0.625
1070
    77
1070
     1
1002
}
  0
HATCH
  5
2327
102
{ACAD_XDICTIONARY
360
27E4
102
}
330
1F
100
AcDbEntity
  8
SOLBET_Zbrojenie_Konstrukcja
 62
     7
100
AcDbHatch
 10
0.0
 20
0.0
 30
0.0
210
0.0
220
0.0
230
1.0
  2
SOLID
 70
     1
 71
     1
 91
        2
 92
        1
 93
       16
 72
     2
 10
238.3086720465804
 20
176.9379769383738
 40
0.1527030439751516
 50
232.4805170811429
 51
252.3561575981378
 73
     1
 72
     2
 10
238.3618640220356
 20
177.1052151770009
 40
0.3281966755174354
 50
252.3561576059505
 51
262.4947782715064
 73
     1
 72
     2
 10
238.3971320078694
 20
177.37291359703
 40
0.5982082954726895
 50
262.4947782694548
 51
270.0000000005499
 73
     1
 72
     2
 10
238.3971320078808
 20
177.3729135970314
 40
0.5982082954740804
 50
269.9999999994583
 51
277.5052217305359
 73
     1
 72
     2
 10
238.4323999937077
 20
177.1052151769173
 40
0.3281966754354416
 50
277.5052217316006
 51
287.6438423972068
 73
     1
 72
     2
 10
238.4855919691543
 20
176.9379769383759
 40
0.1527030439774561
 50
287.6438424020124
 51
307.5194829187045
 73
     1
 72
     2
 10
238.5644234454909
 20
176.8353140592484
 40
0.0232655362288987
 50
307.5194829213265
 51
360.0000000079793
 73
     1
 72
     2
 10
238.5644234454889
 20
176.8353140592558
 40
0.0232655362308663
 50
359.9999999899209
 51
412.4805170762923
 73
     1
 72
     2
 10
238.4855919691608
 20
176.7326511801308
 40
0.1527030439722062
 50
52.48051708286226
 51
72.35615759992372
 73
     1
 72
     2
 10
238.4323999937063
 20
176.5654129415796
 40
0.3281966754419953
 50
72.35615760289665
 51
82.49477826829995
 73
     1
 72
     2
 10
238.3971320078674
 20
176.297714521479
 40
0.5982082954688491
 50
82.4947782680994
 51
89.99999999925412
 73
     1
 72
     2
 10
238.3971320078838
 20
176.2977145214656
 40
0.5982082954821806
 50
90.00000000083025
 51
97.50522173181751
 73
     1
 72
     2
 10
238.3618640220348
 20
176.5654129415058
 40
0.3281966755139864
 50
97.50522172844279
 51
107.6438423941055
 73
     1
 72
     2
 10
238.3086720465763
 20
176.7326511801283
 40
0.1527030439750486
 50
107.643842400263
 51
127.5194829169507
 73
     1
 72
     2
 10
238.2298405702372
 20
176.8353140592344
 40
0.0232655362419608
 50
127.5194828728869
 51
174.8627061794031
 73
     1
 72
     2
 10
238.2298405702355
 20
176.8353140592663
 40
0.0232655362373767
 50
174.8627062573778
 51
232.4805171238495
 73
     1
 97
        1
330
21DA
 92
        1
 93
       16
 72
     2
 10
247.6451027148951
 20
176.9379769383738
 40
0.1527030439751516
 50
52.48051708114285
 51
72.35615759813782
 73
     0
 72
     2
 10
247.5919107394471
 20
177.1052151769189
 40
0.3281966754370635
 50
72.35615760282067
 51
82.4947782683767
 73
     0
 72
     2
 10
247.5566427536133
 20
177.3729135971409
 40
0.5982082955836195
 50
82.49477827015166
 51
90.00000000124677
 73
     0
 72
     2
 10
247.5566427535946
 20
177.3729135970314
 40
0.5982082954740804
 50
89.99999999945828
 51
97.50522173053585
 73
     0
 72
     2
 10
247.5213747677677
 20
177.1052151769173
 40
0.3281966754354416
 50
97.50522173160057
 51
107.6438423972068
 73
     0
 72
     2
 10
247.4681827923211
 20
176.9379769383759
 40
0.1527030439774561
 50
107.6438424020124
 51
127.5194829187044
 73
     0
 72
     2
 10
247.3893513159845
 20
176.8353140592484
 40
0.0232655362288987
 50
127.5194829213265
 51
180.0000000079793
 73
     0
 72
     2
 10
247.3893513159865
 20
176.8353140592558
 40
0.0232655362308663
 50
179.9999999899209
 51
232.4805170762923
 73
     0
 72
     2
 10
247.4681827923146
 20
176.7326511801308
 40
0.1527030439722062
 50
232.4805170828622
 51
252.3561575999238
 73
     0
 72
     2
 10
247.5213747677691
 20
176.5654129415796
 40
0.3281966754419953
 50
252.3561576028967
 51
262.4947782683
 73
     0
 72
     2
 10
247.556642753608
 20
176.297714521479
 40
0.5982082954688491
 50
262.4947782680994
 51
269.9999999992541
 73
     0
 72
     2
 10
247.5566427535989
 20
176.2977145213547
 40
0.5982082955931105
 50
270.0000000001334
 51
277.5052217311207
 73
     0
 72
     2
 10
247.5919107394478
 20
176.5654129415878
 40
0.3281966754336144
 50
277.5052217315725
 51
287.6438423972354
 73
     0
 72
     2
 10
247.6451027148991
 20
176.7326511801283
 40
0.1527030439750486
 50
287.643842400263
 51
307.5194829169508
 73
     0
 72
     2
 10
247.7239341912309
 20
176.835314059251
 40
0.0232655362332273
 50
307.5194829119938
 51
354.8627062185108
 73
     0
 72
     2
 10
247.7239341912327
 20
176.8353140592531
 40
0.0232655362313159
 50
354.8627062232872
 51
412.4805170897727
 73
     0
 97
        1
330
21D8
 75
     0
 76
     1
 98
        1
 10
987.4550185650265
 20
15.30769565059563
1001
ACAD
1010
0.0
1020
0.0
1030
0.0
  0
CIRCLE
  5
2348
330
1F
100
AcDbEntity
  8
SOLBET_Wymiary_Opisy
100
AcDbCircle
 10
143.6413355176246
 20
178.0765301592705
 30
0.0
 40
6.72794034480946
  0
LEADER
  5
2349
330
1F
100
AcDbEntity
  8
SOLBET_Wymiary_Opisy
100
AcDbLeader
  3
Solbet$7
 73
     0
 74
     0
 75
     1
 40
5.0
 41
4.0
 76
     3
 10
147.2629091877415
 20
183.7465729664485
 30
0.0
 10
150.2340593885581
 20
187.7450597054924
 30
0.0
 10
152.7340593885581
 20
187.7450597054924
 30
0.0
213
0.8103787685154202
223
-0.1753245211093599
233
0.0
1001
ACAD
1000
DSTYLE
1002
{
1070
   341
1005
1EF2
1070
   147
1040
0.625
1070
    77
1070
     1
1002
}
  0
MTEXT
  5
234A
102
{ACAD_REACTORS
330
2349
102
}
330
1F
100
AcDbEntity
  8
SOLBET_Wymiary_Opisy
100
AcDbMText
 10
156.5486806200426
 20
193.5453842266017
 30
0.0
 40
5.0
 41
0.0
 71
     3
 72
     1
  1
A
  7
Solbet_5
 73
     1
 44
1.0
1001
ACAD
1000
MTEXTBEGIN
1070
    73
1070
     1
1070
    44
1040
1.0
1070
    74
1070
     0
1000
MTEXTEND
  0
LEADER
  5
234B
330
1F
100
AcDbEntity
  8
SOLBET_Wymiary_Opisy
100
AcDbLeader
  3
Solbet$7
 73
     0
 74
     0
 75
     1
 40
3.5
 41
37.25
 76
     3
 10
111.3968562871669
 20
95.7569076863748
 30
0.0
 10
133.1905583871212
 20
104.8765124070493
 30
0.0
 10
135.6905583871212
 20
104.8765124070493
 30
0.0
213
1.177601578005123
223
-0.1753245211093599
233
0.0
1001
ACAD
1000
DSTYLE
1002
{
1070
   147
1040
0.625
1070
    77
1070
     1
1002
}
  0
MTEXT
  5
234C
102
{ACAD_XDICTIONARY
360
27E6
102
}
102
{ACAD_REACTORS
330
234B
102
}
330
1F
100
AcDbEntity
  8
SOLBET_Wymiary_Opisy
100
AcDbMText
 10
135.1379568091161
 20
109.1768369281586
 30
0.0
 40
2.5
 41
0.0
 71
     1
 72
     1
  1
Warstwa wyko\U+0144czeniowa
  7
Solbet_2_5
 73
     1
 44
1.0
1001
ACAD
1000
MTEXTBEGIN
1070
    73
1070
     1
1070
    44
1040
1.0
1070
    74
1070
     0
1000
MTEXTEND
  0
LEADER
  5
234D
330
1F
100
AcDbEntity
  8
SOLBET_Wymiary_Opisy
100
AcDbLeader
  3
Solbet$7
 73
     0
 74
     0
 75
     1
 40
3.25
 41
32.5
 76
     3
 10
109.0472432760866
 20
87.99078886995596
 30
0.0
 10
133.175472785412
 20
98.63530587645858
 30
0.0
 10
135.675472785412
 20
98.63530587645858
 30
0.0
213
0.0
223
-0.2322806831707567
233
0.0
1001
ACAD
1000
DSTYLE
1002
{
1070
   147
1040
0.625
1070
    77
1070
     1
1002
}
  0
MTEXT
  5
234E
102
{ACAD_REACTORS
330
234D
102
}
330
1F
100
AcDbEntity
  8
SOLBET_Wymiary_Opisy
100
AcDbMText
 10
135.1379568091161
 20
102.7425865596293
 30
0.0
 40
2.5
 41
0.0
 71
     1
 72
     1
  1
Wylewka jastrychowa
  7
Solbet_2_5
 73
     1
 44
1.0
1001
ACAD
1000
MTEXTBEGIN
1070
    73
1070
     1
1070
    44
1040
1.0
1070
    74
1070
     0
1000
MTEXTEND
  0
LEADER
  5
234F
330
1F
100
AcDbEntity
  8
SOLBET_Wymiary_Opisy
100
AcDbLeader
  3
Solbet$7
 73
     0
 74
     0
 75
     1
 40
3.25
 41
19.75
 76
     3
 10
111.0857921097858
 20
81.09712917026611
 30
0.0
 10
133.2874446046414
 20
92.40014879768081
 30
0.0
 10
135.7874446046414
 20
92.40014879768081
 30
0.0
213
0.0
223
-0.2322806831707567
233
0.0
1001
ACAD
1000
DSTYLE
1002
{
1070
   147
1040
0.625
1070
    77
1070
     1
1002
}
  0
MTEXT
  5
2350
102
{ACAD_REACTORS
330
234F
102
}
330
1F
100
AcDbEntity
  8
SOLBET_Wymiary_Opisy
100
AcDbMText
 10
135.1379568091161
 20
96.50742948085156
 30
0.0
 40
2.5
 41
0.0
 71
     1
 72
     1
  1
Hydroizolacja
  7
Solbet_2_5
 73
     1
 44
1.0
1001
ACAD
1000
MTEXTBEGIN
1070
    73
1070
     1
1070
    44
1040
1.0
1070
    74
1070
     0
1000
MTEXTEND
  0
LEADER
  5
2351
330
1F
100
AcDbEntity
  8
SOLBET_Wymiary_Opisy
100
AcDbLeader
  3
Solbet$7
 73
     0
 74
     0
 75
     1
 40
3.25
 41
36.5
 76
     3
 10
114.6921381182554
 20
71.58869075997067
 30
0.0
 10
133.0935672300725
 20
82.46622677144603
 30
0.0
 10
135.5935672300725
 20
82.46622677144603
 30
0.0
213
0.0
223
-0.2322806831707567
233
0.0
1001
ACAD
1000
DSTYLE
1002
{
1070
   147
1040
0.625
1070
    77
1070
     1
1002
}
  0
MTEXT
  5
2352
102
{ACAD_XDICTIONARY
360
27E8
102
}
102
{ACAD_REACTORS
330
2351
102
}
330
1F
100
AcDbEntity
  8
SOLBET_Wymiary_Opisy
100
AcDbMText
 10
135.1379568091161
 20
86.78548636191464
 30
0.0
 40
2.5
 41
0.0
 71
     1
 72
     1
  1
P\U+0142yty izolacyjne twarde
  7
Solbet_2_5
 73
     1
 44
1.0
1001
ACAD
1000
MTEXTBEGIN
1070
    73
1070
     1
1070
    44
1040
1.0
1070
    74
1070
     0
1000
MTEXTEND
  0
LINE
  5
2353
330
1F
100
AcDbEntity
  8
SOLBET_Izolacja
100
AcDbLine
 10
77.22118747338845
 20
67.61793260240563
 30
0.0
 11
121.1075334129946
 21
67.61793260240563
 31
0.0
  0
LINE
  5
2354
330
1F
100
AcDbEntity
  8
SOLBET_Izolacja
100
AcDbLine
 10
77.22118747338845
 20
80.11793260240557
 30
0.0
 11
121.1075334129946
 21
80.11793260240564
 31
0.0
  0
LINE
  5
2355
330
1F
100
AcDbEntity
  8
SOLBET_Tynki_Posadzki
100
AcDbLine
 10
85.83638033543957
 20
96.98446677018166
 30
0.0
 11
121.1075334129946
 21
96.98446677018166
 31
0.0
  0
LINE
  5
2356
330
1F
100
AcDbEntity
  8
SOLBET_Emulsje_Folie
100
AcDbLine
 10
77.42144896942955
 20
81.09712917026611
 30
0.0
 11
121.1075334129946
 21
81.09712917026611
 31
0.0
  0
HATCH
  5
2357
330
1F
100
AcDbEntity
  8
SOLBET_Tynki_Posadzki
100
AcDbHatch
 10
0.0
 20
0.0
 30
0.0
210
0.0
220
0.0
230
1.0
  2
AR-CONC
 70
     0
 71
     0
 91
        1
 92
        5
 93
        4
 72
     2
 10
110.2751892293463
 20
73.86793260240574
 40
33.63970172404727
 50
142.2031821742316
 51
166.0379938227853
 73
     1
 72
     1
 10
77.62934102186091
 20
81.98446677018262
 11
121.1075334129942
 21
81.98446677018262
 72
     1
 10
121.1075334129946
 20
81.98446677018262
 11
121.1075334129951
 21
94.48446677018148
 72
     1
 10
121.107533412995
 20
94.48446677018148
 11
83.69346522596776
 21
94.48446677018148
 97
        0
 75
     0
 76
     1
 52
0.0
 41
0.03
 77
     0
 78
    13
 53
50.0
 43
747.2033843497501
 44
-3.26408617633195
 45
5.46554006988012
 46
-0.4781725661670926
 79
     2
 49
0.5715
 49
-6.2865
 53
355.0
 43
747.2033843497501
 44
-3.26408617633195
 45
-1.057284779270009
 46
5.731699286465398
 79
     2
 49
0.4572
 49
-5.029199999999999
 53
100.451
 43
747.6588443497501
 44
-3.303933676331958
 45
4.408275049978777
 46
5.253500634608755
 79
     2
 49
0.4857000000000001
 49
-5.342699999999999
 53
46.1842
 43
747.2033843497501
 44
-1.740086176331949
 45
8.132371226763897
 46
-1.261269837981814
 79
     2
 49
0.8572499999999999
 49
-9.429749999999998
 53
96.6356
 43
747.88108134975
 44
-1.845191176331958
 45
7.122127033987114
 46
7.422766676701476
 79
     2
 49
0.7285500000000001
 49
-8.014049999999999
 53
351.184
 43
747.2033843497501
 44
-1.740086176331949
 45
7.122138174418017
 46
7.422753535817929
 79
     2
 49
0.6858
 49
-7.5438
 53
21.0
 43
747.9653843497501
 44
-2.121086176331949
 45
4.548446395061498
 46
-3.067965555502874
 79
     2
 49
0.5715
 49
-6.2865
 53
326.0
 43
747.9653843497501
 44
-2.121086176331949
 45
1.854060850429411
 46
5.525638983669577
 79
     2
 49
0.4572
 49
-5.029199999999999
 53
71.45140000000001
 43
748.3444193497501
 44
-2.376749176331948
 45
6.402494723103733
 46
2.457685731481723
 79
     2
 49
0.4857000000000001
 49
-5.342699999999999
 53
37.5
 43
747.2033843497501
 44
-3.26408617633195
 45
0.0926580975177545
 46
2.536651166194593
 79
     6
 49
0.0
 49
-4.968239999999999
 49
0.0
 49
-5.1054
 49
0.0
 49
-5.04825
 53
7.499999999999999
 43
747.2033843497501
 44
-3.26408617633195
 45
2.004589875309172
 46
3.005417244543585
 79
     6
 49
0.0
 49
-2.910839999999999
 49
0.0
 49
-4.853939999999999
 49
0.0
 49
-1.92405
 53
327.5
 43
745.50412434975
 44
-3.26408617633195
 45
4.067717855006141
 46
-0.1718623197802037
 79
     6
 49
0.0
 49
-1.905
 49
0.0
 49
-5.943599999999999
 49
0.0
 49
-7.886699999999999
 53
317.5
 43
744.7421243497501
 44
-3.26408617633195
 45
4.443875441580541
 46
0.7627947309999904
 79
     6
 49
0.0
 49
-2.476499999999999
 49
0.0
 49
-3.947159999999999
 49
0.0
 49
-5.600699999999999
 47
0.0387476598051738
 98
        1
 10
100.5779777735383
 20
88.08200506779645
1001
ACAD
1010
0.0
1020
0.0
1030
0.0
  0
LWPOLYLINE
  5
2358
330
1F
100
AcDbEntity
  8
SOLBET_Tynki_Posadzki
100
AcDbPolyline
 90
        4
 70
     0
 43
0.0
 10
77.62934102186091
 20
81.98446677018262
 10
121.1075334129946
 20
81.98446677018262
 10
121.107533412995
 20
94.48446677018166
 10
83.69346522596833
 20
94.48446677018166
1001
ASO_SCHRAFF
1005
0
1070
     1
1002
{
1070
     1
1005
0
1002
}
1002
{
1070
     2
1005
0
1002
}
1002
{
1070
     4
1000
AR-CONC
1040
0.01
1040
0.0
1070
     0
1000
T__SCHR
1070
   256
1000
_bylayer
1040
50.0
1070
     1
1002
}
  0
LINE
  5
235A
330
1F
100
AcDbEntity
  8
SOLBET_Izolacja
  6
BATTING
 48
0.6
100
AcDbLine
 10
76.63548750529935
 20
73.86793260240563
 30
0.0
 11
121.1075334129946
 21
73.86793260240563
 31
0.0
  0
ARC
  5
235B
330
1F
100
AcDbEntity
  8
SOLBET_Wymiary_Opisy
100
AcDbCircle
 10
110.2751892293463
 20
73.86793260240563
 30
0.0
 40
33.6397017240473
100
AcDbArc
 50
136.5926968744823
 51
288.7845676764008
  0
MTEXT
  5
235C
102
{ACAD_XDICTIONARY
360
2699
102
}
330
1F
100
AcDbEntity
  8
SOLBET_Wymiary_Opisy
100
AcDbMText
 10
86.50418786312684
 20
125.6507811002758
 30
0.0
 40
5.0
 41
30.77919768571883
 71
     1
 72
     5
  1
\pxqc;A\P(5 : 1)
  7
Solbet_5
 73
     1
 44
1.0
1001
ACAD
1000
MTEXTBEGIN
1070
    73
1070
     1
1070
    44
1040
1.0
1070
    74
1070
     0
1000
MTEXTEND
1000
ACAD_MTEXT_DEFINED_HEIGHT_BEGIN
1070
    46
1040
23.42535011036716
1000
ACAD_MTEXT_DEFINED_HEIGHT_END
  0
LINE
  5
235E
330
1F
100
AcDbEntity
  8
SOLBET_Zbrojenie_Konstrukcja
100
AcDbLine
 10
121.1075334129946
 20
56.82902736583155
 30
0.0
 11
81.26992694089393
 21
56.82902736583155
 31
0.0
  0
LINE
  5
235F
330
1F
100
AcDbEntity
  8
SOLBET_Zbrojenie_Konstrukcja
100
AcDbLine
 10
107.5302157002441
 20
56.82902736583155
 30
0.0
 11
116.8173901839626
 21
40.87052151074134
 31
0.0
  0
LINE
  5
2360
330
1F
100
AcDbEntity
  8
SOLBET_Zbrojenie_Konstrukcja
100
AcDbLine
 10
107.5302157002441
 20
56.82902736583155
 30
0.0
 11
99.16139710900132
 21
42.11713486772454
 31
0.0
  0
LINE
  5
2361
330
1F
100
AcDbEntity
  8
SOLBET_Wymiary_Opisy
100
AcDbLine
 10
121.1075334129946
 20
96.98446677018166
 30
0.0
 11
121.1075334129946
 21
42.02001506342274
 31
0.0
  0
INSERT
  5
23C6
330
1F
100
AcDbEntity
  8
SOLBET_Wymiary_Opisy
100
AcDbBlockReference
  2
_DotSmall
 10
67.03975781185886
 20
167.533802634116
 30
0.0
 41
2.5
 42
2.5
 43
2.5
 50
346.3107619322875
1001
ACAD
1000
DSTYLE
1002
{
1070
   147
1040
0.625
1070
    77
1070
     1
1002
}
  0
LWPOLYLINE
  5
23C7
330
1F
100
AcDbEntity
  8
SOLBET_Wymiary_Opisy
100
AcDbPolyline
 90
        3
 70
     0
 43
0.0
 10
67.03975781185886
 20
167.533802634116
 10
52.73059105883362
 20
171.7967585947742
 10
25.66312369935304
 20
171.7967585947742
1001
ACAD
1000
DSTYLE
1002
{
1070
   147
1040
0.625
1070
    77
1070
     1
1002
}
  0
INSERT
  5
23C9
330
1F
100
AcDbEntity
  8
SOLBET_Wymiary_Opisy
100
AcDbBlockReference
  2
_DotSmall
 10
232.9925862284273
 20
167.6511546052326
 30
0.0
 41
2.5
 42
2.5
 43
2.5
 50
347.929981944317
1001
ACAD
1000
DSTYLE
1002
{
1070
   147
1040
0.625
1070
    77
1070
     1
1002
}
  0
LWPOLYLINE
  5
23CA
330
1F
100
AcDbEntity
  8
SOLBET_Wymiary_Opisy
100
AcDbPolyline
 90
        3
 70
     0
 43
0.0
 10
232.9925862284273
 20
167.6511546052326
 10
218.6834194754021
 20
171.8356684875218
 10
189.5486172858147
 20
171.8356684875218
1001
ACAD
1000
DSTYLE
1002
{
1070
   147
1040
0.625
1070
    77
1070
     1
1002
}
  0
LINE
  5
245E
330
1F
100
AcDbEntity
  8
SOLBET_Zbrojenie_Konstrukcja
100
AcDbLine
 10
83.67494665327626
 20
165.572889184623
 30
0.0
 11
81.30078795181384
 21
165.572889184623
 31
0.0
  0
LINE
  5
24B5
330
1F
100
AcDbEntity
  8
SOLBET_Tynki_Posadzki
100
AcDbLine
 10
86.17295348575657
 20
164.1385231874428
 30
0.0
 11
146.1718749616682
 21
164.1385231874428
 31
0.0
  0
LINE
  5
24B9
330
1F
100
AcDbEntity
  8
SOLBET_Tynki_Posadzki
100
AcDbLine
 10
251.8771999396456
 20
164.1385231874428
 30
0.0
 11
311.8761214155572
 21
164.1385231874428
 31
0.0
  0
LINE
  5
25EA
330
1F
100
AcDbEntity
  8
SOLBET_Zbrojenie_Konstrukcja
100
AcDbLine
 10
72.88344252784532
 20
176.835314059241
 30
0.0
 11
81.6618393258666
 21
176.8353140592558
 31
0.0
  0
LINE
  5
25EB
330
1F
100
AcDbEntity
  8
SOLBET_Zbrojenie_Konstrukcja
100
AcDbLine
 10
238.5876889817198
 20
176.8353140592558
 30
0.0
 11
247.3660857797556
 21
176.8353140592558
 31
0.0
  0
INSERT
  5
25EC
330
1F
100
AcDbEntity
  8
SOLBET_Wymiary_Opisy
100
AcDbBlockReference
  2
_DotSmall
 10
236.1257819023323
 20
171.8068396140772
 30
0.0
 41
2.5
 42
2.5
 43
2.5
 50
336.403682525341
1001
ACAD
1000
DSTYLE
1002
{
1070
   147
1040
0.625
1070
    77
1070
     1
1002
}
  0
LWPOLYLINE
  5
25ED
330
1F
100
AcDbEntity
  8
SOLBET_Wymiary_Opisy
100
AcDbPolyline
 90
        3
 70
     0
 43
0.0
 10
236.1257819023323
 20
171.8068396140772
 10
218.7777158394165
 20
179.3846955329383
 10
187.9718433460248
 20
179.3846955329383
1001
ACAD
1000
DSTYLE
1002
{
1070
   147
1040
0.625
1070
    77
1070
     1
1002
}
  0
INSERT
  5
26E7
330
1F
100
AcDbEntity
  8
SOLBET_Bloczki
100
AcDbBlockReference
  2
SOLBET_Plytka_80x240x590_KG600_PRA
 10
64.67295348577113
 20
164.6385231874428
 30
0.0
  0
INSERT
  5
26E8
330
1F
100
AcDbEntity
  8
SOLBET_Bloczki
100
AcDbBlockReference
  2
SOLBET_Plytka_80x240x590_KG600_PRA
 10
230.3771999396602
 20
164.6385231874428
 30
0.0
  0
INSERT
  5
2740
330
1F
100
AcDbEntity
  8
SOLBET_Bloczki
100
AcDbBlockReference
  2
SOLBET_Bloczek_Ideal_420x240x590_P+W_KG400_PRA
 10
64.67295331596346
 20
176.638523392078
 30
0.0
  0
INSERT
  5
2741
330
1F
100
AcDbEntity
  8
SOLBET_Bloczki
100
AcDbBlockReference
  2
SOLBET_Bloczek_Ideal_420x240x590_P+W_KG400_PRA
 10
64.67295345671278
 20
188.6385235962265
 30
0.0
  0
INSERT
  5
2742
330
1F
100
AcDbEntity
  8
SOLBET_Bloczki
100
AcDbBlockReference
  2
SOLBET_Bloczek_Ideal_420x240x590_P+W_KG400_PRA
 10
230.3771997698525
 20
176.638523392078
 30
0.0
  0
INSERT
  5
2743
330
1F
100
AcDbEntity
  8
SOLBET_Bloczki
100
AcDbBlockReference
  2
SOLBET_Bloczek_Ideal_420x240x590_P+W_KG400_PRA
 10
230.3771999106018
 20
188.6385235962265
 30
0.0
  0
MTEXT
  5
278A
102
{ACAD_XDICTIONARY
360
278B
102
}
330
1F
100
AcDbEntity
  8
SOLBET_Wymiary_Opisy
100
AcDbMText
 10
304.0297429942957
 20
7.273150535415538
 30
0.0
 40
5.0
 41
0.0
 71
     1
 72
     5
  1
Skala 1:20
  7
Solbet_5
 73
     1
 44
1.0
1001
ACAD
1000
MTEXTBEGIN
1070
    73
1070
     1
1070
    44
1040
1.0
1070
    74
1070
     0
1000
MTEXTEND
1000
ACAD_MTEXT_DEFINED_HEIGHT_BEGIN
1070
    46
1040
5.395147572682731
1000
ACAD_MTEXT_DEFINED_HEIGHT_END
  0
LWPOLYLINE
  5
278D
330
1F
100
AcDbEntity
  8
SOLBET_Ramka_05
100
AcDbPolyline
 90
        4
 70
     1
 43
0.0
 10
301.0110768733818
 20
9.804221198935465
 10
337.127253760804
 20
9.804221198935465
 10
337.127253760804
 20
0.0
 10
301.0110768733819
 20
0.0
  0
ENDSEC
  0
SECTION
  2
OBJECTS
  0
DICTIONARY
  5
C
330
0
100
AcDbDictionary
281
     1
  3
ACAD_COLOR
350
6B
  3
ACAD_GROUP
350
D
  3
ACAD_LAYOUT
350
1A
  3
ACAD_MATERIAL
350
6A
  3
ACAD_MLEADERSTYLE
350
12D
  3
ACAD_MLINESTYLE
350
17
  3
ACAD_PLOTSETTINGS
350
19
  3
ACAD_PLOTSTYLENAME
350
E
  3
ACAD_SCALELIST
350
10C
  3
ACAD_TABLESTYLE
350
7E
  3
ACAD_VISUALSTYLE
350
EF
  3
ACDB_RECOMPOSE_DATA
350
15D
  3
AcDbVariableDictionary
350
5E
  3
DWGPROPS
350
27C6
  0
DICTIONARY
  5
443
330
8
100
AcDbDictionary
280
     1
281
     1
  0
DICTIONARY
  5
3E5
330
2
100
AcDbDictionary
280
     1
281
     1
  3
ACAD_LAYERFILTERS
360
1883
  3
ACLYDICTIONARY
360
1882
  0
DICTIONARY
  5
13C
330
10
100
AcDbDictionary
280
     1
281
     1
  3
ADSK_XREC_LAYER_RECONCILED
360
3F4
  0
DICTIONARY
  5
403
330
3DD
100
AcDbDictionary
280
     1
281
     1
  3
ADSK_XREC_LAYER_RECONCILED
360
404
  0
DICTIONARY
  5
405
330
3DF
100
AcDbDictionary
280
     1
281
     1
  3
ADSK_XREC_LAYER_RECONCILED
360
406
  0
DICTIONARY
  5
407
330
3E0
100
AcDbDictionary
280
     1
281
     1
  3
ADSK_XREC_LAYER_RECONCILED
360
408
  0
DICTIONARY
  5
409
330
3E1
100
AcDbDictionary
280
     1
281
     1
  3
ADSK_XREC_LAYER_RECONCILED
360
40A
  0
DICTIONARY
  5
40B
330
3E2
100
AcDbDictionary
280
     1
281
     1
  3
ADSK_XREC_LAYER_RECONCILED
360
40C
  0
DICTIONARY
  5
40F
330
3E4
100
AcDbDictionary
280
     1
281
     1
  3
ADSK_XREC_LAYER_RECONCILED
360
410
  0
DICTIONARY
  5
411
330
3E8
100
AcDbDictionary
280
     1
281
     1
  3
ADSK_XREC_LAYER_RECONCILED
360
412
  0
DICTIONARY
  5
2697
330
2696
100
AcDbDictionary
280
     1
281
     1
  3
ASDK_XREC_ANNO_SCALE_INFO
360
2698
  0
DICTIONARY
  5
4A3
330
1F
100
AcDbDictionary
280
     1
281
     1
  3
ACAD_SORTENTS
360
4A4
  0
DICTIONARY
  5
225B
330
224F
100
AcDbDictionary
280
     1
281
     1
  3
ACAD_SORTENTS
360
225C
  0
DICTIONARY
  5
228F
330
2285
100
AcDbDictionary
280
     1
281
     1
  3
ACAD_SORTENTS
360
2290
  0
DICTIONARY
  5
2530
330
2524
100
AcDbDictionary
280
     1
281
     1
  3
ACAD_SORTENTS
360
2531
  0
DICTIONARY
  5
2540
330
2534
100
AcDbDictionary
280
     1
281
     1
  3
ACAD_SORTENTS
360
2541
  0
DICTIONARY
  5
26E3
330
26D9
100
AcDbDictionary
280
     1
281
     1
  3
ACAD_SORTENTS
360
26E4
  0
DICTIONARY
  5
273C
330
2730
100
AcDbDictionary
280
     1
281
     1
  3
ACAD_SORTENTS
360
273D
  0
DICTIONARY
  5
222F
330
222E
100
AcDbDictionary
280
     1
281
     1
  3
ACAD_MTEXT_RT
360
27D3
  3
AcDbContextDataManager
360
2230
  0
DICTIONARY
  5
2244
330
2243
100
AcDbDictionary
280
     1
281
     1
  3
ACAD_MTEXT_RT
360
27D4
  3
AcDbContextDataManager
360
2245
  0
DICTIONARY
  5
2249
330
2248
100
AcDbDictionary
280
     1
281
     1
  3
ACAD_MTEXT_RT
360
27D5
  3
AcDbContextDataManager
360
224A
  0
DICTIONARY
  5
27D6
330
22D5
100
AcDbDictionary
280
     1
281
     1
  3
ACAD_XREC_ROUNDTRIP
360
27D7
  0
DICTIONARY
  5
27D8
330
230D
100
AcDbDictionary
280
     1
281
     1
  3
ACAD_MTEXT_RT
360
27D9
  0
DICTIONARY
  5
27DA
330
230F
100
AcDbDictionary
280
     1
281
     1
  3
ACAD_MTEXT_RT
360
27DB
  0
DICTIONARY
  5
27DC
330
2311
100
AcDbDictionary
280
     1
281
     1
  3
ACAD_MTEXT_RT
360
27DD
  0
DICTIONARY
  5
27DE
330
231F
100
AcDbDictionary
280
     1
281
     1
  3
ACAD_MTEXT_RT
360
27DF
  0
DICTIONARY
  5
27E0
330
2321
100
AcDbDictionary
280
     1
281
     1
  3
ACAD_MTEXT_RT
360
27E1
  0
DICTIONARY
  5
27E2
330
2323
100
AcDbDictionary
280
     1
281
     1
  3
ACAD_MTEXT_RT
360
27E3
  0
DICTIONARY
  5
27E4
330
2327
100
AcDbDictionary
280
     1
281
     1
  3
ACAD_XREC_ROUNDTRIP
360
27E5
  0
DICTIONARY
  5
27E6
330
234C
100
AcDbDictionary
280
     1
281
     1
  3
ACAD_MTEXT_RT
360
27E7
  0
DICTIONARY
  5
27E8
330
2352
100
AcDbDictionary
280
     1
281
     1
  3
ACAD_MTEXT_RT
360
27E9
  0
DICTIONARY
  5
2699
330
235C
100
AcDbDictionary
280
     1
281
     1
  3
ACAD_MTEXT_2008_RT
360
269A
  0
DICTIONARY
  5
278B
330
278A
100
AcDbDictionary
280
     1
281
     1
  3
ACAD_MTEXT_2008_RT
360
278C
  0
DICTIONARY
  5
6B
102
{ACAD_REACTORS
330
C
102
}
330
C
100
AcDbDictionary
281
     1
  0
DICTIONARY
  5
D
102
{ACAD_REACTORS
330
C
102
}
330
C
100
AcDbDictionary
281
     1
  0
DICTIONARY
  5
1A
102
{ACAD_REACTORS
330
C
102
}
330
C
100
AcDbDictionary
281
     1
  3
Arkusz1
350
D3
  3
Arkusz2
350
D7
  3
Model
350
22
  0
DICTIONARY
  5
6A
102
{ACAD_REACTORS
330
C
102
}
330
C
100
AcDbDictionary
281
     1
  3
ByBlock
350
ED
  3
ByLayer
350
EC
  3
Global
350
EE
  0
DICTIONARY
  5
12D
102
{ACAD_REACTORS
330
C
102
}
330
C
100
AcDbDictionary
281
     1
  3
Standard
350
12E
  0
DICTIONARY
  5
17
102
{ACAD_REACTORS
330
C
102
}
330
C
100
AcDbDictionary
281
     1
  3
SOLBET_IZOLACJA
350
7E9
  3
Standard
350
18
  0
DICTIONARY
  5
19
102
{ACAD_REACTORS
330
C
102
}
330
C
100
AcDbDictionary
281
     1
  0
ACDBDICTIONARYWDFLT
  5
E
102
{ACAD_REACTORS
330
C
102
}
330
C
100
AcDbDictionary
281
     1
  3
Normal
350
F
100
AcDbDictionaryWithDefault
340
F
  0
DICTIONARY
  5
10C
102
{ACAD_REACTORS
330
C
102
}
330
C
100
AcDbDictionary
281
     1
  3
A0
350
10D
  3
A1
350
188
  3
A2
350
189
  3
A3
350
18A
  3
A4
350
18B
  3
A5
350
18C
  3
A6
350
18D
  3
A7
350
18E
  3
A8
350
18F
  3
A9
350
190
  3
B0
350
191
  3
B1
350
192
  3
B2
350
193
  3
B3
350
194
  3
B4
350
195
  3
B5
350
196
  3
B6
350
197
  3
B7
350
198
  3
B8
350
199
  3
B9
350
19A
  3
C0
350
19B
  3
C1
350
19C
  3
C2
350
19D
  3
C3
350
19E
  3
C4
350
19F
  3
C5
350
1A0
  3
C6
350
1A1
  3
C7
350
1A2
  3
C8
350
1A3
  3
C9
350
1A4
  3
D0
350
1A5
  3
D1
350
1A6
  3
D2
350
1A7
  0
DICTIONARY
  5
7E
102
{ACAD_REACTORS
330
C
102
}
330
C
100
AcDbDictionary
281
     1
  3
Standard
350
7F
  0
DICTIONARY
  5
EF
102
{ACAD_REACTORS
330
C
102
}
330
C
100
AcDbDictionary
281
     1
  3
2dWireframe
350
F5
  3
3D Hidden
350
F7
  3
3dWireframe
350
F6
  3
Basic
350
F4
  3
Brighten
350
FB
  3
ColorChange
350
FF
  3
Conceptual
350
F8
  3
Dim
350
FA
  3
Facepattern
350
FE
  3
Flat
350
F0
  3
FlatWithEdges
350
F1
  3
Gouraud
350
F2
  3
GouraudWithEdges
350
F3
  3
Linepattern
350
FD
  3
Realistic
350
F9
  3
Thicken
350
FC
  0
XRECORD
  5
15D
102
{ACAD_REACTORS
330
C
102
}
330
C
100
AcDbXrecord
280
     1
 90
        1
330
7F
330
222E
330
2243
330
2248
330
235C
  0
DICTIONARY
  5
5E
102
{ACAD_REACTORS
330
C
102
}
330
C
100
AcDbDictionary
281
     1
  3
CAMERADISPLAY
350
24A2
  3
CANNOSCALE
350
146
  3
CMLEADERSTYLE
350
145
  3
CTABLESTYLE
350
84
  3
DIMASSOC
350
5F
  3
HIDETEXT
350
63
  3
INDEXCTL
350
466
  3
LIGHTGLYPHDISPLAY
350
26D2
  3
LIGHTINGUNITS
350
464
  3
MSLTSCALE
350
463
  3
PSOLHEIGHT
350
27C5
  3
PSOLWIDTH
350
27C4
  3
SORTENTS
350
465
  0
XRECORD
  5
27C6
102
{ACAD_REACTORS
330
C
102
}
330
C
100
AcDbXrecord
280
     1
  1
DWGPROPS COOKIE
  2

  3

  4

  6

  7

  8
Olus
  9

300
=
301
=
302
=
303
=
304
=
305
=
306
=
307
=
308
=
309
=
 40
0.5334131018518519
 41
2454690.075573148
 42
2454848.87765779
  1

 90
        0
  0
DICTIONARY
  5
1883
102
{ACAD_REACTORS
330
3E5
102
}
330
3E5
100
AcDbDictionary
281
     1
  0
DICTIONARY
  5
1882
102
{ACAD_REACTORS
330
3E5
102
}
330
3E5
100
AcDbDictionary
281
     1
1001
ACAD
1000
<All
  0
XRECORD
  5
3F4
102
{ACAD_REACTORS
330
13C
102
}
330
13C
100
AcDbXrecord
280
     1
290
     1
  0
XRECORD
  5
404
102
{ACAD_REACTORS
330
403
102
}
330
403
100
AcDbXrecord
280
     1
290
     1
  0
XRECORD
  5
406
102
{ACAD_REACTORS
330
405
102
}
330
405
100
AcDbXrecord
280
     1
290
     1
  0
XRECORD
  5
408
102
{ACAD_REACTORS
330
407
102
}
330
407
100
AcDbXrecord
280
     1
290
     1
  0
XRECORD
  5
40A
102
{ACAD_REACTORS
330
409
102
}
330
409
100
AcDbXrecord
280
     1
290
     1
  0
XRECORD
  5
40C
102
{ACAD_REACTORS
330
40B
102
}
330
40B
100
AcDbXrecord
280
     1
290
     1
  0
XRECORD
  5
410
102
{ACAD_REACTORS
330
40F
102
}
330
40F
100
AcDbXrecord
280
     1
290
     1
  0
XRECORD
  5
412
102
{ACAD_REACTORS
330
411
102
}
330
411
100
AcDbXrecord
280
     1
290
     1
  0
XRECORD
  5
2698
102
{ACAD_REACTORS
330
2697
102
}
330
2697
100
AcDbXrecord
280
     1
 70
     1
340
10D
340
3DF
 70
    -1
  0
SORTENTSTABLE
  5
4A4
102
{ACAD_REACTORS
330
4A3
102
}
330
4A3
100
AcDbSortentsTable
330
1F
331
2189
  5
2188
331
21C0
  5
21C0
331
21C8
  5
21C9
331
21D0
  5
21CF
331
220F
  5
2217
331
21D8
  5
21DB
331
2217
  5
221F
331
221D
  5
2225
331
234A
  5
234F
331
22D3
  5
2273
331
2274
  5
22CF
331
2352
  5
2357
331
222D
  5
2294
331
235A
  5
235F
331
24B9
  5
2547
331
22F3
  5
22EE
331
2172
  5
2171
331
21A9
  5
21AC
331
21B1
  5
21B3
331
2182
  5
2180
331
21F8
  5
21FC
331
230B
  5
2310
331
2294
  5
22D1
331
23CA
  5
2325
331
231B
  5
231E
331
2323
  5
234A
331
218A
  5
2189
331
2200
  5
2204
331
21C9
  5
21CA
331
2192
  5
2192
331
2208
  5
2210
331
2210
  5
2218
331
221E
  5
2226
331
234B
  5
2350
331
2353
  5
2358
331
22EC
  5
21E6
331
222E
  5
22A6
331
235B
  5
2361
331
22F4
  5
22F0
331
2173
  5
2172
331
21B2
  5
21B4
331
21F9
  5
21FD
331
21BA
  5
22F5
331
22A5
  5
22D2
331
22AD
  5
22EA
331
2324
  5
234B
331
218B
  5
218A
331
21C2
  5
21C1
331
2201
  5
2205
331
2193
  5
2196
331
21CA
  5
21CB
331
2209
  5
2211
331
2211
  5
2219
331
21DA
  5
21DC
331
25EA
  5
25EC
331
221F
  5
2227
331
234C
  5
2351
331
22D5
  5
2197
331
2276
  5
218E
331
2354
  5
2359
331
235C
  5
23C5
331
22F5
  5
22F1
331
21E2
  5
22F6
331
2174
  5
2173
331
217C
  5
2178
331
21B3
  5
21B5
331
2184
  5
2182
331
21FA
  5
21FE
331
230D
  5
2314
331
2315
  5
230D
331
22A6
  5
22D3
331
231D
  5
2323
331
2325
  5
234C
331
218C
  5
218B
331
21C3
  5
21C4
331
2202
  5
2206
331
21CB
  5
21CC
331
220A
  5
2212
331
2212
  5
221A
331
2218
  5
2220
331
25EB
  5
25ED
331
22CE
  5
2275
331
2220
  5
2272
331
234D
  5
2352
331
2355
  5
235A
331
22F6
  5
22F2
331
21E3
  5
21E5
331
2175
  5
2174
331
21EB
  5
21F7
331
21B4
  5
21B6
331
2185
  5
2184
331
21FB
  5
21FF
331
2248
  5
22A8
331
230E
  5
2315
331
2316
  5
2319
331
22A7
  5
22D4
331
218D
  5
218C
331
2203
  5
2207
331
21CC
  5
21CD
331
220B
  5
2213
331
219D
  5
21A0
331
2213
  5
221B
331
2219
  5
2221
331
25EC
  5
2320
331
234E
  5
2353
331
2356
  5
235B
331
24B5
  5
24B9
331
22EF
  5
220A
331
235E
  5
23C6
331
22F7
  5
22F3
331
2176
  5
2175
331
21AD
  5
22F4
331
21F4
  5
21F8
331
21BD
  5
21B9
331
21FC
  5
2200
331
230F
  5
2316
331
23C6
  5
2311
331
22A8
  5
22D5
331
2317
  5
231A
331
231F
  5
2326
331
245E
  5
24B5
331
2327
  5
21D0
331
218E
  5
218D
331
2204
  5
2208
331
220C
  5
2214
331
2214
  5
221C
331
221A
  5
2222
331
25ED
  5
2321
331
234F
  5
2354
331
2357
  5
235D
331
235F
  5
23C8
331
216F
  5
2544
331
21AE
  5
21AD
331
217F
  5
217C
331
21B6
  5
21B7
331
21F5
  5
21F9
331
21BE
  5
21BF
331
21FD
  5
2201
331
2310
  5
2317
331
23C7
  5
2313
331
2320
  5
2327
331
218F
  5
2191
331
21C6
  5
21C5
331
220D
  5
2215
331
219F
  5
21A1
331
2215
  5
221D
331
221B
  5
2223
331
2348
  5
234D
331
2272
  5
2309
331
2350
  5
2355
331
2358
  5
235E
331
22F1
  5
2209
331
2360
  5
23C9
331
2170
  5
216F
331
21A7
  5
21A3
331
2178
  5
2176
331
21AF
  5
21B1
331
21F6
  5
21FA
331
2180
  5
217F
331
21FE
  5
2202
331
2309
  5
230E
331
2243
  5
22A7
331
2311
  5
2318
331
2321
  5
2348
331
2188
  5
2185
331
21C7
  5
21C8
331
21CF
  5
21CE
331
220E
  5
2216
331
2216
  5
221E
331
226B
  5
22CE
331
221C
  5
2224
331
2349
  5
234E
331
2273
  5
22EB
331
2351
  5
2356
331
22EA
  5
21E9
331
22F2
  5
22ED
331
2361
  5
245E
331
2171
  5
2170
331
21A8
  5
21AB
331
21B0
  5
21B2
331
21F7
  5
21FB
331
21FF
  5
2203
331
230A
  5
230F
331
23C9
  5
2324
331
231A
  5
231D
331
2322
  5
2349
  0
SORTENTSTABLE
  5
225C
102
{ACAD_REACTORS
330
225B
102
}
330
225B
100
AcDbSortentsTable
330
224F
  0
SORTENTSTABLE
  5
2290
102
{ACAD_REACTORS
330
228F
102
}
330
228F
100
AcDbSortentsTable
330
2285
  0
SORTENTSTABLE
  5
2531
102
{ACAD_REACTORS
330
2530
102
}
330
2530
100
AcDbSortentsTable
330
2524
  0
SORTENTSTABLE
  5
2541
102
{ACAD_REACTORS
330
2540
102
}
330
2540
100
AcDbSortentsTable
330
2534
  0
SORTENTSTABLE
  5
26E4
102
{ACAD_REACTORS
330
26E3
102
}
330
26E3
100
AcDbSortentsTable
330
26D9
  0
SORTENTSTABLE
  5
273D
102
{ACAD_REACTORS
330
273C
102
}
330
273C
100
AcDbSortentsTable
330
2730
  0
XRECORD
  5
27D3
102
{ACAD_REACTORS
330
222F
102
}
330
222F
100
AcDbXrecord
280
     1
 40
394915.0
  1
{\LDETAL 63\P}Oparcie stropu Filigran na ścianach zewnętrznych jednowarstwowych
  0
DICTIONARY
  5
2230
102
{ACAD_REACTORS
330
222F
102
}
330
222F
100
AcDbDictionary
281
     1
  3
ACDB_ANNOTATIONSCALES
350
2231
  0
XRECORD
  5
27D4
102
{ACAD_REACTORS
330
2244
102
}
330
2244
100
AcDbXrecord
280
     1
 40
239015.0
  1
Na ścianie zewnętrznej\Pprostopadłej do kierunku belek
  0
DICTIONARY
  5
2245
102
{ACAD_REACTORS
330
2244
102
}
330
2244
100
AcDbDictionary
281
     1
  3
ACDB_ANNOTATIONSCALES
350
2246
  0
XRECORD
  5
27D5
102
{ACAD_REACTORS
330
2249
102
}
330
2249
100
AcDbXrecord
280
     1
 40
263140.0
  1
Na ścianie zewnętrznej\Prównoległej do kierunku belek
  0
DICTIONARY
  5
224A
102
{ACAD_REACTORS
330
2249
102
}
330
2249
100
AcDbDictionary
281
     1
  3
ACDB_ANNOTATIONSCALES
350
224B
  0
XRECORD
  5
27D7
102
{ACAD_REACTORS
330
27D6
102
}
330
27D6
100
AcDbXrecord
280
     1
102
Gradient1
1004
7B0000000200000001000000000000000000000000000000000000000000000001000000000000000000F03F0200000000000000000000001800000001000000FFFFFFC2000000000000000000000000000000000000F03F1800000001000000FFFFFFC2000000000000000000000000070000004C494E45415200
  0
XRECORD
  5
27D9
102
{ACAD_REACTORS
330
27D8
102
}
330
27D8
100
AcDbXrecord
280
     1
 40
14518.0
  1
Płytka SOLBET
  0
XRECORD
  5
27DB
102
{ACAD_REACTORS
330
27DA
102
}
330
27DA
100
AcDbXrecord
280
     1
 40
25446.0
  1
Wieniec żelbetowy
  0
XRECORD
  5
27DD
102
{ACAD_REACTORS
330
27DC
102
}
330
27DC
100
AcDbXrecord
280
     1
 40
100191.0
  1
Zbrojenie górne\Pstrefy przypodporowej
  0
XRECORD
  5
27DF
102
{ACAD_REACTORS
330
27DE
102
}
330
27DE
100
AcDbXrecord
280
     1
 40
14518.0
  1
Płytka SOLBET
  0
XRECORD
  5
27E1
102
{ACAD_REACTORS
330
27E0
102
}
330
27E0
100
AcDbXrecord
280
     1
 40
25446.0
  1
Wieniec żelbetowy
  0
XRECORD
  5
27E3
102
{ACAD_REACTORS
330
27E2
102
}
330
27E2
100
AcDbXrecord
280
     1
 40
100191.0
  1
Zbrojenie górne\Pstrefy przypodporowej
  0
XRECORD
  5
27E5
102
{ACAD_REACTORS
330
27E4
102
}
330
27E4
100
AcDbXrecord
280
     1
102
Gradient1
1004
7B0000000200000001000000000000000000000000000000000000000000000001000000000000000000F03F0200000000000000000000001800000001000000FFFFFFC2000000000000000000000000000000000000F03F1800000001000000FFFFFFC2000000000000000000000000070000004C494E45415200
  0
XRECORD
  5
27E7
102
{ACAD_REACTORS
330
27E6
102
}
330
27E6
100
AcDbXrecord
280
     1
 40
34960.0
  1
Warstwa wykończeniowa
  0
XRECORD
  5
27E9
102
{ACAD_REACTORS
330
27E8
102
}
330
27E8
100
AcDbXrecord
280
     1
 40
42625.0
  1
Płyty izolacyjne twarde
  0
XRECORD
  5
269A
102
{ACAD_REACTORS
330
2699
102
}
330
2699
100
AcDbXrecord
280
     1
 40
24693.0
  1
\pxqc;A\P(5 : 1)
  0
XRECORD
  5
278C
102
{ACAD_REACTORS
330
278B
102
}
330
278B
100
AcDbXrecord
280
     1
 40
24748.0
  1
\pxqc;C\P(5 : 1)
  0
LAYOUT
  5
D3
102
{ACAD_XDICTIONARY
360
27CA
102
}
102
{ACAD_REACTORS
330
1A
102
}
330
1A
100
AcDbPlotSettings
  1

  2
C:\Documents and Settings\basas\Application Data\Autodesk\AutoCAD 2005\R16.1\enu\plotters\Default Windows System Printer.pc3
  4

  6

 40
0.0
 41
0.0
 42
0.0
 43
0.0
 44
0.0
 45
0.0
 46
0.0
 47
0.0
 48
0.0
 49
0.0
140
0.0
141
0.0
142
1.0
143
1.0
 70
   688
 72
     0
 73
     0
 74
     5
  7

 75
    16
147
1.0
148
0.0
149
0.0
100
AcDbLayout
  1
Arkusz1
 70
     1
 71
     1
 10
0.0
 20
0.0
 11
12.0
 21
9.0
 12
0.0
 22
0.0
 32
0.0
 14
0.0
 24
0.0
 34
0.0
 15
0.0
 25
0.0
 35
0.0
146
0.0
 13
0.0
 23
0.0
 33
0.0
 16
1.0
 26
0.0
 36
0.0
 17
0.0
 27
1.0
 37
0.0
 76
     0
330
D2
  0
LAYOUT
  5
D7
102
{ACAD_XDICTIONARY
360
27CC
102
}
102
{ACAD_REACTORS
330
1A
102
}
330
1A
100
AcDbPlotSettings
  1

  2
C:\Documents and Settings\basas\Application Data\Autodesk\AutoCAD 2005\R16.1\enu\plotters\Default Windows System Printer.pc3
  4

  6

 40
0.0
 41
0.0
 42
0.0
 43
0.0
 44
0.0
 45
0.0
 46
0.0
 47
0.0
 48
0.0
 49
0.0
140
0.0
141
0.0
142
1.0
143
1.0
 70
   688
 72
     0
 73
     0
 74
     5
  7

 75
    16
147
1.0
148
0.0
149
0.0
100
AcDbLayout
  1
Arkusz2
 70
     1
 71
     2
 10
0.0
 20
0.0
 11
12.0
 21
9.0
 12
0.0
 22
0.0
 32
0.0
 14
0.0
 24
0.0
 34
0.0
 15
0.0
 25
0.0
 35
0.0
146
0.0
 13
0.0
 23
0.0
 33
0.0
 16
1.0
 26
0.0
 36
0.0
 17
0.0
 27
1.0
 37
0.0
 76
     0
330
D6
  0
LAYOUT
  5
22
102
{ACAD_XDICTIONARY
360
27C7
102
}
102
{ACAD_REACTORS
330
1A
102
}
330
1A
100
AcDbPlotSettings
  1

  2
none_device
  4
Letter_(8.50_x_11.00_Inches)
  6

 40
6.349999904632568
 41
6.349999904632568
 42
6.350006103515625
 43
6.350006103515625
 44
215.8999938964844
 45
279.3999938964844
 46
11.54999923706054
 47
-13.65000009536743
 48
0.0
 49
0.0
140
210.0
141
297.0
142
1.0
143
1.0
 70
 11936
 72
     1
 73
     0
 74
     4
  7

 75
     0
147
0.9999999999999998
148
0.0
149
0.0
100
AcDbLayout
  1
Model
 70
     1
 71
     0
 10
0.0
 20
0.0
 11
12.0
 21
9.0
 12
0.0
 22
0.0
 32
0.0
 14
0.0
 24
0.0
 34
0.0
 15
0.0
 25
0.0
 35
0.0
146
0.0
 13
0.0
 23
0.0
 33
0.0
 16
1.0
 26
0.0
 36
0.0
 17
0.0
 27
1.0
 37
0.0
 76
     0
330
1F
331
EA
1001
ACAD_PSEXT
1000
Brak
1000
Brak
1000
Nie można zastosować.
1000
Arkusz nie zostanie wydrukowany dopóki nie wybrano konfiguracji plotera.
1070
     0
  0
MATERIAL
  5
ED
102
{ACAD_XDICTIONARY
360
27D0
102
}
102
{ACAD_REACTORS
330
6A
102
}
330
6A
100
AcDbMaterial
  1
ByBlock
 73
     2
 78
     2
172
     2
176
     2
270
     2
274
     2
  0
MATERIAL
  5
EC
102
{ACAD_XDICTIONARY
360
27CE
102
}
102
{ACAD_REACTORS
330
6A
102
}
330
6A
100
AcDbMaterial
  1
ByLayer
 73
     2
 78
     2
172
     2
176
     2
270
     2
274
     2
  0
MATERIAL
  5
EE
102
{ACAD_XDICTIONARY
360
173
102
}
102
{ACAD_REACTORS
330
6A
102
}
330
6A
100
AcDbMaterial
  1
Global
 73
     2
 43
0.0007999999797903
 43
0.0
 43
0.0
 43
0.0
 43
0.0
 43
0.0007999999797903
 43
0.0
 43
0.0
 43
0.0
 43
0.0
 43
1.0
 43
0.0
 43
0.0
 43
0.0
 43
0.0
 43
1.0
 78
     2
172
     2
 49
0.0007999999797903
 49
0.0
 49
0.0
 49
0.0
 49
0.0
 49
0.0007999999797903
 49
0.0
 49
0.0
 49
0.0
 49
0.0
 49
1.0
 49
0.0
 49
0.0
 49
0.0
 49
0.0
 49
1.0
176
     2
142
0.0007999999797903
142
0.0
142
0.0
142
0.0
142
0.0
142
0.0007999999797903
142
0.0
142
0.0
142
0.0
142
0.0
142
1.0
142
0.0
142
0.0
142
0.0
142
0.0
142
1.0
270
     2
144
0.0007999999797903
144
0.0
144
0.0
144
0.0
144
0.0
144
0.0007999999797903
144
0.0
144
0.0
144
0.0
144
0.0
144
1.0
144
0.0
144
0.0
144
0.0
144
0.0
144
1.0
274
     2
1001
ACAD
1070
    -1
1070
     3
1070
     0
1000

1071
        0
1070
     0
  0
ACAD_PROXY_OBJECT
  5
12E
102
{ACAD_REACTORS
330
12D
102
}
330
12D
100
AcDbProxyObject
 90
      499
 91
      508
 95
       23
 70
     0
 93
      618
310
40901902A4063FBFFFFFE0000000000000020400000000000020404254DD185B99185C99000000000000000104090140501A0000000000000410000000000000004102576400000000000003903F
340
14
340
0
340
11
340
0
 94
        0
1001
ACAD_MLEADERVER
1070
     2
1001
ACAD
1000
AcRTDxfName
1000
MLEADERSTYLE
1000
AcRTDxfName
1000
MLEADERSTYLE
  0
MLINESTYLE
  5
7E9
102
{ACAD_REACTORS
330
17
102
}
330
17
100
AcDbMlineStyle
  2
SOLBET_IZOLACJA
 70
   272
  3

 62
   256
 51
90.0
 52
90.0
 71
     2
 49
0.008
 62
   256
  6
BYLAYER
 49
-0.008
 62
   256
  6
BYLAYER
  0
MLINESTYLE
  5
18
102
{ACAD_REACTORS
330
17
102
}
330
17
100
AcDbMlineStyle
  2
STANDARD
 70
     0
  3

 62
   256
 51
90.0
 52
90.0
 71
     2
 49
0.5
 62
   256
  6
BYLAYER
 49
-0.5
 62
   256
  6
BYLAYER
  0
ACDBPLACEHOLDER
  5
F
102
{ACAD_REACTORS
330
E
102
}
330
E
  0
ACAD_PROXY_OBJECT
  5
10D
102
{ACAD_REACTORS
330
10C
102
}
330
10C
100
AcDbProxyObject
 90
      499
 91
      507
 95
       23
 70
     0
 93
       49
310
904313A31005FF
 94
        0
1001
ACAD
1000
AcRTDxfName
1000
SCALE
1000
AcRTDxfName
1000
SCALE
  0
ACAD_PROXY_OBJECT
  5
188
102
{ACAD_REACTORS
330
10C
102
}
330
10C
100
AcDbProxyObject
 90
      499
 91
      507
 95
       23
 70
     0
 93
      113
310
904313A3200400000000000000407F
 94
        0
1001
ACAD
1000
AcRTDxfName
1000
SCALE
1000
AcRTDxfName
1000
SCALE
  0
ACAD_PROXY_OBJECT
  5
189
102
{ACAD_REACTORS
330
10C
102
}
330
10C
100
AcDbProxyObject
 90
      499
 91
      507
 95
       23
 70
     0
 93
      113
310
904313A3400400000000000010407F
 94
        0
1001
ACAD
1000
AcRTDxfName
1000
SCALE
1000
AcRTDxfName
1000
SCALE
  0
ACAD_PROXY_OBJECT
  5
18A
102
{ACAD_REACTORS
330
10C
102
}
330
10C
100
AcDbProxyObject
 90
      499
 91
      507
 95
       23
 70
     0
 93
      113
310
904313A3500400000000000014407F
 94
        0
1001
ACAD
1000
AcRTDxfName
1000
SCALE
1000
AcRTDxfName
1000
SCALE
  0
ACAD_PROXY_OBJECT
  5
18B
102
{ACAD_REACTORS
330
10C
102
}
330
10C
100
AcDbProxyObject
 90
      499
 91
      507
 95
       23
 70
     0
 93
      113
310
904313A3800400000000000020407F
 94
        0
1001
ACAD
1000
AcRTDxfName
1000
SCALE
1000
AcRTDxfName
1000
SCALE
  0
ACAD_PROXY_OBJECT
  5
18C
102
{ACAD_REACTORS
330
10C
102
}
330
10C
100
AcDbProxyObject
 90
      499
 91
      507
 95
       23
 70
     0
 93
      121
310
905313A313000400000000000024407F
 94
        0
1001
ACAD
1000
AcRTDxfName
1000
SCALE
1000
AcRTDxfName
1000
SCALE
  0
ACAD_PROXY_OBJECT
  5
18D
102
{ACAD_REACTORS
330
10C
102
}
330
10C
100
AcDbProxyObject
 90
      499
 91
      507
 95
       23
 70
     0
 93
      121
310
905313A313600400000000000030407F
 94
        0
1001
ACAD
1000
AcRTDxfName
1000
SCALE
1000
AcRTDxfName
1000
SCALE
  0
ACAD_PROXY_OBJECT
  5
18E
102
{ACAD_REACTORS
330
10C
102
}
330
10C
100
AcDbProxyObject
 90
      499
 91
      507
 95
       23
 70
     0
 93
      121
310
905313A323000400000000000034407F
 94
        0
1001
ACAD
1000
AcRTDxfName
1000
SCALE
1000
AcRTDxfName
1000
SCALE
  0
ACAD_PROXY_OBJECT
  5
18F
102
{ACAD_REACTORS
330
10C
102
}
330
10C
100
AcDbProxyObject
 90
      499
 91
      507
 95
       23
 70
     0
 93
      121
310
905313A33300040000000000003E407F
 94
        0
1001
ACAD
1000
AcRTDxfName
1000
SCALE
1000
AcRTDxfName
1000
SCALE
  0
ACAD_PROXY_OBJECT
  5
190
102
{ACAD_REACTORS
330
10C
102
}
330
10C
100
AcDbProxyObject
 90
      499
 91
      507
 95
       23
 70
     0
 93
      121
310
905313A343000400000000000044407F
 94
        0
1001
ACAD
1000
AcRTDxfName
1000
SCALE
1000
AcRTDxfName
1000
SCALE
  0
ACAD_PROXY_OBJECT
  5
191
102
{ACAD_REACTORS
330
10C
102
}
330
10C
100
AcDbProxyObject
 90
      499
 91
      507
 95
       23
 70
     0
 93
      121
310
905313A353000400000000000049407F
 94
        0
1001
ACAD
1000
AcRTDxfName
1000
SCALE
1000
AcRTDxfName
1000
SCALE
  0
ACAD_PROXY_OBJECT
  5
192
102
{ACAD_REACTORS
330
10C
102
}
330
10C
100
AcDbProxyObject
 90
      499
 91
      507
 95
       23
 70
     0
 93
      129
310
906313A31303000400000000000059407F
 94
        0
1001
ACAD
1000
AcRTDxfName
1000
SCALE
1000
AcRTDxfName
1000
SCALE
  0
ACAD_PROXY_OBJECT
  5
193
102
{ACAD_REACTORS
330
10C
102
}
330
10C
100
AcDbProxyObject
 90
      499
 91
      507
 95
       23
 70
     0
 93
      113
310
904323A3100000000000000001017F
 94
        0
1001
ACAD
1000
AcRTDxfName
1000
SCALE
1000
AcRTDxfName
1000
SCALE
  0
ACAD_PROXY_OBJECT
  5
194
102
{ACAD_REACTORS
330
10C
102
}
330
10C
100
AcDbProxyObject
 90
      499
 91
      507
 95
       23
 70
     0
 93
      113
310
904343A3100000000000000041017F
 94
        0
1001
ACAD
1000
AcRTDxfName
1000
SCALE
1000
AcRTDxfName
1000
SCALE
  0
ACAD_PROXY_OBJECT
  5
195
102
{ACAD_REACTORS
330
10C
102
}
330
10C
100
AcDbProxyObject
 90
      499
 91
      507
 95
       23
 70
     0
 93
      113
310
904383A3100000000000000081017F
 94
        0
1001
ACAD
1000
AcRTDxfName
1000
SCALE
1000
AcRTDxfName
1000
SCALE
  0
ACAD_PROXY_OBJECT
  5
196
102
{ACAD_REACTORS
330
10C
102
}
330
10C
100
AcDbProxyObject
 90
      499
 91
      507
 95
       23
 70
     0
 93
      121
310
90531303A3100000000000000091017F
 94
        0
1001
ACAD
1000
AcRTDxfName
1000
SCALE
1000
AcRTDxfName
1000
SCALE
  0
ACAD_PROXY_OBJECT
  5
197
102
{ACAD_REACTORS
330
10C
102
}
330
10C
100
AcDbProxyObject
 90
      499
 91
      507
 95
       23
 70
     0
 93
      129
310
9063130303A3100000000000000165017F
 94
        0
1001
ACAD
1000
AcRTDxfName
1000
SCALE
1000
AcRTDxfName
1000
SCALE
  0
ACAD_PROXY_OBJECT
  5
198
102
{ACAD_REACTORS
330
10C
102
}
330
10C
100
AcDbProxyObject
 90
      499
 91
      507
 95
       23
 70
     0
 93
      265
310
90F312F31323822203D2031272D302200000000000000200FC00000000000028407F
 94
        0
1001
ACAD
1000
AcRTDxfName
1000
SCALE
1000
AcRTDxfName
1000
SCALE
  0
ACAD_PROXY_OBJECT
  5
199
102
{ACAD_REACTORS
330
10C
102
}
330
10C
100
AcDbProxyObject
 90
      499
 91
      507
 95
       23
 70
     0
 93
      257
310
90E312F363422203D2031272D302200000000000000240FC00000000000028407F
 94
        0
1001
ACAD
1000
AcRTDxfName
1000
SCALE
1000
AcRTDxfName
1000
SCALE
  0
ACAD_PROXY_OBJECT
  5
19A
102
{ACAD_REACTORS
330
10C
102
}
330
10C
100
AcDbProxyObject
 90
      499
 91
      507
 95
       23
 70
     0
 93
      257
310
90E312F333222203D2031272D302200000000000000280FC00000000000028407F
 94
        0
1001
ACAD
1000
AcRTDxfName
1000
SCALE
1000
AcRTDxfName
1000
SCALE
  0
ACAD_PROXY_OBJECT
  5
19B
102
{ACAD_REACTORS
330
10C
102
}
330
10C
100
AcDbProxyObject
 90
      499
 91
      507
 95
       23
 70
     0
 93
      257
310
90E312F313622203D2031272D3022000000000000002C0FC00000000000028407F
 94
        0
1001
ACAD
1000
AcRTDxfName
1000
SCALE
1000
AcRTDxfName
1000
SCALE
  0
ACAD_PROXY_OBJECT
  5
19C
102
{ACAD_REACTORS
330
10C
102
}
330
10C
100
AcDbProxyObject
 90
      499
 91
      507
 95
       23
 70
     0
 93
      257
310
90E332F333222203D2031272D3022000000000000002E0FC00000000000028407F
 94
        0
1001
ACAD
1000
AcRTDxfName
1000
SCALE
1000
AcRTDxfName
1000
SCALE
  0
ACAD_PROXY_OBJECT
  5
19D
102
{ACAD_REACTORS
330
10C
102
}
330
10C
100
AcDbProxyObject
 90
      499
 91
      507
 95
       23
 70
     0
 93
      249
310
90D312F3822203D2031272D302200000000000000300FC00000000000028407F
 94
        0
1001
ACAD
1000
AcRTDxfName
1000
SCALE
1000
AcRTDxfName
1000
SCALE
  0
ACAD_PROXY_OBJECT
  5
19E
102
{ACAD_REACTORS
330
10C
102
}
330
10C
100
AcDbProxyObject
 90
      499
 91
      507
 95
       23
 70
     0
 93
      257
310
90E332F313622203D2031272D302200000000000000320FC00000000000028407F
 94
        0
1001
ACAD
1000
AcRTDxfName
1000
SCALE
1000
AcRTDxfName
1000
SCALE
  0
ACAD_PROXY_OBJECT
  5
19F
102
{ACAD_REACTORS
330
10C
102
}
330
10C
100
AcDbProxyObject
 90
      499
 91
      507
 95
       23
 70
     0
 93
      249
310
90D312F3422203D2031272D302200000000000000340FC00000000000028407F
 94
        0
1001
ACAD
1000
AcRTDxfName
1000
SCALE
1000
AcRTDxfName
1000
SCALE
  0
ACAD_PROXY_OBJECT
  5
1A0
102
{ACAD_REACTORS
330
10C
102
}
330
10C
100
AcDbProxyObject
 90
      499
 91
      507
 95
       23
 70
     0
 93
      249
310
90D332F3822203D2031272D302200000000000000360FC00000000000028407F
 94
        0
1001
ACAD
1000
AcRTDxfName
1000
SCALE
1000
AcRTDxfName
1000
SCALE
  0
ACAD_PROXY_OBJECT
  5
1A1
102
{ACAD_REACTORS
330
10C
102
}
330
10C
100
AcDbProxyObject
 90
      499
 91
      507
 95
       23
 70
     0
 93
      249
310
90D312F3222203D2031272D302200000000000000380FC00000000000028407F
 94
        0
1001
ACAD
1000
AcRTDxfName
1000
SCALE
1000
AcRTDxfName
1000
SCALE
  0
ACAD_PROXY_OBJECT
  5
1A2
102
{ACAD_REACTORS
330
10C
102
}
330
10C
100
AcDbProxyObject
 90
      499
 91
      507
 95
       23
 70
     0
 93
      249
310
90D332F3422203D2031272D3022000000000000003A0FC00000000000028407F
 94
        0
1001
ACAD
1000
AcRTDxfName
1000
SCALE
1000
AcRTDxfName
1000
SCALE
  0
ACAD_PROXY_OBJECT
  5
1A3
102
{ACAD_REACTORS
330
10C
102
}
330
10C
100
AcDbProxyObject
 90
      499
 91
      507
 95
       23
 70
     0
 93
      169
310
90B3122203D2031272D302200400000000000028407F
 94
        0
1001
ACAD
1000
AcRTDxfName
1000
SCALE
1000
AcRTDxfName
1000
SCALE
  0
ACAD_PROXY_OBJECT
  5
1A4
102
{ACAD_REACTORS
330
10C
102
}
330
10C
100
AcDbProxyObject
 90
      499
 91
      507
 95
       23
 70
     0
 93
      265
310
90F312D312F3222203D2031272D3022000000000000003E0FC00000000000028407F
 94
        0
1001
ACAD
1000
AcRTDxfName
1000
SCALE
1000
AcRTDxfName
1000
SCALE
  0
ACAD_PROXY_OBJECT
  5
1A5
102
{ACAD_REACTORS
330
10C
102
}
330
10C
100
AcDbProxyObject
 90
      499
 91
      507
 95
       23
 70
     0
 93
      233
310
90B3322203D2031272D3022000000000000000210000000000000028407F
 94
        0
1001
ACAD
1000
AcRTDxfName
1000
SCALE
1000
AcRTDxfName
1000
SCALE
  0
ACAD_PROXY_OBJECT
  5
1A6
102
{ACAD_REACTORS
330
10C
102
}
330
10C
100
AcDbProxyObject
 90
      499
 91
      507
 95
       23
 70
     0
 93
      233
310
90B3622203D2031272D3022000000000000000610000000000000028407F
 94
        0
1001
ACAD
1000
AcRTDxfName
1000
SCALE
1000
AcRTDxfName
1000
SCALE
  0
ACAD_PROXY_OBJECT
  5
1A7
102
{ACAD_REACTORS
330
10C
102
}
330
10C
100
AcDbProxyObject
 90
      499
 91
      507
 95
       23
 70
     0
 93
      257
310
90E31272D3022203D2031272D3022000000000000000A10000000000000028407F
 94
        0
1001
ACAD
1000
AcRTDxfName
1000
SCALE
1000
AcRTDxfName
1000
SCALE
  0
TABLESTYLE
  5
7F
102
{ACAD_XDICTIONARY
360
162
102
}
102
{ACAD_REACTORS
330
7E
102
}
330
7E
100
AcDbTableStyle
  3
Standard
 70
     0
 71
     0
 40
1.5
 41
1.5
280
     0
281
     0
  7
Standard
140
4.5
170
     2
 62
     0
 63
     7
283
     0
274
    -2
284
     1
 64
     0
275
    -2
285
     1
 65
     0
276
    -2
286
     1
 66
     0
277
    -2
287
     1
 67
     0
278
    -2
288
     1
 68
     0
279
    -2
289
     1
 69
     0
  7
Standard
140
6.0
170
     5
 62
     0
 63
     7
283
     0
274
    -2
284
     1
 64
     0
275
    -2
285
     1
 65
     0
276
    -2
286
     1
 66
     0
277
    -2
287
     1
 67
     0
278
    -2
288
     1
 68
     0
279
    -2
289
     1
 69
     0
  7
Standard
140
4.5
170
     5
 62
     0
 63
     7
283
     0
274
    -2
284
     1
 64
     0
275
    -2
285
     1
 65
     0
276
    -2
286
     1
 66
     0
277
    -2
287
     1
 67
     0
278
    -2
288
     1
 68
     0
279
    -2
289
     1
 69
     0
  0
VISUALSTYLE
  5
F5
102
{ACAD_REACTORS
330
EF
102
}
330
EF
100
AcDbVisualStyle
  2
2dWireframe
 70
     4
 71
     0
 72
     2
 73
     1
 90
        0
 40
-0.6
 41
-30.0
 62
     5
 63
     7
 74
     1
 91
        4
 64
     7
 65
   257
 75
     1
175
     1
 42
1.0
 92
        0
 66
   257
 43
1.0
 76
     1
 77
     6
 78
     2
 67
     7
 79
     5
170
     0
171
     0
290
     0
174
     0
 93
        1
 44
0.0
173
     0
291
     0
 45
0.0
1001
ACAD
1000
AcDbSavedByObjectVersion
1070
     0
  0
VISUALSTYLE
  5
F7
102
{ACAD_REACTORS
330
EF
102
}
330
EF
100
AcDbVisualStyle
  2
3D Hidden
 70
     6
 71
     1
 72
     2
 73
     2
 90
        0
 40
-0.6
 41
-30.0
 62
     5
 63
     7
 74
     2
 91
        2
 64
     7
 65
   257
 75
     2
175
     1
 42
40.0
 92
        0
 66
   257
 43
1.0
 76
     1
 77
     6
 78
     2
 67
     7
 79
     3
170
     0
171
     0
290
     0
174
     0
 93
        1
 44
0.0
173
     0
291
     0
 45
0.0
1001
ACAD
1000
AcDbSavedByObjectVersion
1070
     0
  0
VISUALSTYLE
  5
F6
102
{ACAD_REACTORS
330
EF
102
}
330
EF
100
AcDbVisualStyle
  2
3dWireframe
 70
     5
 71
     0
 72
     2
 73
     1
 90
        0
 40
-0.6
 41
-30.0
 62
     5
 63
     7
 74
     1
 91
        4
 64
     7
 65
   257
 75
     1
175
     1
 42
1.0
 92
        0
 66
   257
 43
1.0
 76
     1
 77
     6
 78
     2
 67
     7
 79
     5
170
     0
171
     0
290
     0
174
     0
 93
        1
 44
0.0
173
     0
291
     0
 45
0.0
1001
ACAD
1000
AcDbSavedByObjectVersion
1070
     0
  0
VISUALSTYLE
  5
F4
102
{ACAD_REACTORS
330
EF
102
}
330
EF
100
AcDbVisualStyle
  2
Basic
 70
     7
 71
     1
 72
     0
 73
     1
 90
        0
 40
-0.6
 41
-30.0
 62
     5
 63
     7
 74
     0
 91
        4
 64
     7
 65
   257
 75
     1
175
     1
 42
1.0
 92
        8
 66
     7
 43
1.0
 76
     1
 77
     6
 78
     2
 67
     7
 79
     5
170
     0
171
     0
290
     0
174
     0
 93
        1
 44
0.0
173
     0
291
     1
 45
0.0
1001
ACAD
1000
AcDbSavedByObjectVersion
1070
     0
  0
VISUALSTYLE
  5
FB
102
{ACAD_REACTORS
330
EF
102
}
330
EF
100
AcDbVisualStyle
  2
Brighten
 70
    12
 71
     2
 72
     2
 73
     1
 90
        0
 40
-0.6
 41
-30.0
 62
     5
 63
     7
 74
     1
 91
        4
 64
     7
 65
   257
 75
     1
175
     1
 42
1.0
 92
        8
 66
     7
 43
1.0
 76
     1
 77
     6
 78
     2
 67
     7
 79
     5
170
     0
171
     0
290
     0
174
     0
 93
        1
 44
50.0
173
     0
291
     1
 45
0.0
1001
ACAD
1000
AcDbSavedByObjectVersion
1070
     0
  0
VISUALSTYLE
  5
FF
102
{ACAD_REACTORS
330
EF
102
}
330
EF
100
AcDbVisualStyle
  2
ColorChange
 70
    16
 71
     2
 72
     2
 73
     3
 90
        0
 40
-0.6
 41
-30.0
 62
     5
 63
     8
 74
     1
 91
        4
 64
     7
 65
   257
 75
     1
175
     1
 42
1.0
 92
        8
 66
     8
 43
1.0
 76
     1
 77
     6
 78
     2
 67
     7
 79
     5
170
     0
171
     0
290
     0
174
     0
 93
        1
 44
0.0
173
     0
291
     1
 45
0.0
1001
ACAD
1000
AcDbSavedByObjectVersion
1070
     0
  0
VISUALSTYLE
  5
F8
102
{ACAD_REACTORS
330
EF
102
}
330
EF
100
AcDbVisualStyle
  2
Conceptual
 70
     9
 71
     3
 72
     2
 73
     1
 90
        0
 40
-0.6
 41
-30.0
 62
     5
 63
     7
 74
     2
 91
        2
 64
     7
 65
   257
 75
     1
175
     1
 42
40.0
 92
        8
 66
     7
 43
1.0
 76
     1
 77
     6
 78
     2
 67
     7
 79
     3
170
     0
171
     0
290
     0
174
     0
 93
        1
 44
0.0
173
     0
291
     0
 45
0.0
1001
ACAD
1000
AcDbSavedByObjectVersion
1070
     0
  0
VISUALSTYLE
  5
FA
102
{ACAD_REACTORS
330
EF
102
}
330
EF
100
AcDbVisualStyle
  2
Dim
 70
    11
 71
     2
 72
     2
 73
     1
 90
        0
 40
-0.6
 41
-30.0
 62
     5
 63
     7
 74
     1
 91
        4
 64
     7
 65
   257
 75
     1
175
     1
 42
1.0
 92
        8
 66
     7
 43
1.0
 76
     1
 77
     6
 78
     2
 67
     7
 79
     5
170
     0
171
     0
290
     0
174
     0
 93
        1
 44
-50.0
173
     0
291
     1
 45
0.0
1001
ACAD
1000
AcDbSavedByObjectVersion
1070
     0
  0
VISUALSTYLE
  5
FE
102
{ACAD_REACTORS
330
EF
102
}
330
EF
100
AcDbVisualStyle
  2
Facepattern
 70
    15
 71
     2
 72
     2
 73
     1
 90
        0
 40
-0.6
 41
-30.0
 62
     5
 63
     7
 74
     1
 91
        4
 64
     7
 65
   257
 75
     1
175
     1
 42
1.0
 92
        8
 66
     7
 43
1.0
 76
     1
 77
     6
 78
     2
 67
     7
 79
     5
170
     0
171
     0
290
     0
174
     0
 93
        1
 44
0.0
173
     0
291
     1
 45
0.0
1001
ACAD
1000
AcDbSavedByObjectVersion
1070
     0
  0
VISUALSTYLE
  5
F0
102
{ACAD_REACTORS
330
EF
102
}
330
EF
100
AcDbVisualStyle
  2
Flat
 70
     0
 71
     2
 72
     1
 73
     1
 90
        2
 40
-0.6
 41
30.0
 62
     5
 63
     7
 74
     0
 91
        4
 64
     7
 65
   257
 75
     1
175
     1
 42
1.0
 92
        8
 66
     7
 43
1.0
 76
     1
 77
     6
 78
     2
 67
     7
 79
     5
170
     0
171
     0
290
     0
174
     0
 93
        1
 44
0.0
173
     0
291
     1
 45
0.0
1001
ACAD
1000
AcDbSavedByObjectVersion
1070
     0
  0
VISUALSTYLE
  5
F1
102
{ACAD_REACTORS
330
EF
102
}
330
EF
100
AcDbVisualStyle
  2
FlatWithEdges
 70
     1
 71
     2
 72
     1
 73
     1
 90
        2
 40
-0.6
 41
30.0
 62
     5
 63
     7
 74
     1
 91
        4
 64
     7
 65
   257
 75
     1
175
     1
 42
1.0
 92
        0
 66
   257
 43
1.0
 76
     1
 77
     6
 78
     2
 67
     7
 79
     5
170
     0
171
     0
290
     0
174
     0
 93
        1
 44
0.0
173
     0
291
     1
 45
0.0
1001
ACAD
1000
AcDbSavedByObjectVersion
1070
     0
  0
VISUALSTYLE
  5
F2
102
{ACAD_REACTORS
330
EF
102
}
330
EF
100
AcDbVisualStyle
  2
Gouraud
 70
     2
 71
     2
 72
     2
 73
     1
 90
        2
 40
-0.6
 41
30.0
 62
     5
 63
     7
 74
     0
 91
        4
 64
     7
 65
   257
 75
     1
175
     1
 42
1.0
 92
        0
 66
     7
 43
1.0
 76
     1
 77
     6
 78
     2
 67
     7
 79
     5
170
     0
171
     0
290
     0
174
     0
 93
        1
 44
0.0
173
     0
291
     1
 45
0.0
1001
ACAD
1000
AcDbSavedByObjectVersion
1070
     0
  0
VISUALSTYLE
  5
F3
102
{ACAD_REACTORS
330
EF
102
}
330
EF
100
AcDbVisualStyle
  2
GouraudWithEdges
 70
     3
 71
     2
 72
     2
 73
     1
 90
        2
 40
-0.6
 41
30.0
 62
     5
 63
     7
 74
     1
 91
        4
 64
     7
 65
   257
 75
     1
175
     1
 42
1.0
 92
        0
 66
   257
 43
1.0
 76
     1
 77
     6
 78
     2
 67
     7
 79
     5
170
     0
171
     0
290
     0
174
     0
 93
        1
 44
0.0
173
     0
291
     1
 45
0.0
1001
ACAD
1000
AcDbSavedByObjectVersion
1070
     0
  0
VISUALSTYLE
  5
FD
102
{ACAD_REACTORS
330
EF
102
}
330
EF
100
AcDbVisualStyle
  2
Linepattern
 70
    14
 71
     2
 72
     2
 73
     1
 90
        0
 40
-0.6
 41
-30.0
 62
     5
 63
     7
 74
     1
 91
        4
 64
     7
 65
   257
 75
     7
175
     7
 42
1.0
 92
        8
 66
     7
 43
1.0
 76
     1
 77
     6
 78
     2
 67
     7
 79
     5
170
     0
171
     0
290
     0
174
     0
 93
        1
 44
0.0
173
     0
291
     1
 45
0.0
1001
ACAD
1000
AcDbSavedByObjectVersion
1070
     0
  0
VISUALSTYLE
  5
F9
102
{ACAD_REACTORS
330
EF
102
}
330
EF
100
AcDbVisualStyle
  2
Realistic
 70
     8
 71
     2
 72
     2
 73
     1
 90
        0
 40
-0.6
 41
-30.0
 62
     5
 63
     7
 74
     1
 91
        0
 64
     7
 65
   257
 75
     1
175
     1
 42
1.0
 92
        8
 66
     8
 43
1.0
 76
     1
 77
     6
 78
     2
 67
     7
 79
     5
170
     0
171
     0
290
     0
174
     0
 93
       13
 44
0.0
173
     0
291
     0
 45
0.0
1001
ACAD
1000
AcDbSavedByObjectVersion
1070
     0
  0
VISUALSTYLE
  5
FC
102
{ACAD_REACTORS
330
EF
102
}
330
EF
100
AcDbVisualStyle
  2
Thicken
 70
    13
 71
     2
 72
     2
 73
     1
 90
        0
 40
-0.6
 41
-30.0
 62
     5
 63
     7
 74
     1
 91
        4
 64
     7
 65
   257
 75
     1
175
     1
 42
1.0
 92
       12
 66
     7
 43
1.0
 76
     1
 77
     6
 78
     2
 67
     7
 79
     5
170
     0
171
     0
290
     0
174
     0
 93
        1
 44
0.0
173
     0
291
     1
 45
0.0
1001
ACAD
1000
AcDbSavedByObjectVersion
1070
     0
  0
DICTIONARYVAR
  5
24A2
102
{ACAD_REACTORS
330
5E
102
}
330
5E
100
DictionaryVariables
280
     0
  1
1
  0
DICTIONARYVAR
  5
146
102
{ACAD_REACTORS
330
5E
102
}
330
5E
100
DictionaryVariables
280
     0
  1
1:1
  0
DICTIONARYVAR
  5
145
102
{ACAD_REACTORS
330
5E
102
}
330
5E
100
DictionaryVariables
280
     0
  1
STANDARD
  0
DICTIONARYVAR
  5
84
102
{ACAD_REACTORS
330
5E
102
}
330
5E
100
DictionaryVariables
280
     0
  1
STANDARD
  0
DICTIONARYVAR
  5
5F
102
{ACAD_REACTORS
330
5E
102
}
330
5E
100
DictionaryVariables
280
     0
  1
2
  0
DICTIONARYVAR
  5
63
102
{ACAD_REACTORS
330
5E
102
}
330
5E
100
DictionaryVariables
280
     0
  1
1
  0
DICTIONARYVAR
  5
466
102
{ACAD_REACTORS
330
5E
102
}
330
5E
100
DictionaryVariables
280
     0
  1
0
  0
DICTIONARYVAR
  5
26D2
102
{ACAD_REACTORS
330
5E
102
}
330
5E
100
DictionaryVariables
280
     0
  1
0
  0
DICTIONARYVAR
  5
464
102
{ACAD_REACTORS
330
5E
102
}
330
5E
100
DictionaryVariables
280
     0
  1
2
  0
DICTIONARYVAR
  5
463
102
{ACAD_REACTORS
330
5E
102
}
330
5E
100
DictionaryVariables
280
     0
  1
1
  0
DICTIONARYVAR
  5
27C5
102
{ACAD_REACTORS
330
5E
102
}
330
5E
100
DictionaryVariables
280
     0
  1
80.000000
  0
DICTIONARYVAR
  5
27C4
102
{ACAD_REACTORS
330
5E
102
}
330
5E
100
DictionaryVariables
280
     0
  1
5.000000
  0
DICTIONARYVAR
  5
465
102
{ACAD_REACTORS
330
5E
102
}
330
5E
100
DictionaryVariables
280
     0
  1
127
  0
DICTIONARY
  5
2231
102
{ACAD_REACTORS
330
2230
102
}
330
2230
100
AcDbDictionary
281
     1
  0
DICTIONARY
  5
2246
102
{ACAD_REACTORS
330
2245
102
}
330
2245
100
AcDbDictionary
281
     1
  0
DICTIONARY
  5
224B
102
{ACAD_REACTORS
330
224A
102
}
330
224A
100
AcDbDictionary
281
     1
  0
DICTIONARY
  5
27CA
330
D3
100
AcDbDictionary
280
     1
281
     1
  3
ACAD_XREC_ROUNDTRIP
360
27CB
  0
DICTIONARY
  5
27CC
330
D7
100
AcDbDictionary
280
     1
281
     1
  3
ACAD_XREC_ROUNDTRIP
360
27CD
  0
DICTIONARY
  5
27C7
330
22
100
AcDbDictionary
280
     1
281
     1
  3
ACAD_XREC_ROUNDTRIP
360
27C8
  0
DICTIONARY
  5
27D0
330
ED
100
AcDbDictionary
280
     1
281
     1
  3
ACAD_XREC_ROUNDTRIP
360
27D1
  0
DICTIONARY
  5
27CE
330
EC
100
AcDbDictionary
280
     1
281
     1
  3
ACAD_XREC_ROUNDTRIP
360
27CF
  0
DICTIONARY
  5
173
330
EE
100
AcDbDictionary
280
     1
281
     1
  3
ACAD_XREC_ROUNDTRIP
360
27D2
  3
BUMPTILE
360
175
  3
DIFFUSETILE
360
174
  3
OPACITYTILE
360
176
  3
REFLECTIONTILE
360
177
  0
DICTIONARY
  5
162
330
7F
100
AcDbDictionary
280
     1
281
     1
  3
ACAD_ROUNDTRIP_2008_TABLESTYLE_CELLSTYLEMAP
360
2695
  3
ACAD_XREC_ROUNDTRIP
360
27C9
  0
XRECORD
  5
27CB
102
{ACAD_REACTORS
330
27CA
102
}
330
27CA
100
AcDbXrecord
280
     1
102
SHADEPLOT
 70
     0
102
SHADEPLOTRESLEVEL
 70
     2
102
SHADEPLOTCUSTOMDPI
 70
   300
  0
XRECORD
  5
27CD
102
{ACAD_REACTORS
330
27CC
102
}
330
27CC
100
AcDbXrecord
280
     1
102
SHADEPLOT
 70
     0
102
SHADEPLOTRESLEVEL
 70
     2
102
SHADEPLOTCUSTOMDPI
 70
   300
  0
XRECORD
  5
27C8
102
{ACAD_REACTORS
330
27C7
102
}
330
27C7
100
AcDbXrecord
280
     1
102
SHADEPLOT
 70
     0
102
SHADEPLOTRESLEVEL
 70
     2
102
SHADEPLOTCUSTOMDPI
 70
   300
  0
XRECORD
  5
27D1
102
{ACAD_REACTORS
330
27D0
102
}
330
27D0
100
AcDbXrecord
280
     1
102
MATERIAL
148
0.0
149
0.0
149
0.0
 93
        0
 94
       63
282
     0
 72
     1
 77
     1
171
     1
175
     1
179
     1
273
     0
  0
XRECORD
  5
27CF
102
{ACAD_REACTORS
330
27CE
102
}
330
27CE
100
AcDbXrecord
280
     1
102
MATERIAL
148
0.0
149
0.0
149
0.0
 93
        0
 94
       63
282
     0
 72
     1
 77
     1
171
     1
175
     1
179
     1
273
     0
  0
XRECORD
  5
27D2
102
{ACAD_REACTORS
330
173
102
}
330
173
100
AcDbXrecord
280
     1
102
MATERIAL
148
0.0
149
0.0
149
0.0
 93
        0
 94
       63
282
     0
 72
     1
 77
     1
171
     1
175
     1
179
     1
273
     0
  0
XRECORD
  5
175
102
{ACAD_REACTORS
330
173
102
}
330
173
100
AcDbXrecord
280
     1
270
     1
271
     1
  0
XRECORD
  5
174
102
{ACAD_REACTORS
330
173
102
}
330
173
100
AcDbXrecord
280
     1
270
     1
271
     1
  0
XRECORD
  5
176
102
{ACAD_REACTORS
330
173
102
}
330
173
100
AcDbXrecord
280
     1
270
     1
271
     1
  0
XRECORD
  5
177
102
{ACAD_REACTORS
330
173
102
}
330
173
100
AcDbXrecord
280
     1
270
     1
271
     1
  0
ACAD_PROXY_OBJECT
  5
2695
102
{ACAD_REACTORS
330
162
102
}
330
162
100
AcDbProxyObject
 90
      499
 91
      509
 95
       23
 70
     0
 93
     5304
310
40D054060020000020000003200101A000080002A5058000000C10000000000000006101010000000000003E0FC000000000000F83F0000000000003E0FC000000000000F83F000000000000049000000000000001240419019018000000C1003FBFFFFFE0000000000003C8FD029018000000C1003FBFFFFFE00000000000
310
03C8FD049018000000C1003FBFFFFFE0000000000003C8FD089018000000C1003FBFFFFFE0000000000003C8FD109018000000C1003FBFFFFFE0000000000003C8FD209018000000C1003FBFFFFFE0000000000003C8FD01405075F5449544C450041501A8000000C800406800020000A94160000003040000000000000012
310
40404000000000000F83F0000000000003E0FC000000000000F83F0000000000003E0FC0000000000001240000000000000049010640640600000030400FEFFFFFF8000000000000F23F40A40600000030400FEFFFFFF8000000000000F23F41240600000030400FEFFFFFF8000000000000F23F42240600000030400FEFFF
310
FFF8000000000000F23F44240600000030400FEFFFFFF8000000000000F23F48240600000030400FEFFFFFF8000000000000F23F409014217D2115051115480105406A0000003200101A000080002A5028000000C10000000000000004901010000000000003E0FC000000000000F83F0000000000003E0FC000000000000F
310
83F000000000000049000000000000001240419019018000000C1003FBFFFFFE0000000000003C8FD029018000000C1003FBFFFFFE0000000000003C8FD049018000000C1003FBFFFFFE0000000000003C8FD089018000000C1003FBFFFFFE0000000000003C8FD109018000000C1003FBFFFFFE0000000000003C8FD20901
310
8000000C1003FBFFFFFE0000000000003C8FD03409065F444154410000
340
11
340
14
340
14
340
14
340
14
340
14
340
14
340
11
340
14
340
14
340
14
340
14
340
14
340
14
340
11
340
14
340
14
340
14
340
14
340
14
340
14
 94
        0
1001
ACAD
1000
AcRTDxfName
1000
CELLSTYLEMAP
1000
AcRTDxfName
1000
CELLSTYLEMAP
  0
XRECORD
  5
27C9
102
{ACAD_REACTORS
330
162
102
}
330
162
100
AcDbXrecord
280
     1
102
ACAD_ROUNDTRIP_PRE2007_TABLESTYLE
 90
      512
 91
        0
  1

 92
      512
 93
        0
  2

 94
      512
 95
        0
  3

  0
ENDSEC
  0
EOF
