  0
SECTION
  2
HEADER
  9
$ACADVER
  1
AC1015
  9
$ACADMAINTVER
 70
    20
  9
$DWGCODEPAGE
  3
ANSI_1250
  9
$INSBASE
 10
0.0
 20
0.0
 30
0.0
  9
$EXTMIN
 10
0.2849025745890685
 20
0.0
 30
0.0
  9
$EXTMAX
 10
334.636676666679
 20
297.0
 30
0.0
  9
$LIMMIN
 10
0.2849025745890685
 20
0.0
  9
$LIMMAX
 10
334.636676666679
 20
297.0
  9
$ORTHOMODE
 70
     0
  9
$REGENMODE
 70
     1
  9
$FILLMODE
 70
     1
  9
$QTEXTMODE
 70
     0
  9
$MIRRTEXT
 70
     0
  9
$LTSCALE
 40
1.0
  9
$ATTMODE
 70
     2
  9
$TEXTSIZE
 40
5.0
  9
$TRACEWID
 40
1.0
  9
$TEXTSTYLE
  7
Solbet_5
  9
$CLAYER
  8
SOLBET_Bloczki
  9
$CELTYPE
  6
ByLayer
  9
$CECOLOR
 62
   256
  9
$CELTSCALE
 40
1.0
  9
$DISPSILH
 70
     0
  9
$DIMSCALE
 40
1.0
  9
$DIMASZ
 40
2.5
  9
$DIMEXO
 40
0.0
  9
$DIMDLI
 40
3.75
  9
$DIMRND
 40
0.0
  9
$DIMDLE
 40
0.0
  9
$DIMEXE
 40
1.25
  9
$DIMTP
 40
0.0
  9
$DIMTM
 40
0.0
  9
$DIMTXT
 40
2.5
  9
$DIMCEN
 40
2.5
  9
$DIMTSZ
 40
0.0
  9
$DIMTOL
 70
     0
  9
$DIMLIM
 70
     0
  9
$DIMTIH
 70
     0
  9
$DIMTOH
 70
     0
  9
$DIMSE1
 70
     0
  9
$DIMSE2
 70
     0
  9
$DIMTAD
 70
     1
  9
$DIMZIN
 70
     8
  9
$DIMBLK
  1

  9
$DIMASO
 70
     1
  9
$DIMSHO
 70
     1
  9
$DIMPOST
  1

  9
$DIMAPOST
  1

  9
$DIMALT
 70
     0
  9
$DIMALTD
 70
     3
  9
$DIMALTF
 40
0.03937007874016
  9
$DIMLFAC
 40
1.0
  9
$DIMTOFL
 70
     1
  9
$DIMTVP
 40
0.0
  9
$DIMTIX
 70
     0
  9
$DIMSOXD
 70
     0
  9
$DIMSAH
 70
     0
  9
$DIMBLK1
  1

  9
$DIMBLK2
  1

  9
$DIMSTYLE
  2
Solbet
  9
$DIMCLRD
 70
     0
  9
$DIMCLRE
 70
     0
  9
$DIMCLRT
 70
     0
  9
$DIMTFAC
 40
1.0
  9
$DIMGAP
 40
0.625
  9
$DIMJUST
 70
     0
  9
$DIMSD1
 70
     0
  9
$DIMSD2
 70
     0
  9
$DIMTOLJ
 70
     0
  9
$DIMTZIN
 70
     8
  9
$DIMALTZ
 70
     0
  9
$DIMALTTZ
 70
     0
  9
$DIMUPT
 70
     0
  9
$DIMDEC
 70
     2
  9
$DIMTDEC
 70
     2
  9
$DIMALTU
 70
     2
  9
$DIMALTTD
 70
     3
  9
$DIMTXSTY
  7
Solbet_2_5
  9
$DIMAUNIT
 70
     0
  9
$DIMADEC
 70
     0
  9
$DIMALTRND
 40
0.0
  9
$DIMAZIN
 70
     0
  9
$DIMDSEP
 70
    44
  9
$DIMATFIT
 70
     3
  9
$DIMFRAC
 70
     0
  9
$DIMLDRBLK
  1

  9
$DIMLUNIT
 70
     2
  9
$DIMLWD
 70
    -2
  9
$DIMLWE
 70
    -2
  9
$DIMTMOVE
 70
     0
  9
$LUNITS
 70
     2
  9
$LUPREC
 70
     4
  9
$SKETCHINC
 40
1.0
  9
$FILLETRAD
 40
0.0
  9
$AUNITS
 70
     0
  9
$AUPREC
 70
     0
  9
$MENU
  1
.
  9
$ELEVATION
 40
0.0
  9
$PELEVATION
 40
0.0
  9
$THICKNESS
 40
0.0
  9
$LIMCHECK
 70
     0
  9
$CHAMFERA
 40
0.0
  9
$CHAMFERB
 40
0.0
  9
$CHAMFERC
 40
0.0
  9
$CHAMFERD
 40
0.0
  9
$SKPOLY
 70
     0
  9
$TDCREATE
 40
2454690.075573148
  9
$TDUCREATE
 40
2454690.033906482
  9
$TDUPDATE
 40
2454848.877979873
  9
$TDUUPDATE
 40
2454848.836313206
  9
$TDINDWG
 40
0.4368756019
  9
$TDUSRTIMER
 40
0.4368710764
  9
$USRTIMER
 70
     1
  9
$ANGBASE
 50
0.0
  9
$ANGDIR
 70
     0
  9
$PDMODE
 70
     0
  9
$PDSIZE
 40
0.0
  9
$PLINEWID
 40
0.0
  9
$SPLFRAME
 70
     0
  9
$SPLINETYPE
 70
     6
  9
$SPLINESEGS
 70
     8
  9
$HANDSEED
  5
26C5
  9
$SURFTAB1
 70
     6
  9
$SURFTAB2
 70
     6
  9
$SURFTYPE
 70
     6
  9
$SURFU
 70
     6
  9
$SURFV
 70
     6
  9
$UCSBASE
  2

  9
$UCSNAME
  2

  9
$UCSORG
 10
0.0
 20
0.0
 30
0.0
  9
$UCSXDIR
 10
1.0
 20
0.0
 30
0.0
  9
$UCSYDIR
 10
0.0
 20
1.0
 30
0.0
  9
$UCSORTHOREF
  2

  9
$UCSORTHOVIEW
 70
     0
  9
$UCSORGTOP
 10
0.0
 20
0.0
 30
0.0
  9
$UCSORGBOTTOM
 10
0.0
 20
0.0
 30
0.0
  9
$UCSORGLEFT
 10
0.0
 20
0.0
 30
0.0
  9
$UCSORGRIGHT
 10
0.0
 20
0.0
 30
0.0
  9
$UCSORGFRONT
 10
0.0
 20
0.0
 30
0.0
  9
$UCSORGBACK
 10
0.0
 20
0.0
 30
0.0
  9
$PUCSBASE
  2

  9
$PUCSNAME
  2

  9
$PUCSORG
 10
0.0
 20
0.0
 30
0.0
  9
$PUCSXDIR
 10
1.0
 20
0.0
 30
0.0
  9
$PUCSYDIR
 10
0.0
 20
1.0
 30
0.0
  9
$PUCSORTHOREF
  2

  9
$PUCSORTHOVIEW
 70
     0
  9
$PUCSORGTOP
 10
0.0
 20
0.0
 30
0.0
  9
$PUCSORGBOTTOM
 10
0.0
 20
0.0
 30
0.0
  9
$PUCSORGLEFT
 10
0.0
 20
0.0
 30
0.0
  9
$PUCSORGRIGHT
 10
0.0
 20
0.0
 30
0.0
  9
$PUCSORGFRONT
 10
0.0
 20
0.0
 30
0.0
  9
$PUCSORGBACK
 10
0.0
 20
0.0
 30
0.0
  9
$USERI1
 70
     0
  9
$USERI2
 70
     0
  9
$USERI3
 70
     0
  9
$USERI4
 70
     0
  9
$USERI5
 70
     0
  9
$USERR1
 40
0.0
  9
$USERR2
 40
0.0
  9
$USERR3
 40
0.0
  9
$USERR4
 40
0.0
  9
$USERR5
 40
0.0
  9
$WORLDVIEW
 70
     1
  9
$SHADEDGE
 70
     3
  9
$SHADEDIF
 70
    70
  9
$TILEMODE
 70
     1
  9
$MAXACTVP
 70
    64
  9
$PINSBASE
 10
0.0
 20
0.0
 30
0.0
  9
$PLIMCHECK
 70
     0
  9
$PEXTMIN
 10
0.0
 20
0.0
 30
0.0
  9
$PEXTMAX
 10
0.0
 20
0.0
 30
0.0
  9
$PLIMMIN
 10
0.0
 20
0.0
  9
$PLIMMAX
 10
12.0
 20
9.0
  9
$UNITMODE
 70
     0
  9
$VISRETAIN
 70
     1
  9
$PLINEGEN
 70
     0
  9
$PSLTSCALE
 70
     1
  9
$TREEDEPTH
 70
  3020
  9
$CMLSTYLE
  2
SOLBET_IZOLACJA
  9
$CMLJUST
 70
     0
  9
$CMLSCALE
 40
20.0
  9
$PROXYGRAPHICS
 70
     1
  9
$MEASUREMENT
 70
     1
  9
$CELWEIGHT
370
    -1
  9
$ENDCAPS
280
     0
  9
$JOINSTYLE
280
     0
  9
$LWDISPLAY
290
     1
  9
$INSUNITS
 70
     4
  9
$HYPERLINKBASE
  1

  9
$STYLESHEET
  1

  9
$XEDIT
290
     1
  9
$CEPSNTYPE
380
     0
  9
$PSTYLEMODE
290
     1
  9
$FINGERPRINTGUID
  2
{6B12AB33-8E39-428E-8E85-461C8D99A3CB}
  9
$VERSIONGUID
  2
{E9F296EF-2F88-44F7-8146-518975DAD588}
  9
$EXTNAMES
290
     1
  9
$PSVPSCALE
 40
0.0
  9
$OLESTARTUP
290
     0
  0
ENDSEC
  0
SECTION
  2
CLASSES
  0
CLASS
  1
ACDBDICTIONARYWDFLT
  2
AcDbDictionaryWithDefault
  3
ObjectDBX Classes
 90
        0
280
     0
281
     0
  0
CLASS
  1
ACDBPLACEHOLDER
  2
AcDbPlaceHolder
  3
ObjectDBX Classes
 90
        0
280
     0
281
     0
  0
CLASS
  1
LAYOUT
  2
AcDbLayout
  3
ObjectDBX Classes
 90
        0
280
     0
281
     0
  0
CLASS
  1
DICTIONARYVAR
  2
AcDbDictionaryVar
  3
ObjectDBX Classes
 90
        0
280
     0
281
     0
  0
CLASS
  1
TABLESTYLE
  2
AcDbTableStyle
  3
ObjectDBX Classes
 90
     4095
280
     0
281
     0
  0
CLASS
  1
MATERIAL
  2
AcDbMaterial
  3
ObjectDBX Classes
 90
     1024
280
     0
281
     0
  0
CLASS
  1
VISUALSTYLE
  2
AcDbVisualStyle
  3
ObjectDBX Classes
 90
     4095
280
     0
281
     0
  0
CLASS
  1
SCALE
  2
AcDbScale
  3
ObjectDBX Classes
 90
     1153
280
     0
281
     0
  0
CLASS
  1
MLEADERSTYLE
  2
AcDbMLeaderStyle
  3
ACDB_MLEADERSTYLE_CLASS
 90
     4095
280
     0
281
     0
  0
CLASS
  1
CELLSTYLEMAP
  2
AcDbCellStyleMap
  3
ObjectDBX Classes
 90
     1152
280
     0
281
     0
  0
CLASS
  1
DIMASSOC
  2
AcDbDimAssoc
  3
"AcDbDimAssoc|Product Desc:     AcDim ARX App For Dimension|Company:          Autodesk, Inc.|WEB Address:      www.autodesk.com"
 90
    32768
280
     0
281
     0
  0
CLASS
  1
SORTENTSTABLE
  2
AcDbSortentsTable
  3
ObjectDBX Classes
 90
        0
280
     0
281
     0
  0
CLASS
  1
MULTILEADER
  2
AcDbMLeader
  3
ACDB_MLEADER_CLASS
 90
    33793
280
     0
281
     1
  0
CLASS
  1
ACDB_MTEXTOBJECTCONTEXTDATA_CLASS
  2
AcDbMTextObjectContextData
  3
ObjectDBX Classes
 90
    33921
280
     0
281
     0
  0
ENDSEC
  0
SECTION
  2
TABLES
  0
TABLE
  2
VPORT
  5
8
102
{ACAD_XDICTIONARY
360
443
102
}
330
0
100
AcDbSymbolTable
 70
     1
  0
VPORT
  5
EA
330
8
100
AcDbSymbolTableRecord
100
AcDbViewportTableRecord
  2
*Active
 70
     0
 10
0.0
 20
0.0
 11
1.0
 21
1.0
 12
167.4607911776284
 22
148.5000013830562
 13
0.0
 23
0.0
 14
10.0
 24
10.0
 15
10.0
 25
10.0
 16
0.0
 26
0.0
 36
1.0
 17
0.0
 27
0.0
 37
0.0
 40
300.3366588335911
 41
1.74582560296846
 42
50.0
 43
0.0
 44
0.0
 50
0.0
 51
0.0
 71
     0
 72
  1000
 73
     1
 74
     3
 75
     0
 76
     0
 77
     0
 78
     0
281
     0
 65
     1
110
0.0
120
0.0
130
0.0
111
1.0
121
0.0
131
0.0
112
0.0
122
1.0
132
0.0
 79
     0
146
0.0
  0
ENDTAB
  0
TABLE
  2
LTYPE
  5
5
330
0
100
AcDbSymbolTable
 70
     2
  0
LTYPE
  5
14
330
5
100
AcDbSymbolTableRecord
100
AcDbLinetypeTableRecord
  2
ByBlock
 70
     0
  3

 72
    65
 73
     0
 40
0.0
  0
LTYPE
  5
15
330
5
100
AcDbSymbolTableRecord
100
AcDbLinetypeTableRecord
  2
ByLayer
 70
     0
  3

 72
    65
 73
     0
 40
0.0
  0
LTYPE
  5
16
330
5
100
AcDbSymbolTableRecord
100
AcDbLinetypeTableRecord
  2
Continuous
 70
     0
  3
Solid line
 72
    65
 73
     0
 40
0.0
  0
LTYPE
  5
982
330
5
100
AcDbSymbolTableRecord
100
AcDbLinetypeTableRecord
  2
BATTING
 70
     0
  3
Batting SSSSSSSSSSSSSSSSSSSSSSSSSSSSSSSSSSSSSSSSSSSSSSS
 72
    65
 73
     4
 40
10.16254
 49
0.00254
 74
     0
 49
-2.54
 74
     4
 75
   134
340
7E7
 46
2.54
 50
0.0
 44
-2.54
 45
0.0
 49
-5.08
 74
     4
 75
   134
340
7E7
 46
2.54
 50
180.0
 44
2.54
 45
0.0
 49
-2.54
 74
     0
  0
ENDTAB
  0
TABLE
  2
LAYER
  5
2
102
{ACAD_XDICTIONARY
360
3E5
102
}
330
0
100
AcDbSymbolTable
 70
    12
  0
LAYER
  5
10
102
{ACAD_XDICTIONARY
360
13C
102
}
330
2
100
AcDbSymbolTableRecord
100
AcDbLayerTableRecord
  2
0
 70
     0
 62
     7
  6
Continuous
370
    -3
390
F
  0
LAYER
  5
2BB
330
2
100
AcDbSymbolTableRecord
100
AcDbLayerTableRecord
  2
DEFPOINTS
 70
     0
 62
     7
  6
Continuous
290
     0
370
    -3
390
F
  0
LAYER
  5
3DD
102
{ACAD_XDICTIONARY
360
403
102
}
330
2
100
AcDbSymbolTableRecord
100
AcDbLayerTableRecord
  2
SOLBET_Bloczki
 70
     0
 62
   140
  6
Continuous
370
    -3
390
F
1001
AcAecLayerStandard
1000

1000

  0
LAYER
  5
3DF
102
{ACAD_XDICTIONARY
360
405
102
}
330
2
100
AcDbSymbolTableRecord
100
AcDbLayerTableRecord
  2
SOLBET_Wymiary_Opisy
 70
     0
 62
     1
  6
Continuous
370
    -3
390
F
1001
AcAecLayerStandard
1000

1000

  0
LAYER
  5
3E0
102
{ACAD_XDICTIONARY
360
407
102
}
330
2
100
AcDbSymbolTableRecord
100
AcDbLayerTableRecord
  2
SOLBET_Beton
 70
     0
 62
     9
  6
Continuous
370
    -3
390
F
1001
AcAecLayerStandard
1000

1000

  0
LAYER
  5
3E1
102
{ACAD_XDICTIONARY
360
409
102
}
330
2
100
AcDbSymbolTableRecord
100
AcDbLayerTableRecord
  2
SOLBET_Izolacja
 70
     0
 62
    40
  6
Continuous
370
    -3
390
F
1001
AcAecLayerStandard
1000

1000

  0
LAYER
  5
3E2
102
{ACAD_XDICTIONARY
360
40B
102
}
330
2
100
AcDbSymbolTableRecord
100
AcDbLayerTableRecord
  2
SOLBET_Zbrojenie_Konstrukcja
 70
     0
 62
     7
  6
Continuous
370
    -3
390
F
1001
AcAecLayerStandard
1000

1000

  0
LAYER
  5
3E4
102
{ACAD_XDICTIONARY
360
40F
102
}
330
2
100
AcDbSymbolTableRecord
100
AcDbLayerTableRecord
  2
SOLBET_Tynki_Posadzki
 70
     0
 62
     3
  6
Continuous
370
    -3
390
F
1001
AcAecLayerStandard
1000

1000

  0
LAYER
  5
3E8
102
{ACAD_XDICTIONARY
360
411
102
}
330
2
100
AcDbSymbolTableRecord
100
AcDbLayerTableRecord
  2
SOLBET_Ramka_05
 70
     0
 62
     2
  6
Continuous
370
    -3
390
F
1001
AcAecLayerStandard
1000

1000

  0
LAYER
  5
472
330
2
100
AcDbSymbolTableRecord
100
AcDbLayerTableRecord
  2
SOLBET_Zaprawy
 70
     0
 62
     4
  6
Continuous
370
    -3
390
F
1001
AcAecLayerStandard
1000

1000

  0
LAYER
  5
4E2
330
2
100
AcDbSymbolTableRecord
100
AcDbLayerTableRecord
  2
SOLBET_Emulsje_Folie
 70
     0
 62
     6
  6
Continuous
370
    -3
390
F
1001
AcAecLayerStandard
1000

1000

  0
LAYER
  5
25BB
102
{ACAD_XDICTIONARY
360
25BC
102
}
330
2
100
AcDbSymbolTableRecord
100
AcDbLayerTableRecord
  2
SOLBET_Wymiary_Opisy @ 1
 70
     0
 62
     1
  6
Continuous
370
    -3
390
F
1001
AcAecLayerStandard
1000

1000

1001
AcadAnnotativeDecomposition
1000
AnnotativeData
1002
{
1070
     1
1070
     1
1002
}
  0
ENDTAB
  0
TABLE
  2
STYLE
  5
3
330
0
100
AcDbSymbolTable
 70
     5
  0
STYLE
  5
11
330
3
100
AcDbSymbolTableRecord
100
AcDbTextStyleTableRecord
  2
Standard
 70
     0
 40
0.0
 41
1.0
 50
0.0
 71
     0
 42
2.5
  3
txt.shx
  4

  0
STYLE
  5
7D7
330
3
100
AcDbSymbolTableRecord
100
AcDbTextStyleTableRecord
  2
Solbet_5
 70
     0
 40
5.0
 41
1.0
 50
0.0
 71
     0
 42
5.0
  3
isocpeur.ttf
  4

1001
ACAD
1000
ISOCPEUR
1071
       34
  0
STYLE
  5
7D9
330
3
100
AcDbSymbolTableRecord
100
AcDbTextStyleTableRecord
  2
Solbet_2_5
 70
     0
 40
2.5
 41
1.0
 50
0.0
 71
     0
 42
2.5
  3
isocpeur.ttf
  4

1001
ACAD
1000
ISOCPEUR
1071
       34
  0
STYLE
  5
7E7
330
3
100
AcDbSymbolTableRecord
100
AcDbTextStyleTableRecord
  2

 70
     1
 40
0.0
 41
1.0
 50
0.0
 71
     0
 42
2.5
  3
ltypeshp.shx
  4

  0
STYLE
  5
2241
330
3
100
AcDbSymbolTableRecord
100
AcDbTextStyleTableRecord
  2
Solbet_1
 70
     0
 40
1.0
 41
1.0
 50
0.0
 71
     0
 42
2.5
  3
isocpeur.ttf
  4

1001
ACAD
1000
ISOCPEUR
1071
       34
  0
ENDTAB
  0
TABLE
  2
VIEW
  5
6
330
0
100
AcDbSymbolTable
 70
     0
  0
ENDTAB
  0
TABLE
  2
UCS
  5
7
330
0
100
AcDbSymbolTable
 70
     0
  0
ENDTAB
  0
TABLE
  2
APPID
  5
9
330
0
100
AcDbSymbolTable
 70
    13
  0
APPID
  5
12
330
9
100
AcDbSymbolTableRecord
100
AcDbRegAppTableRecord
  2
ACAD
 70
     0
  0
APPID
  5
9E
330
9
100
AcDbSymbolTableRecord
100
AcDbRegAppTableRecord
  2
ACAD_PSEXT
 70
     0
  0
APPID
  5
133
330
9
100
AcDbSymbolTableRecord
100
AcDbRegAppTableRecord
  2
AcadAnnoPO
 70
     0
  0
APPID
  5
134
330
9
100
AcDbSymbolTableRecord
100
AcDbRegAppTableRecord
  2
AcadAnnotative
 70
     0
  0
APPID
  5
135
330
9
100
AcDbSymbolTableRecord
100
AcDbRegAppTableRecord
  2
ACAD_DSTYLE_DIMJAG
 70
     0
  0
APPID
  5
136
330
9
100
AcDbSymbolTableRecord
100
AcDbRegAppTableRecord
  2
ACAD_DSTYLE_DIMTALN
 70
     0
  0
APPID
  5
165
330
9
100
AcDbSymbolTableRecord
100
AcDbRegAppTableRecord
  2
ACAD_MLEADERVER
 70
     0
  0
APPID
  5
2C4
330
9
100
AcDbSymbolTableRecord
100
AcDbRegAppTableRecord
  2
ASO_SCHRAFF
 70
     0
  0
APPID
  5
3DE
330
9
100
AcDbSymbolTableRecord
100
AcDbRegAppTableRecord
  2
AcAecLayerStandard
 70
     0
  0
APPID
  5
7DE
330
9
100
AcDbSymbolTableRecord
100
AcDbRegAppTableRecord
  2
ACAD_EXEMPT_FROM_CAD_STANDARDS
 70
     0
  0
APPID
  5
948
330
9
100
AcDbSymbolTableRecord
100
AcDbRegAppTableRecord
  2
ACAD_DSTYLE_DIMBREAK
 70
     0
  0
APPID
  5
1D0A
330
9
100
AcDbSymbolTableRecord
100
AcDbRegAppTableRecord
  2
AcadAnnotativeDecomposition
 70
     0
  0
APPID
  5
2242
330
9
100
AcDbSymbolTableRecord
100
AcDbRegAppTableRecord
  2
AcDbAttr
 70
     0
  0
ENDTAB
  0
TABLE
  2
DIMSTYLE
  5
A
330
0
100
AcDbSymbolTable
 70
     2
100
AcDbDimStyleTable
 71
     1
340
949
  0
DIMSTYLE
105
949
330
A
100
AcDbSymbolTableRecord
100
AcDbDimStyleTableRecord
  2
Solbet
 70
     0
 41
2.5
 42
0.0
 43
3.75
 44
1.25
 73
     0
 74
     0
 77
     1
 78
     8
140
2.5
141
2.5
143
0.03937007874016
147
0.625
171
     3
172
     1
271
     2
272
     2
274
     3
278
    44
283
     0
284
     8
340
7D9
1001
ACAD_DSTYLE_DIMBREAK
1070
   391
1040
3.75
1001
ACAD_DSTYLE_DIMJAG
1070
   388
1040
1.5
1001
ACAD_DSTYLE_DIMTALN
1070
   392
1070
     0
  0
DIMSTYLE
105
954
330
A
100
AcDbSymbolTableRecord
100
AcDbDimStyleTableRecord
  2
Solbet$7
 70
     0
 41
2.5
 42
0.0
 43
3.75
 44
1.25
 73
     0
 74
     0
 77
     1
 78
     8
140
2.5
141
2.5
143
0.03937007874016
147
0.625
171
     3
172
     1
271
     2
272
     2
274
     3
278
    44
283
     0
284
     8
340
7D9
341
958
1001
ACAD_DSTYLE_DIMBREAK
1070
   391
1040
3.75
1001
ACAD_DSTYLE_DIMJAG
1070
   388
1040
1.5
1001
ACAD_DSTYLE_DIMTALN
1070
   392
1070
     0
  0
ENDTAB
  0
TABLE
  2
BLOCK_RECORD
  5
1
330
0
100
AcDbSymbolTable
 70
     6
  0
BLOCK_RECORD
  5
1F
102
{ACAD_XDICTIONARY
360
4A3
102
}
330
1
100
AcDbSymbolTableRecord
100
AcDbBlockTableRecord
  2
*Model_Space
340
22
  0
BLOCK_RECORD
  5
D2
330
1
100
AcDbSymbolTableRecord
100
AcDbBlockTableRecord
  2
*Paper_Space
340
D3
  0
BLOCK_RECORD
  5
D6
330
1
100
AcDbSymbolTableRecord
100
AcDbBlockTableRecord
  2
*Paper_Space0
340
D7
  0
BLOCK_RECORD
  5
958
330
1
100
AcDbSymbolTableRecord
100
AcDbBlockTableRecord
  2
_DotSmall
340
0
  0
BLOCK_RECORD
  5
1EF2
330
1
100
AcDbSymbolTableRecord
100
AcDbBlockTableRecord
  2
_None
340
0
  0
BLOCK_RECORD
  5
2243
102
{ACAD_XDICTIONARY
360
224E
102
}
330
1
100
AcDbSymbolTableRecord
100
AcDbBlockTableRecord
  2
SOLBET_Bloczek_OPTIMAL_240x240x590_brak_PRA
340
0
1001
ACAD
1000
DesignCenter Data
1002
{
1070
     1
1070
     4
1002
}
  0
BLOCK_RECORD
  5
2623
102
{ACAD_XDICTIONARY
360
262F
102
}
330
1
100
AcDbSymbolTableRecord
100
AcDbBlockTableRecord
  2
SOLBET_Bloczek_Optimal_240x240x590_P+W_KG500_PRA
340
0
102
{BLKREFS
331
2633
331
2634
331
2635
331
2636
102
}
1001
ACAD
1000
DesignCenter Data
1002
{
1070
     1
1070
     4
1002
}
  0
ENDTAB
  0
ENDSEC
  0
SECTION
  2
BLOCKS
  0
BLOCK
  5
20
330
1F
100
AcDbEntity
  8
0
100
AcDbBlockBegin
  2
*Model_Space
 70
     0
 10
0.0
 20
0.0
 30
0.0
  3
*Model_Space
  1

  0
ENDBLK
  5
21
330
1F
100
AcDbEntity
  8
0
100
AcDbBlockEnd
  0
BLOCK
  5
D4
330
D2
100
AcDbEntity
 67
     1
  8
0
100
AcDbBlockBegin
  2
*Paper_Space
 70
     0
 10
0.0
 20
0.0
 30
0.0
  3
*Paper_Space
  1

  0
ENDBLK
  5
D5
330
D2
100
AcDbEntity
 67
     1
  8
0
100
AcDbBlockEnd
  0
BLOCK
  5
D8
330
D6
100
AcDbEntity
 67
     1
  8
0
100
AcDbBlockBegin
  2
*Paper_Space0
 70
     0
 10
0.0
 20
0.0
 30
0.0
  3
*Paper_Space0
  1

  0
ENDBLK
  5
D9
330
D6
100
AcDbEntity
 67
     1
  8
0
100
AcDbBlockEnd
  0
BLOCK
  5
95A
330
958
100
AcDbEntity
  8
0
100
AcDbBlockBegin
  2
_DotSmall
 70
     0
 10
0.0
 20
0.0
 30
0.0
  3
_DotSmall
  1

  0
LWPOLYLINE
  5
959
330
958
100
AcDbEntity
  8
0
  6
ByBlock
 62
     0
100
AcDbPolyline
 90
        2
 70
     1
 43
0.5
 10
-0.0625
 20
0.0
 42
1.0
 10
0.0625
 20
0.0
 42
1.0
  0
ENDBLK
  5
95B
330
958
100
AcDbEntity
  8
0
100
AcDbBlockEnd
  0
BLOCK
  5
1EF3
330
1EF2
100
AcDbEntity
  8
0
100
AcDbBlockBegin
  2
_None
 70
     0
 10
0.0
 20
0.0
 30
0.0
  3
_None
  1

  0
ENDBLK
  5
1EF4
330
1EF2
100
AcDbEntity
  8
0
100
AcDbBlockEnd
  0
BLOCK
  5
2250
330
2243
100
AcDbEntity
  8
0
100
AcDbBlockBegin
  2
SOLBET_Bloczek_OPTIMAL_240x240x590_brak_PRA
 70
     2
 10
0.0
 20
0.0
 30
0.0
  3
SOLBET_Bloczek_OPTIMAL_240x240x590_brak_PRA
  1

  0
ATTDEF
  5
2244
330
2243
100
AcDbEntity
  8
SOLBET_Wymiary_Opisy
100
AcDbText
 10
0.0000001757484824
 20
4.927022981232882
 30
0.0
 40
0.9913121336814832
  1
240x240x590
  7
Solbet_1
100
AcDbAttributeDefinition
  3

  2
WYMIARY
 70
     3
1001
AcDbAttr
1070
     0
1070
     1
  0
ATTDEF
  5
2245
330
2243
100
AcDbEntity
  8
SOLBET_Wymiary_Opisy
100
AcDbText
 10
0.0000001757484824
 20
3.414503573516785
 30
0.0
 40
0.9913121336814832
  1
400, 500, 600, 700
  7
Solbet_1
100
AcDbAttributeDefinition
  3

  2
KLASA_GĘSTOŚCI
 70
     9
1001
AcDbAttr
1070
     0
1070
     1
  0
ATTDEF
  5
2246
330
2243
100
AcDbEntity
  8
SOLBET_Wymiary_Opisy
100
AcDbText
 10
-0.0000000878742412
 20
0.2448647517692188
 30
0.0
 40
0.9913121336814832
  1
SOLBET
  7
Solbet_1
100
AcDbAttributeDefinition
  3

  2
FIRMA
 70
     3
1001
AcDbAttr
1070
     0
1070
     1
  0
ATTDEF
  5
2247
330
2243
100
AcDbEntity
  8
SOLBET_Wymiary_Opisy
100
AcDbText
 10
0.0000001757484824
 20
7.957332979580714
 30
0.0
 40
0.9913121336814832
  1
Bloczek
  7
Solbet_1
100
AcDbAttributeDefinition
  3
Nazwa
  2
NAZWA
 70
     3
1001
AcDbAttr
1070
     0
1070
     1
  0
ATTDEF
  5
2248
330
2243
100
AcDbEntity
  8
SOLBET_Wymiary_Opisy
100
AcDbText
 10
0.0000001757484824
 20
6.418284799346509
 30
0.0
 40
0.9913121336814832
  1
SOLBET OPTIMAL
  7
Solbet_1
100
AcDbAttributeDefinition
  3

  2
SYSTEM
 70
     3
1001
AcDbAttr
1070
     0
1070
     1
  0
ATTDEF
  5
2249
330
2243
100
AcDbEntity
  8
SOLBET_Wymiary_Opisy
100
AcDbText
 10
-0.0000000878742412
 20
1.744181511296331
 30
0.0
 40
0.9913121336814832
  1
Prawo
  7
Solbet_1
100
AcDbAttributeDefinition
  3

  2
WIDOK
 70
    11
1001
AcDbAttr
1070
     0
1070
     1
  0
LINE
  5
224A
330
2243
100
AcDbEntity
  8
SOLBET_Bloczki
100
AcDbLine
 10
12.00000017574848
 20
11.99999995881262
 30
0.0
 11
12.00000017574848
 21
-0.0000000411874908
 31
0.0
  0
LINE
  5
224B
330
2243
100
AcDbEntity
  8
SOLBET_Bloczki
100
AcDbLine
 10
12.00000017574848
 20
11.99999995881262
 30
0.0
 11
0.0000001757484824
 21
11.99999995881262
 31
0.0
  0
LINE
  5
224C
330
2243
100
AcDbEntity
  8
SOLBET_Bloczki
100
AcDbLine
 10
0.0000001757484824
 20
11.99999995881262
 30
0.0
 11
0.0000001757484824
 21
-0.0000000411873771
 31
0.0
  0
LINE
  5
224D
330
2243
100
AcDbEntity
  8
SOLBET_Bloczki
100
AcDbLine
 10
0.0000001757484824
 20
-0.0000000411873771
 30
0.0
 11
12.00000017574848
 21
-0.0000000411874908
 31
0.0
  0
ENDBLK
  5
2251
330
2243
100
AcDbEntity
  8
0
100
AcDbBlockEnd
  0
BLOCK
  5
2631
330
2623
100
AcDbEntity
  8
0
100
AcDbBlockBegin
  2
SOLBET_Bloczek_Optimal_240x240x590_P+W_KG500_PRA
 70
     2
 10
0.0
 20
0.0
 30
0.0
  3
SOLBET_Bloczek_Optimal_240x240x590_P+W_KG500_PRA
  1

  0
ATTDEF
  5
2624
330
2623
100
AcDbEntity
  8
SOLBET_Wymiary_Opisy
100
AcDbText
 10
-0.0000000878742412
 20
6.303237404038322
 30
0.0
 40
0.9913121336814832
  1
240x240x590
  7
Solbet_1
100
AcDbAttributeDefinition
  3

  2
WYMIARY
 70
    11
1001
AcDbAttr
1070
     0
1070
     1
  0
ATTDEF
  5
2625
330
2623
100
AcDbEntity
  8
SOLBET_Wymiary_Opisy
100
AcDbText
 10
-0.0000000878742412
 20
4.790717996322224
 30
0.0
 40
0.9913121336814832
  1
500
  7
Solbet_1
100
AcDbAttributeDefinition
  3

  2
KLASA_GĘSTOŚCI
 70
    11
1001
AcDbAttr
1070
     0
1070
     1
  0
ATTDEF
  5
2626
330
2623
100
AcDbEntity
  8
SOLBET_Wymiary_Opisy
100
AcDbText
 10
-0.0000000878742412
 20
3.269569161109998
 30
0.0
 40
0.9913121336814832
  1
Pióra+Wpusty
  7
Solbet_1
100
AcDbAttributeDefinition
  3

  2
PROFILOWANIE
 70
    11
1001
AcDbAttr
1070
     0
1070
     1
  0
ATTDEF
  5
2627
330
2623
100
AcDbEntity
  8
SOLBET_Wymiary_Opisy
100
AcDbText
 10
-0.0000000878742412
 20
0.2448647517692188
 30
0.0
 40
0.9913121336814832
  1
SOLBET
  7
Solbet_1
100
AcDbAttributeDefinition
  3

  2
FIRMA
 70
    11
1001
AcDbAttr
1070
     0
1070
     1
  0
ATTDEF
  5
2628
330
2623
100
AcDbEntity
  8
SOLBET_Wymiary_Opisy
100
AcDbText
 10
-0.0000000878742412
 20
9.333547402386153
 30
0.0
 40
0.9913121336814832
  1
Bloczek
  7
Solbet_1
100
AcDbAttributeDefinition
  3
Nazwa
  2
NAZWA
 70
    11
1001
AcDbAttr
1070
     0
1070
     1
  0
ATTDEF
  5
2629
330
2623
100
AcDbEntity
  8
SOLBET_Wymiary_Opisy
100
AcDbText
 10
-0.0000000878742412
 20
7.794499222151949
 30
0.0
 40
0.9913121336814832
  1
SOLBET Optimal
  7
Solbet_1
100
AcDbAttributeDefinition
  3

  2
SYSTEM
 70
    11
1001
AcDbAttr
1070
     0
1070
     1
  0
ATTDEF
  5
262A
330
2623
100
AcDbEntity
  8
SOLBET_Wymiary_Opisy
100
AcDbText
 10
-0.0000000878742412
 20
1.744181511296331
 30
0.0
 40
0.9913121336814832
  1
Prawo
  7
Solbet_1
100
AcDbAttributeDefinition
  3

  2
WIDOK
 70
    11
1001
AcDbAttr
1070
     0
1070
     1
  0
LINE
  5
262B
330
2623
100
AcDbEntity
  8
SOLBET_Bloczki
100
AcDbLine
 10
12.00000017574848
 20
11.99999995881262
 30
0.0
 11
12.00000017574848
 21
-0.0000000411874908
 31
0.0
  0
LINE
  5
262C
330
2623
100
AcDbEntity
  8
SOLBET_Bloczki
100
AcDbLine
 10
12.00000017574848
 20
11.99999995881262
 30
0.0
 11
0.0000001757484824
 21
11.99999995881262
 31
0.0
  0
LINE
  5
262D
330
2623
100
AcDbEntity
  8
SOLBET_Bloczki
100
AcDbLine
 10
0.0000001757484824
 20
11.99999995881262
 30
0.0
 11
0.0000001757484824
 21
-0.0000000411873771
 31
0.0
  0
LINE
  5
262E
330
2623
100
AcDbEntity
  8
SOLBET_Bloczki
100
AcDbLine
 10
0.0000001757484824
 20
-0.0000000411873771
 30
0.0
 11
12.00000017574848
 21
-0.0000000411874908
 31
0.0
  0
ENDBLK
  5
2632
330
2623
100
AcDbEntity
  8
0
100
AcDbBlockEnd
  0
ENDSEC
  0
SECTION
  2
ENTITIES
  0
LINE
  5
2168
330
1F
100
AcDbEntity
  8
SOLBET_Wymiary_Opisy
100
AcDbLine
 10
141.2215056938937
 20
213.2935641277754
 30
0.0
 11
141.2215056938937
 21
162.5202168764963
 31
0.0
  0
LWPOLYLINE
  5
2169
330
1F
100
AcDbEntity
  8
SOLBET_Zbrojenie_Konstrukcja
100
AcDbPolyline
 90
        2
 70
     1
 43
0.3
 10
69.76298447118347
 20
181.4605237513433
 42
1.0
 10
70.06298447117183
 20
181.4605237513433
 42
1.0
  0
LWPOLYLINE
  5
216A
330
1F
100
AcDbEntity
  8
SOLBET_Zbrojenie_Konstrukcja
100
AcDbPolyline
 90
        2
 70
     1
 43
0.3
 10
77.27253409356376
 20
181.4389040762626
 42
1.0
 10
77.57253409356668
 20
181.4389040762626
 42
1.0
  0
LWPOLYLINE
  5
216B
330
1F
100
AcDbEntity
  8
SOLBET_Zbrojenie_Konstrukcja
100
AcDbPolyline
 90
        2
 70
     1
 43
0.3
 10
77.27253409356376
 20
173.4030855641276
 42
1.0
 10
77.57253409356668
 20
173.4030855641276
 42
1.0
  0
LWPOLYLINE
  5
216C
330
1F
100
AcDbEntity
  8
SOLBET_Zbrojenie_Konstrukcja
100
AcDbPolyline
 90
        2
 70
     1
 43
0.3
 10
69.76298447118347
 20
173.4030855641276
 42
1.0
 10
70.06298447117183
 20
173.4030855641276
 42
1.0
  0
LINE
  5
216D
330
1F
100
AcDbEntity
  8
SOLBET_Zbrojenie_Konstrukcja
100
AcDbLine
 10
72.20790454243865
 20
180.371557238509
 30
0.0
 11
70.79369098006896
 21
181.7857708008823
 31
0.0
  0
LINE
  5
216E
330
1F
100
AcDbEntity
  8
SOLBET_Zbrojenie_Konstrukcja
100
AcDbLine
 10
71.00790454244156
 20
179.1715572385101
 30
0.0
 11
69.59369098007186
 21
180.5857708008816
 31
0.0
  0
LWPOLYLINE
  5
216F
330
1F
100
AcDbEntity
  8
SOLBET_Zbrojenie_Konstrukcja
100
AcDbPolyline
 90
        5
 70
     0
 43
0.0
 10
77.71422793335545
 20
173.0868680243884
 10
77.71422793335545
 20
181.7857708008823
 10
69.59369098007186
 20
181.7857708008823
 10
69.59369098007186
 20
173.0868680243884
 10
77.71422793335545
 20
173.0868680243884
  0
LINE
  5
2170
330
1F
100
AcDbEntity
  8
SOLBET_Izolacja
  6
Continuous
100
AcDbLine
 10
68.72258421798211
 20
171.5779125270901
 30
0.0
 11
68.72258421798211
 21
183.5779125270901
 31
0.0
  0
LINE
  5
2171
330
1F
100
AcDbEntity
  8
SOLBET_Wymiary_Opisy
100
AcDbLine
 10
56.61869522520897
 20
213.2935641277754
 30
0.0
 11
141.2215056938937
 21
213.2935641277754
 31
0.0
  0
LINE
  5
2174
330
1F
100
AcDbEntity
  8
SOLBET_Tynki_Posadzki
100
AcDbLine
 10
82.02065040918274
 20
189.4512193606469
 30
0.0
 11
82.02065040918274
 21
188.9512193606451
 31
0.0
  0
ARC
  5
2175
330
1F
100
AcDbEntity
  8
SOLBET_Tynki_Posadzki
100
AcDbCircle
 10
81.22258421798211
 20
189.4512193606469
 30
0.0
 40
1.5000521396288
100
AcDbArc
 50
0.0
 51
90.0
  0
LINE
  5
2177
330
1F
100
AcDbEntity
  8
SOLBET_Izolacja
  6
Continuous
100
AcDbLine
 10
81.72258421798209
 20
188.9512193606451
 30
0.0
 11
80.7225842179821
 21
188.9512193606451
 31
0.0
  0
LINE
  5
2179
330
1F
100
AcDbEntity
  8
SOLBET_Izolacja
  6
Continuous
100
AcDbLine
 10
81.72258421798209
 20
183.5779125270901
 30
0.0
 11
80.7225842179821
 21
183.5779125270901
 31
0.0
  0
LINE
  5
217A
330
1F
100
AcDbEntity
  8
SOLBET_Tynki_Posadzki
100
AcDbLine
 10
82.02065040918274
 20
189.4512193606469
 30
0.0
 11
141.2215056938937
 21
189.4512193606469
 31
0.0
  0
LINE
  5
217D
330
1F
100
AcDbEntity
  8
SOLBET_Izolacja
  6
Continuous
100
AcDbLine
 10
81.72258421798209
 20
183.5779125270901
 30
0.0
 11
81.72258421798209
 21
188.9512193606451
 31
0.0
  0
LINE
  5
217E
330
1F
100
AcDbEntity
  8
SOLBET_Izolacja
  6
Continuous
100
AcDbLine
 10
81.72258421798209
 20
186.0779125270919
 30
0.0
 11
141.2215056938937
 21
186.0779125270919
 31
0.0
  0
LINE
  5
217F
330
1F
100
AcDbEntity
  8
SOLBET_Tynki_Posadzki
100
AcDbLine
 10
81.22258421798211
 20
188.9512193606451
 30
0.0
 11
81.22258421798211
 21
213.2935641277754
 31
0.0
  0
LINE
  5
2180
330
1F
100
AcDbEntity
  8
SOLBET_Izolacja
  6
Continuous
100
AcDbLine
 10
81.22258421798211
 20
183.5779125270901
 30
0.0
 11
141.2215056938937
 21
183.5779125270901
 31
0.0
  0
LINE
  5
2181
330
1F
100
AcDbEntity
  8
SOLBET_Emulsje_Folie
100
AcDbLine
 10
81.83740026764894
 20
189.2012193606469
 30
0.0
 11
81.83740026764894
 21
186.5237518406638
 31
0.0
  0
LINE
  5
2182
330
1F
100
AcDbEntity
  8
SOLBET_Emulsje_Folie
100
AcDbLine
 10
82.08740026764894
 20
186.2737518406638
 30
0.0
 11
141.2215056938937
 21
186.2737518406638
 31
0.0
  0
ARC
  5
2183
330
1F
100
AcDbEntity
  8
SOLBET_Emulsje_Folie
100
AcDbCircle
 10
82.08740026764894
 20
186.5237518406638
 30
0.0
 40
0.25
100
AcDbArc
 50
180.0
 51
270.0
  0
LWPOLYLINE
  5
2184
102
{ACAD_REACTORS
330
2284
102
}
330
1F
100
AcDbEntity
  8
SOLBET_Tynki_Posadzki
100
AcDbPolyline
 90
        5
 70
     1
 43
0.0
 10
81.83740026764894
 20
186.5237518406638
 42
0.0737237824442244
 10
81.84815345086713
 20
186.4512193606469
 10
141.2215056938937
 20
186.4512193606469
 10
141.2215056938937
 20
188.9512193606451
 10
81.83740026764894
 20
188.9512193606451
1001
ASO_SCHRAFF
1005
0
1070
     1
1002
{
1070
     1
1005
0
1002
}
1002
{
1070
     2
1005
0
1002
}
1002
{
1070
     4
1000
AR-CONC
1040
0.01
1040
0.0
1070
     0
1000
T__SCHR
1070
   256
1000
_bylayer
1040
50.0
1070
     1
1002
}
  0
LINE
  5
2187
330
1F
100
AcDbEntity
  8
SOLBET_Tynki_Posadzki
100
AcDbLine
 10
81.22258421798211
 20
171.0779125270901
 30
0.0
 11
81.22258421798211
 21
162.5202168764963
 31
0.0
  0
LINE
  5
2188
330
1F
100
AcDbEntity
  8
SOLBET_Tynki_Posadzki
100
AcDbLine
 10
81.22258421798211
 20
171.0779125270901
 30
0.0
 11
80.72457738550179
 21
171.5779125270901
 31
0.0
  0
LINE
  5
2196
330
1F
100
AcDbEntity
  8
SOLBET_Wymiary_Opisy
100
AcDbLine
 10
56.61869522520897
 20
162.5202168764963
 30
0.0
 11
141.2215056938937
 21
162.5202168764963
 31
0.0
  0
LINE
  5
2198
330
1F
100
AcDbEntity
  8
SOLBET_Wymiary_Opisy
100
AcDbLine
 10
294.9601060368775
 20
213.2935641277754
 30
0.0
 11
294.9601060368775
 21
162.5202168764963
 31
0.0
  0
LINE
  5
2199
330
1F
100
AcDbEntity
  8
SOLBET_Wymiary_Opisy
100
AcDbLine
 10
210.3572955682073
 20
213.2935641277754
 30
0.0
 11
294.9601060368775
 21
213.2935641277754
 31
0.0
  0
LINE
  5
219A
330
1F
100
AcDbEntity
  8
SOLBET_Tynki_Posadzki
100
AcDbLine
 10
235.7592507521665
 20
189.4512193606469
 30
0.0
 11
235.7592507521665
 21
188.9512193606451
 31
0.0
  0
ARC
  5
219B
330
1F
100
AcDbEntity
  8
SOLBET_Tynki_Posadzki
100
AcDbCircle
 10
234.9611845609804
 20
189.4512193606469
 30
0.0
 40
1.5000521396288
100
AcDbArc
 50
0.0
 51
90.0
  0
LINE
  5
219D
330
1F
100
AcDbEntity
  8
SOLBET_Izolacja
  6
Continuous
100
AcDbLine
 10
235.4611845609804
 20
188.9512193606451
 30
0.0
 11
234.4611845609804
 21
188.9512193606451
 31
0.0
  0
LINE
  5
219F
330
1F
100
AcDbEntity
  8
SOLBET_Izolacja
  6
Continuous
100
AcDbLine
 10
235.4611845609804
 20
183.5779125270901
 30
0.0
 11
234.4611845609804
 21
183.5779125270901
 31
0.0
  0
LINE
  5
21A0
330
1F
100
AcDbEntity
  8
SOLBET_Tynki_Posadzki
100
AcDbLine
 10
235.7592507521665
 20
189.4512193606469
 30
0.0
 11
294.9601060368775
 21
189.4512193606469
 31
0.0
  0
LINE
  5
21A3
330
1F
100
AcDbEntity
  8
SOLBET_Izolacja
  6
Continuous
100
AcDbLine
 10
235.4611845609804
 20
183.5779125270901
 30
0.0
 11
235.4611845609804
 21
188.9512193606451
 31
0.0
  0
LINE
  5
21A4
330
1F
100
AcDbEntity
  8
SOLBET_Izolacja
  6
Continuous
100
AcDbLine
 10
235.4611845609804
 20
186.0779125270919
 30
0.0
 11
294.9601060368775
 21
186.0779125270919
 31
0.0
  0
LINE
  5
21A5
330
1F
100
AcDbEntity
  8
SOLBET_Tynki_Posadzki
100
AcDbLine
 10
234.9611845609804
 20
188.9512193606451
 30
0.0
 11
234.9611845609804
 21
213.2935641277754
 31
0.0
  0
LINE
  5
21A6
330
1F
100
AcDbEntity
  8
SOLBET_Izolacja
  6
Continuous
100
AcDbLine
 10
234.9611845609804
 20
183.5779125270901
 30
0.0
 11
294.9601060368775
 21
183.5779125270901
 31
0.0
  0
LINE
  5
21A7
330
1F
100
AcDbEntity
  8
SOLBET_Emulsje_Folie
100
AcDbLine
 10
235.5760006106473
 20
189.2012193606469
 30
0.0
 11
235.5760006106473
 21
186.5237518406638
 31
0.0
  0
LINE
  5
21A8
330
1F
100
AcDbEntity
  8
SOLBET_Emulsje_Folie
100
AcDbLine
 10
235.8260006106473
 20
186.2737518406638
 30
0.0
 11
294.9601060368775
 21
186.2737518406638
 31
0.0
  0
ARC
  5
21A9
330
1F
100
AcDbEntity
  8
SOLBET_Emulsje_Folie
100
AcDbCircle
 10
235.8260006106473
 20
186.5237518406638
 30
0.0
 40
0.25
100
AcDbArc
 50
180.0
 51
270.0
  0
LINE
  5
21AC
330
1F
100
AcDbEntity
  8
SOLBET_Tynki_Posadzki
100
AcDbLine
 10
234.9611845609804
 20
171.0779125270901
 30
0.0
 11
234.9611845609804
 21
162.5202168764963
 31
0.0
  0
LINE
  5
21AD
330
1F
100
AcDbEntity
  8
SOLBET_Tynki_Posadzki
100
AcDbLine
 10
234.9611845609804
 20
171.0779125270901
 30
0.0
 11
234.4631777285001
 21
171.5779125270901
 31
0.0
  0
LINE
  5
21AE
330
1F
100
AcDbEntity
  8
SOLBET_Wymiary_Opisy
100
AcDbLine
 10
210.3572955682073
 20
162.5202168764963
 30
0.0
 11
294.9601060368775
 21
162.5202168764963
 31
0.0
  0
LINE
  5
21C2
330
1F
100
AcDbEntity
  8
SOLBET_Izolacja
100
AcDbLine
 10
61.22258421798211
 20
213.2935641277754
 30
0.0
 11
61.22258421798211
 21
162.5202168764963
 31
0.0
  0
LINE
  5
21C3
330
1F
100
AcDbEntity
  8
SOLBET_Zaprawy
100
AcDbLine
 10
60.93926241144686
 20
162.5202168764963
 30
0.0
 11
60.93926241144686
 21
213.2935641277754
 31
0.0
  0
LINE
  5
21C4
330
1F
100
AcDbEntity
  8
SOLBET_Tynki_Posadzki
100
AcDbLine
 10
60.4725842179821
 20
162.5202168764963
 30
0.0
 11
60.4725842179821
 21
213.2935641277754
 31
0.0
  0
LINE
  5
21C5
330
1F
100
AcDbEntity
  8
SOLBET_Zbrojenie_Konstrukcja
100
AcDbLine
 10
61.53604370078278
 20
202.9131891163715
 30
0.0
 11
61.53604370078278
 21
199.6639744821887
 31
0.0
  0
LINE
  5
21C6
330
1F
100
AcDbEntity
  8
SOLBET_Zbrojenie_Konstrukcja
100
AcDbLine
 10
61.16099231843577
 20
201.2885817992801
 30
0.0
 11
74.91286618718618
 21
201.2885817992801
 31
0.0
  0
LINE
  5
21C7
330
1F
100
AcDbEntity
  8
SOLBET_Zbrojenie_Konstrukcja
100
AcDbLine
 10
61.53604370078278
 20
166.5102818815949
 30
0.0
 11
61.53604370078278
 21
163.261067247412
 31
0.0
  0
LINE
  5
21C8
330
1F
100
AcDbEntity
  8
SOLBET_Zbrojenie_Konstrukcja
100
AcDbLine
 10
61.16099231843577
 20
164.8856745645034
 30
0.0
 11
74.91286618718618
 21
164.8856745645034
 31
0.0
  0
LWPOLYLINE
  5
21CA
330
1F
100
AcDbEntity
  8
SOLBET_Zbrojenie_Konstrukcja
100
AcDbPolyline
 90
        2
 70
     1
 43
0.3
 10
223.5015848141673
 20
181.4605237513433
 42
1.0
 10
223.8015848141702
 20
181.4605237513433
 42
1.0
  0
LWPOLYLINE
  5
21CB
330
1F
100
AcDbEntity
  8
SOLBET_Zbrojenie_Konstrukcja
100
AcDbPolyline
 90
        2
 70
     1
 43
0.3
 10
231.7826035421065
 20
181.4389040762626
 42
1.0
 10
232.0826035420948
 20
181.4389040762626
 42
1.0
  0
LWPOLYLINE
  5
21CC
330
1F
100
AcDbEntity
  8
SOLBET_Zbrojenie_Konstrukcja
100
AcDbPolyline
 90
        2
 70
     1
 43
0.3
 10
231.7826035421065
 20
172.6441339274106
 42
1.0
 10
232.0826035420948
 20
172.6441339274106
 42
1.0
  0
LWPOLYLINE
  5
21CD
330
1F
100
AcDbEntity
  8
SOLBET_Zbrojenie_Konstrukcja
100
AcDbPolyline
 90
        2
 70
     1
 43
0.3
 10
223.5015848141673
 20
172.6441339274106
 42
1.0
 10
223.8015848141702
 20
172.6441339274106
 42
1.0
  0
LINE
  5
21CE
330
1F
100
AcDbEntity
  8
SOLBET_Zbrojenie_Konstrukcja
100
AcDbLine
 10
225.946504885437
 20
180.371557238509
 30
0.0
 11
224.5322913230673
 21
181.7857708008823
 31
0.0
  0
LINE
  5
21CF
330
1F
100
AcDbEntity
  8
SOLBET_Zbrojenie_Konstrukcja
100
AcDbLine
 10
224.7465048854399
 20
179.1715572385101
 30
0.0
 11
223.3322913230556
 21
180.5857708008816
 31
0.0
  0
LWPOLYLINE
  5
21D0
330
1F
100
AcDbEntity
  8
SOLBET_Zbrojenie_Konstrukcja
100
AcDbPolyline
 90
        5
 70
     0
 43
0.0
 10
232.2242973818836
 20
172.3279125270919
 10
232.2242973818836
 20
181.7857708008823
 10
223.3322913230556
 20
181.7857708008823
 10
223.3322913230556
 20
172.3279125270919
 10
232.2242973818836
 20
172.3279125270919
  0
LINE
  5
21E4
330
1F
100
AcDbEntity
  8
SOLBET_Zaprawy
100
AcDbLine
 10
214.6778627544452
 20
162.5202168764963
 30
0.0
 11
214.6778627544452
 21
213.2935641277754
 31
0.0
  0
LINE
  5
21E5
330
1F
100
AcDbEntity
  8
SOLBET_Tynki_Posadzki
100
AcDbLine
 10
214.2111845609804
 20
162.5202168764963
 30
0.0
 11
214.2111845609804
 21
213.2935641277754
 31
0.0
  0
LINE
  5
21E6
330
1F
100
AcDbEntity
  8
SOLBET_Zbrojenie_Konstrukcja
100
AcDbLine
 10
215.2746440437811
 20
202.9131891163715
 30
0.0
 11
215.2746440437811
 21
199.6639744821887
 31
0.0
  0
LINE
  5
21E7
330
1F
100
AcDbEntity
  8
SOLBET_Zbrojenie_Konstrukcja
100
AcDbLine
 10
214.8995926614341
 20
201.2885817992801
 30
0.0
 11
228.6514665301845
 21
201.2885817992801
 31
0.0
  0
LINE
  5
21E8
330
1F
100
AcDbEntity
  8
SOLBET_Zbrojenie_Konstrukcja
100
AcDbLine
 10
215.2746440437811
 20
166.5102818815949
 30
0.0
 11
215.2746440437811
 21
163.261067247412
 31
0.0
  0
LINE
  5
21E9
330
1F
100
AcDbEntity
  8
SOLBET_Zbrojenie_Konstrukcja
100
AcDbLine
 10
214.8995926614341
 20
164.8856745645034
 30
0.0
 11
228.6514665301845
 21
164.8856745645034
 31
0.0
  0
LWPOLYLINE
  5
21EB
330
1F
100
AcDbEntity
  8
SOLBET_Zbrojenie_Konstrukcja
100
AcDbPolyline
 90
        6
 70
     0
 43
0.0
 10
118.4499418705879
 20
182.1991980898465
 10
69.94994187058797
 20
182.1991980898465
 42
0.4142135623730951
 10
69.44994187058796
 20
181.6991980898465
 10
69.44994187058796
 20
175.6025643097191
 42
0.4142135623730964
 10
69.94994187058797
 20
175.1025643097191
 10
88.44994187058796
 20
175.1025643097191
  0
LINE
  5
21EC
330
1F
100
AcDbEntity
  8
SOLBET_Zbrojenie_Konstrukcja
100
AcDbLine
 10
140.2245773855018
 20
181.0779125270919
 30
0.0
 11
141.2215056938937
 21
179.2086719488807
 31
0.0
  0
LINE
  5
21ED
330
1F
100
AcDbEntity
  8
SOLBET_Zbrojenie_Konstrukcja
100
AcDbLine
 10
136.7579107188419
 20
174.5779125270901
 30
0.0
 11
140.2245773855018
 21
181.0779125270919
 31
0.0
  0
LINE
  5
21EE
330
1F
100
AcDbEntity
  8
SOLBET_Zbrojenie_Konstrukcja
100
AcDbLine
 10
112.7579107188419
 20
174.5779125270901
 30
0.0
 11
116.2245773855018
 21
181.0779125270919
 31
0.0
  0
LINE
  5
21EF
330
1F
100
AcDbEntity
  8
SOLBET_Zbrojenie_Konstrukcja
100
AcDbLine
 10
120.7579107188419
 20
174.5779125270901
 30
0.0
 11
124.2245773855163
 21
181.0779125270919
 31
0.0
  0
LINE
  5
21F0
330
1F
100
AcDbEntity
  8
SOLBET_Zbrojenie_Konstrukcja
100
AcDbLine
 10
128.7579107188419
 20
174.5779125270901
 30
0.0
 11
132.2245773855018
 21
181.0779125270919
 31
0.0
  0
LINE
  5
21F1
330
1F
100
AcDbEntity
  8
SOLBET_Zbrojenie_Konstrukcja
100
AcDbLine
 10
104.7579107188419
 20
174.5779125270901
 30
0.0
 11
108.2245773855163
 21
181.0779125270919
 31
0.0
  0
LINE
  5
21F2
330
1F
100
AcDbEntity
  8
SOLBET_Zbrojenie_Konstrukcja
100
AcDbLine
 10
96.75791071884191
 20
174.5779125270901
 30
0.0
 11
100.2245773855163
 21
181.0779125270919
 31
0.0
  0
LINE
  5
21F3
330
1F
100
AcDbEntity
  8
SOLBET_Zbrojenie_Konstrukcja
100
AcDbLine
 10
88.75791071884192
 20
174.5779125270901
 30
0.0
 11
92.22457738550179
 21
181.0779125270919
 31
0.0
  0
LINE
  5
21F4
330
1F
100
AcDbEntity
  8
SOLBET_Zbrojenie_Konstrukcja
100
AcDbLine
 10
80.75791071884191
 20
174.5779125270901
 30
0.0
 11
84.22457738551633
 21
181.0779125270919
 31
0.0
  0
LINE
  5
21F5
330
1F
100
AcDbEntity
  8
SOLBET_Zbrojenie_Konstrukcja
100
AcDbLine
 10
84.22457738551633
 20
181.0779125270919
 30
0.0
 11
87.69124405217622
 21
174.5779125270901
 31
0.0
  0
LINE
  5
21F6
330
1F
100
AcDbEntity
  8
SOLBET_Zbrojenie_Konstrukcja
100
AcDbLine
 10
92.22457738550179
 20
181.0779125270919
 30
0.0
 11
95.69124405217621
 21
174.5779125270901
 31
0.0
  0
LINE
  5
21F7
330
1F
100
AcDbEntity
  8
SOLBET_Zbrojenie_Konstrukcja
100
AcDbLine
 10
100.2245773855163
 20
181.0779125270919
 30
0.0
 11
103.6912440521762
 21
174.5779125270901
 31
0.0
  0
LINE
  5
21F8
330
1F
100
AcDbEntity
  8
SOLBET_Zbrojenie_Konstrukcja
100
AcDbLine
 10
108.2245773855163
 20
181.0779125270919
 30
0.0
 11
111.6912440521762
 21
174.5779125270901
 31
0.0
  0
LINE
  5
21F9
330
1F
100
AcDbEntity
  8
SOLBET_Zbrojenie_Konstrukcja
100
AcDbLine
 10
141.2215056938937
 20
181.0779125270919
 30
0.0
 11
78.72457738550179
 21
181.0779125270901
 31
0.0
  0
LINE
  5
21FA
330
1F
100
AcDbEntity
  8
SOLBET_Zbrojenie_Konstrukcja
100
AcDbLine
 10
132.2245773855018
 20
181.0779125270919
 30
0.0
 11
135.6912440521762
 21
174.5779125270901
 31
0.0
  0
LINE
  5
21FB
330
1F
100
AcDbEntity
  8
SOLBET_Zbrojenie_Konstrukcja
100
AcDbLine
 10
124.2245773855163
 20
181.0779125270919
 30
0.0
 11
127.6912440521762
 21
174.5779125270901
 31
0.0
  0
LINE
  5
21FC
330
1F
100
AcDbEntity
  8
SOLBET_Zbrojenie_Konstrukcja
100
AcDbLine
 10
116.2245773855018
 20
181.0779125270919
 30
0.0
 11
119.6912440521762
 21
174.5779125270901
 31
0.0
  0
LWPOLYLINE
  5
2200
330
1F
100
AcDbEntity
  8
SOLBET_Zbrojenie_Konstrukcja
100
AcDbPolyline
 90
        2
 70
     1
 43
0.3
 10
240.7407835595265
 20
180.3091194602666
 42
1.0
 10
241.0407835595295
 20
180.3091194602666
 42
1.0
  0
LINE
  5
2201
330
1F
100
AcDbEntity
  8
SOLBET_Zbrojenie_Konstrukcja
100
AcDbLine
 10
241.1568407729835
 20
180.5024823447684
 30
0.0
 11
242.8037765946108
 21
173.1873943492583
 31
0.0
  0
LWPOLYLINE
  5
2202
330
1F
100
AcDbEntity
  8
SOLBET_Zbrojenie_Konstrukcja
100
AcDbPolyline
 90
        2
 70
     1
 43
0.3
 10
238.6017221368281
 20
172.8495263268623
 42
1.0
 10
238.901722136831
 20
172.8495263268623
 42
1.0
  0
LWPOLYLINE
  5
2203
330
1F
100
AcDbEntity
  8
SOLBET_Zbrojenie_Konstrukcja
100
AcDbPolyline
 90
        2
 70
     1
 43
0.3
 10
243.1798449822279
 20
172.8495263268623
 42
-1.0
 10
242.879844982225
 20
172.8495263268623
 42
-1.0
  0
LINE
  5
2204
330
1F
100
AcDbEntity
  8
SOLBET_Zbrojenie_Konstrukcja
100
AcDbLine
 10
242.8037765946108
 20
173.1873943492583
 30
0.0
 11
243.3659308510002
 21
173.1873943492583
 31
0.0
  0
LINE
  5
2205
330
1F
100
AcDbEntity
  8
SOLBET_Zbrojenie_Konstrukcja
100
AcDbLine
 10
240.624726346058
 20
180.5024823447684
 30
0.0
 11
238.9777905244453
 21
173.1873943492583
 31
0.0
  0
LINE
  5
2206
330
1F
100
AcDbEntity
  8
SOLBET_Zbrojenie_Konstrukcja
100
AcDbLine
 10
238.9777905244453
 20
173.1873943492583
 30
0.0
 11
238.4156362680558
 21
173.1873943492583
 31
0.0
  0
LWPOLYLINE
  5
2207
330
1F
100
AcDbEntity
  8
SOLBET_Zbrojenie_Konstrukcja
100
AcDbPolyline
 90
        2
 70
     1
 43
0.3
 10
249.8981153107641
 20
172.8495263268623
 42
-1.0
 10
249.5981153107611
 20
172.8495263268623
 42
-1.0
  0
LWPOLYLINE
  5
2208
330
1F
100
AcDbEntity
  8
SOLBET_Zbrojenie_Konstrukcja
100
AcDbPolyline
 90
        2
 70
     1
 43
0.3
 10
281.0407835595295
 20
180.3091194602666
 42
-1.0
 10
280.7407835595266
 20
180.3091194602666
 42
-1.0
  0
LINE
  5
2209
330
1F
100
AcDbEntity
  8
SOLBET_Zbrojenie_Konstrukcja
100
AcDbLine
 10
280.624726346058
 20
180.5024823447684
 30
0.0
 11
278.9777905244307
 21
173.1873943492583
 31
0.0
  0
LWPOLYLINE
  5
220A
330
1F
100
AcDbEntity
  8
SOLBET_Zbrojenie_Konstrukcja
100
AcDbPolyline
 90
        2
 70
     1
 43
0.3
 10
283.1798449822279
 20
172.8495263268623
 42
-1.0
 10
282.879844982225
 20
172.8495263268623
 42
-1.0
  0
LWPOLYLINE
  5
220B
330
1F
100
AcDbEntity
  8
SOLBET_Zbrojenie_Konstrukcja
100
AcDbPolyline
 90
        2
 70
     1
 43
0.3
 10
278.6017221368281
 20
172.8495263268623
 42
1.0
 10
278.9017221368165
 20
172.8495263268623
 42
1.0
  0
LINE
  5
220C
330
1F
100
AcDbEntity
  8
SOLBET_Zbrojenie_Konstrukcja
100
AcDbLine
 10
278.9777905244307
 20
173.1873943492583
 30
0.0
 11
278.4156362680558
 21
173.1873943492583
 31
0.0
  0
LINE
  5
220D
330
1F
100
AcDbEntity
  8
SOLBET_Zbrojenie_Konstrukcja
100
AcDbLine
 10
281.1568407729835
 20
180.5024823447684
 30
0.0
 11
282.8037765946108
 21
173.1873943492583
 31
0.0
  0
LINE
  5
220E
330
1F
100
AcDbEntity
  8
SOLBET_Zbrojenie_Konstrukcja
100
AcDbLine
 10
282.8037765946108
 20
173.1873943492583
 30
0.0
 11
283.3659308510003
 21
173.1873943492583
 31
0.0
  0
LWPOLYLINE
  5
220F
330
1F
100
AcDbEntity
  8
SOLBET_Zbrojenie_Konstrukcja
100
AcDbPolyline
 90
        2
 70
     1
 43
0.3
 10
261.0407835595295
 20
180.3091194602666
 42
-1.0
 10
260.7407835595266
 20
180.3091194602666
 42
-1.0
  0
LINE
  5
2210
330
1F
100
AcDbEntity
  8
SOLBET_Zbrojenie_Konstrukcja
100
AcDbLine
 10
260.6247263460725
 20
180.5024823447684
 30
0.0
 11
258.9777905244452
 21
173.1873943492583
 31
0.0
  0
LWPOLYLINE
  5
2211
330
1F
100
AcDbEntity
  8
SOLBET_Zbrojenie_Konstrukcja
100
AcDbPolyline
 90
        2
 70
     1
 43
0.3
 10
263.1798449822279
 20
172.8495263268623
 42
-1.0
 10
262.879844982225
 20
172.8495263268623
 42
-1.0
  0
LWPOLYLINE
  5
2212
330
1F
100
AcDbEntity
  8
SOLBET_Zbrojenie_Konstrukcja
100
AcDbPolyline
 90
        2
 70
     1
 43
0.3
 10
258.6017221368281
 20
172.8495263268623
 42
1.0
 10
258.901722136831
 20
172.8495263268623
 42
1.0
  0
LINE
  5
2213
330
1F
100
AcDbEntity
  8
SOLBET_Zbrojenie_Konstrukcja
100
AcDbLine
 10
258.9777905244452
 20
173.1873943492583
 30
0.0
 11
258.4156362680558
 21
173.1873943492583
 31
0.0
  0
LINE
  5
2214
330
1F
100
AcDbEntity
  8
SOLBET_Zbrojenie_Konstrukcja
100
AcDbLine
 10
261.1568407729981
 20
180.5024823447684
 30
0.0
 11
262.8037765946108
 21
173.1873943492583
 31
0.0
  0
LINE
  5
2215
330
1F
100
AcDbEntity
  8
SOLBET_Zbrojenie_Konstrukcja
100
AcDbLine
 10
262.8037765946108
 20
173.1873943492583
 30
0.0
 11
263.3659308510003
 21
173.1873943492583
 31
0.0
  0
LWPOLYLINE
  5
2216
330
1F
100
AcDbEntity
  8
SOLBET_Zbrojenie_Konstrukcja
100
AcDbPolyline
 90
        2
 70
     1
 43
0.3
 10
271.883451808292
 20
172.8495263268623
 42
1.0
 10
272.1834518082949
 20
172.8495263268623
 42
1.0
  0
LWPOLYLINE
  5
2217
330
1F
100
AcDbEntity
  8
SOLBET_Zbrojenie_Konstrukcja
100
AcDbPolyline
 90
        2
 70
     1
 43
0.3
 10
289.8981153107641
 20
172.8495263268623
 42
-1.0
 10
289.5981153107612
 20
172.8495263268623
 42
-1.0
  0
LWPOLYLINE
  5
2218
330
1F
100
AcDbEntity
  8
SOLBET_Zbrojenie_Konstrukcja
100
AcDbPolyline
 90
        6
 70
     0
 43
0.0
 10
272.1715930840335
 20
182.1991980898465
 10
223.671593084048
 20
182.1991980898465
 42
0.4142135623730951
 10
223.171593084048
 20
181.6991980898465
 10
223.171593084048
 20
175.6025643097191
 42
0.4142135623730964
 10
223.671593084048
 20
175.1025643097191
 10
242.1715930840335
 20
175.1025643097191
  0
LWPOLYLINE
  5
2221
330
1F
100
AcDbEntity
  8
SOLBET_Ramka_05
100
AcDbPolyline
 90
        4
 70
     1
 43
0.0
 10
0.2849025745890685
 20
0.0
 10
334.636676666679
 20
0.0
 10
334.636676666679
 20
297.0
 10
0.2849025745890685
 20
297.0
  0
MTEXT
  5
2222
102
{ACAD_XDICTIONARY
360
2223
102
}
330
1F
100
AcDbEntity
  8
SOLBET_Wymiary_Opisy @ 1
100
AcDbMText
 10
14.75198346171669
 20
289.8967110907779
 30
0.0
 40
5.0
 41
245.2305346597222
 71
     1
 72
     5
  1
{\LDETAL 64\P}Oparcie stropu Filigran na \U+015Bcianach zewn\U+0119trznych warstwowych
  7
Solbet_5
 73
     1
 44
1.0
1001
AcadAnnotative
1000
AnnotativeData
1002
{
1070
     1
1070
     0
1002
}
1001
ACAD
1000
MTEXTBEGIN
1070
    73
1070
     1
1070
    44
1040
1.0
1070
    74
1070
     0
1000
MTEXTEND
  0
MTEXT
  5
2237
102
{ACAD_XDICTIONARY
360
2238
102
}
330
1F
100
AcDbEntity
  8
SOLBET_Wymiary_Opisy @ 1
100
AcDbMText
 10
50.94616653673267
 20
237.4692168122217
 30
0.0
 40
5.0
 41
124.2624847080697
 71
     1
 72
     5
  1
Na \U+015Bcianie zewn\U+0119trznej\Pprostopad\U+0142ej do kierunku p\U+0142yt
  7
Solbet_5
 73
     1
 44
1.0
1001
AcadAnnotative
1000
AnnotativeData
1002
{
1070
     1
1070
     0
1002
}
1001
ACAD
1000
MTEXTBEGIN
1070
    73
1070
     1
1070
    44
1040
1.0
1070
    74
1070
     0
1000
MTEXTEND
  0
MTEXT
  5
223C
102
{ACAD_XDICTIONARY
360
223D
102
}
330
1F
100
AcDbEntity
  8
SOLBET_Wymiary_Opisy @ 1
100
AcDbMText
 10
206.9585577813659
 20
237.9692168122217
 30
0.0
 40
5.0
 41
124.2624847080697
 71
     1
 72
     5
  1
Na \U+015Bcianie zewn\U+0119trznej\Pr\U+00F3wnoleg\U+0142ej do kierunku p\U+0142yt
  7
Solbet_5
 73
     1
 44
1.0
1001
AcadAnnotative
1000
AnnotativeData
1002
{
1070
     1
1070
     0
1002
}
1001
ACAD
1000
MTEXTBEGIN
1070
    73
1070
     1
1070
    44
1040
1.0
1070
    74
1070
     0
1000
MTEXTEND
  0
LWPOLYLINE
  5
2264
330
1F
100
AcDbEntity
  8
SOLBET_Bloczki
100
AcDbPolyline
 90
        4
 70
     0
 43
0.0
 10
222.4611845609854
 20
213.2935641633435
 10
222.4611845609854
 20
207.5779124859046
 10
234.4611845609804
 20
207.5779125270919
 10
234.4611845609804
 20
213.2935641277754
  0
LWPOLYLINE
  5
226B
330
1F
100
AcDbEntity
  8
SOLBET_Bloczki
100
AcDbPolyline
 90
        4
 70
     0
 43
0.0
 10
222.4611845609804
 20
162.5202168764963
 10
222.4611845609804
 20
171.5779125270901
 10
234.4631777285001
 20
171.5779125270901
 10
234.4631777285001
 20
162.5202168764963
  0
LWPOLYLINE
  5
226C
330
1F
100
AcDbEntity
  8
SOLBET_Bloczki
100
AcDbPolyline
 90
        4
 70
     0
 43
0.0
 10
68.72258421798211
 20
213.2935641277754
 10
68.72258439373059
 20
207.5779125270919
 10
80.7225842179821
 20
207.5779125270919
 10
80.7225842179821
 20
213.2935641277754
  0
LWPOLYLINE
  5
226D
330
1F
100
AcDbEntity
  8
SOLBET_Bloczki
100
AcDbPolyline
 90
        4
 70
     0
 43
0.0
 10
68.72258421798211
 20
162.5202168764963
 10
68.72258421798211
 20
171.5779125270901
 10
80.7225842179821
 20
171.5779125270901
 10
80.7225842179821
 20
162.5202168764963
  0
HATCH
  5
2284
330
1F
100
AcDbEntity
  8
SOLBET_Tynki_Posadzki
100
AcDbHatch
 10
0.0
 20
0.0
 30
0.0
210
0.0
220
0.0
230
1.0
  2
AR-CONC
 70
     0
 71
     1
 91
        1
 92
        1
 93
        5
 72
     2
 10
82.08740026765108
 20
186.5237518406805
 40
0.2500000000021316
 50
180.0000000038105
 51
196.8657343099526
 73
     1
 72
     1
 10
81.84815345086713
 20
186.4512193606469
 11
141.2215056938937
 21
186.4512193606469
 72
     1
 10
141.2215056938937
 20
186.4512193606469
 11
141.2215056938937
 21
188.9512193606451
 72
     1
 10
141.2215056938937
 20
188.9512193606451
 11
81.83740026764894
 21
188.9512193606451
 72
     1
 10
81.83740026764894
 20
188.9512193606451
 11
81.83740026764894
 21
186.5237518406638
 97
        1
330
2184
 75
     0
 76
     1
 52
0.0
 41
0.05
 77
     0
 78
    13
 53
50.0
 43
972.45952039281
 44
43.38111092831695
 45
9.1092334498002
 46
-0.7969542769451543
 79
     2
 49
0.9525000000000002
 49
-10.4775
 53
355.0
 43
972.45952039281
 44
43.38111092831695
 45
-1.762141298783349
 46
9.552832144108998
 79
     2
 49
0.762
 49
-8.381999999999999
 53
100.451
 43
973.2186203928099
 44
43.31469842831696
 45
7.347125083297962
 46
8.755834391014593
 79
     2
 49
0.8095
 49
-8.9045
 53
46.1842
 43
972.45952039281
 44
45.92111092831696
 45
13.5539520446065
 46
-2.102116396636357
 79
     2
 49
1.428749999999999
 49
-15.71625
 53
96.6356
 43
973.5890153928099
 44
45.74593592831695
 45
11.87021172331186
 46
12.37127779450246
 79
     2
 49
1.21425
 49
-13.35675
 53
351.184
 43
972.45952039281
 44
45.92111092831696
 45
11.87023029069669
 46
12.37125589302988
 79
     2
 49
1.143
 49
-12.573
 53
21.0
 43
973.7295203928098
 44
45.28611092831695
 45
7.580743991769164
 46
-5.113275925838125
 79
     2
 49
0.9525000000000002
 49
-10.4775
 53
326.0
 43
973.7295203928098
 44
45.28611092831695
 45
3.090101417382353
 46
9.209398306115962
 79
     2
 49
0.762
 49
-8.381999999999999
 53
71.45140000000001
 43
974.3612453928101
 44
44.86000592831696
 45
10.67082453850622
 46
4.096142885802872
 79
     2
 49
0.8095
 49
-8.9045
 53
37.5
 43
972.45952039281
 44
43.38111092831695
 45
0.1544301625295909
 46
4.227751943657655
 79
     6
 49
0.0
 49
-8.2804
 49
0.0
 49
-8.509
 49
0.0
 49
-8.41375
 53
7.499999999999999
 43
972.45952039281
 44
43.38111092831695
 45
3.340983125515287
 46
5.009028740905975
 79
     6
 49
0.0
 49
-4.851399999999999
 49
0.0
 49
-8.0899
 49
0.0
 49
-3.20675
 53
327.5
 43
969.62742039281
 44
43.38111092831695
 45
6.77952975834357
 46
-0.2864371996336729
 79
     6
 49
0.0
 49
-3.175
 49
0.0
 49
-9.906
 49
0.0
 49
-13.1445
 53
317.5
 43
968.3574203928101
 44
43.38111092831695
 45
7.406459069300902
 46
1.27132455166665
 79
     6
 49
0.0
 49
-4.1275
 49
0.0
 49
-6.5786
 49
0.0
 49
-9.3345
 98
        1
 10
972.45952039281
 20
43.38111092831695
1001
ACAD
1010
0.0
1020
0.0
1030
0.0
  0
LINE
  5
2285
330
1F
100
AcDbEntity
  8
SOLBET_Izolacja
  6
BATTING
 48
0.049
100
AcDbLine
 10
81.22258421798211
 20
188.9512193606451
 30
0.0
 11
81.22258421798211
 21
183.5779125270901
 31
0.0
  0
LINE
  5
2286
330
1F
100
AcDbEntity
  8
SOLBET_Izolacja
100
AcDbLine
 10
141.2215056938937
 20
183.5779125270901
 30
0.0
 11
141.2215056938936
 21
186.0779125270919
 31
0.0
  0
LINE
  5
2287
330
1F
100
AcDbEntity
  8
SOLBET_Izolacja
  6
BATTING
 48
0.12
100
AcDbLine
 10
141.2215056938937
 20
184.827912527091
 30
0.0
 11
81.72258421798209
 21
184.827912527091
 31
0.0
  0
LWPOLYLINE
  5
228A
102
{ACAD_REACTORS
330
228D
102
}
330
1F
100
AcDbEntity
  8
SOLBET_Beton
100
AcDbPolyline
 90
        6
 70
     1
 43
0.0
 10
78.72457738550179
 20
172.0779125270919
 10
79.22457738550178
 20
171.5779125270901
 10
82.72457738551635
 20
171.5779125270901
 10
141.2215056938937
 20
171.5779125270901
 10
141.2215056938937
 20
174.5779125270901
 10
78.72457738550179
 20
174.5779125270901
  0
HATCH
  5
228D
330
1F
100
AcDbEntity
  8
SOLBET_Beton
100
AcDbHatch
 10
0.0
 20
0.0
 30
0.0
210
0.0
220
0.0
230
1.0
  2
ANSI37
 70
     0
 71
     1
 91
        1
 92
        1
 93
        6
 72
     1
 10
78.72457738550179
 20
172.0779125270919
 11
79.22457738550178
 21
171.5779125270901
 72
     1
 10
79.22457738550178
 20
171.5779125270901
 11
82.72457738551635
 21
171.5779125270901
 72
     1
 10
82.72457738551635
 20
171.5779125270901
 11
141.2215056938937
 21
171.5779125270901
 72
     1
 10
141.2215056938937
 20
171.5779125270901
 11
141.2215056938937
 21
174.5779125270901
 72
     1
 10
141.2215056938937
 20
174.5779125270901
 11
78.72457738550179
 21
174.5779125270901
 72
     1
 10
78.72457738550179
 20
174.5779125270901
 11
78.72457738550179
 21
172.0779125270919
 97
        1
330
228A
 75
     0
 76
     1
 52
0.0
 41
0.7
 77
     0
 78
     2
 53
45.0
 43
972.45952039281
 44
43.38111092831695
 45
-1.571544821187101
 46
1.571544821187101
 79
     0
 53
135.0
 43
972.45952039281
 44
43.38111092831695
 45
-1.571544821187101
 46
-1.571544821187101
 79
     0
 98
        1
 10
972.45952039281
 20
43.38111092831695
1001
ACAD
1010
0.0
1020
0.0
1030
0.0
  0
LINE
  5
228E
330
1F
100
AcDbEntity
  8
SOLBET_Izolacja
100
AcDbLine
 10
61.22258421798211
 20
213.2935641277754
 30
0.0
 11
68.72258421798211
 21
213.2935641277754
 31
0.0
  0
LINE
  5
228F
330
1F
100
AcDbEntity
  8
SOLBET_Izolacja
100
AcDbLine
 10
61.22258421798211
 20
162.5202168764963
 30
0.0
 11
68.72258421798211
 21
162.5202168764963
 31
0.0
  0
LINE
  5
2290
330
1F
100
AcDbEntity
  8
SOLBET_Izolacja
  6
BATTING
 48
0.365
100
AcDbLine
 10
64.97258421798211
 20
162.5202168764963
 30
0.0
 11
64.97258421798211
 21
213.2935641277754
 31
0.0
  0
LWPOLYLINE
  5
2291
102
{ACAD_REACTORS
330
2293
102
}
330
1F
100
AcDbEntity
  8
SOLBET_Tynki_Posadzki
100
AcDbPolyline
 90
        5
 70
     0
 43
0.0
 10
235.5867537938654
 20
186.4512193606469
 10
294.9601060368775
 20
186.4512193606469
 10
294.9601060368775
 20
188.9512193606451
 10
235.5760006106473
 20
188.9512193606451
 10
235.5760006106473
 20
186.5237518406638
  0
HATCH
  5
2293
330
1F
100
AcDbEntity
  8
SOLBET_Tynki_Posadzki
100
AcDbHatch
 10
0.0
 20
0.0
 30
0.0
210
0.0
220
0.0
230
1.0
  2
AR-CONC
 70
     0
 71
     1
 91
        1
 92
       33
 93
        4
 72
     1
 10
235.5867537938654
 20
186.4512193606469
 11
294.9601060368775
 21
186.4512193606469
 72
     1
 10
294.9601060368775
 20
186.4512193606469
 11
294.9601060368775
 21
188.9512193606451
 72
     1
 10
294.9601060368775
 20
188.9512193606451
 11
235.5760006106473
 21
188.9512193606451
 72
     1
 10
235.5760006106473
 20
188.9512193606451
 11
235.5760006106473
 21
186.5237518406638
 97
        1
330
2291
 75
     0
 76
     1
 52
0.0
 41
0.05
 77
     0
 78
    13
 53
50.0
 43
964.1056314000367
 44
43.38111092831695
 45
9.1092334498002
 46
-0.7969542769451543
 79
     2
 49
0.9525000000000002
 49
-10.4775
 53
355.0
 43
964.1056314000367
 44
43.38111092831695
 45
-1.762141298783349
 46
9.552832144108998
 79
     2
 49
0.762
 49
-8.381999999999999
 53
100.451
 43
964.8647314000369
 44
43.31469842831696
 45
7.347125083297962
 46
8.755834391014593
 79
     2
 49
0.8095
 49
-8.9045
 53
46.1842
 43
964.1056314000367
 44
45.92111092831696
 45
13.5539520446065
 46
-2.102116396636357
 79
     2
 49
1.428749999999999
 49
-15.71625
 53
96.6356
 43
965.2351264000369
 44
45.74593592831695
 45
11.87021172331186
 46
12.37127779450246
 79
     2
 49
1.21425
 49
-13.35675
 53
351.184
 43
964.1056314000367
 44
45.92111092831696
 45
11.87023029069669
 46
12.37125589302988
 79
     2
 49
1.143
 49
-12.573
 53
21.0
 43
965.3756314000368
 44
45.28611092831695
 45
7.580743991769164
 46
-5.113275925838125
 79
     2
 49
0.9525000000000002
 49
-10.4775
 53
326.0
 43
965.3756314000368
 44
45.28611092831695
 45
3.090101417382353
 46
9.209398306115962
 79
     2
 49
0.762
 49
-8.381999999999999
 53
71.45140000000001
 43
966.0073564000368
 44
44.86000592831696
 45
10.67082453850622
 46
4.096142885802872
 79
     2
 49
0.8095
 49
-8.9045
 53
37.5
 43
964.1056314000367
 44
43.38111092831695
 45
0.1544301625295909
 46
4.227751943657655
 79
     6
 49
0.0
 49
-8.2804
 49
0.0
 49
-8.509
 49
0.0
 49
-8.41375
 53
7.499999999999999
 43
964.1056314000367
 44
43.38111092831695
 45
3.340983125515287
 46
5.009028740905975
 79
     6
 49
0.0
 49
-4.851399999999999
 49
0.0
 49
-8.0899
 49
0.0
 49
-3.20675
 53
327.5
 43
961.2735314000369
 44
43.38111092831695
 45
6.77952975834357
 46
-0.2864371996336729
 79
     6
 49
0.0
 49
-3.175
 49
0.0
 49
-9.906
 49
0.0
 49
-13.1445
 53
317.5
 43
960.0035314000368
 44
43.38111092831695
 45
7.406459069300902
 46
1.27132455166665
 79
     6
 49
0.0
 49
-4.1275
 49
0.0
 49
-6.5786
 49
0.0
 49
-9.3345
 98
        1
 10
964.1056314000367
 20
43.38111092831695
1001
ACAD
1010
0.0
1020
0.0
1030
0.0
  0
LINE
  5
2296
330
1F
100
AcDbEntity
  8
SOLBET_Izolacja
  6
BATTING
 48
0.049
100
AcDbLine
 10
234.9611845609804
 20
188.9512193606451
 30
0.0
 11
234.9611845609804
 21
183.5779125270901
 31
0.0
  0
LINE
  5
22B7
330
1F
100
AcDbEntity
  8
SOLBET_Izolacja
100
AcDbLine
 10
294.9601060368775
 20
186.0779125270919
 30
0.0
 11
294.9601060368775
 21
183.5779125270901
 31
0.0
  0
LINE
  5
22B8
330
1F
100
AcDbEntity
  8
SOLBET_Izolacja
  6
BATTING
 48
0.12
100
AcDbLine
 10
294.9601060368775
 20
184.827912527091
 30
0.0
 11
235.4611845609804
 21
184.827912527091
 31
0.0
  0
LWPOLYLINE
  5
22B9
102
{ACAD_REACTORS
330
2341
102
}
330
1F
100
AcDbEntity
  8
SOLBET_Beton
100
AcDbPolyline
 90
        5
 70
     1
 43
0.0
 10
233.4611843402715
 20
174.5779125270901
 10
294.9601060368775
 20
174.5779125270901
 10
294.9601060368775
 20
171.5779125270901
 10
233.9631775077912
 20
171.5779125270901
 10
233.4628453132798
 20
172.0779124167393
  0
LINE
  5
22BB
330
1F
100
AcDbEntity
  8
SOLBET_Izolacja
100
AcDbLine
 10
214.9611845609804
 20
213.2935641277754
 30
0.0
 11
222.4611845609804
 21
213.2935641277754
 31
0.0
  0
LINE
  5
22BC
330
1F
100
AcDbEntity
  8
SOLBET_Izolacja
100
AcDbLine
 10
222.4611845609804
 20
213.2935641277754
 30
0.0
 11
222.4611845609804
 21
162.5202168764963
 31
0.0
  0
LINE
  5
22BD
330
1F
100
AcDbEntity
  8
SOLBET_Izolacja
100
AcDbLine
 10
222.4611845609804
 20
162.5202168764963
 30
0.0
 11
214.9611845609804
 21
162.5202168764963
 31
0.0
  0
LINE
  5
22BE
330
1F
100
AcDbEntity
  8
SOLBET_Izolacja
100
AcDbLine
 10
214.9611845609804
 20
162.5202168764963
 30
0.0
 11
214.9611845609804
 21
213.2935641277754
 31
0.0
  0
LINE
  5
22BF
330
1F
100
AcDbEntity
  8
SOLBET_Izolacja
  6
BATTING
 48
0.365
100
AcDbLine
 10
218.7111845609804
 20
213.2935641277754
 30
0.0
 11
218.7111845609804
 21
162.5202168764963
 31
0.0
  0
LEADER
  5
22F2
330
1F
100
AcDbEntity
  8
SOLBET_Wymiary_Opisy
100
AcDbLeader
  3
Solbet$7
 73
     0
 75
     1
 40
3.25
 41
27.75
 76
     3
 10
71.71477441683669
 20
174.4655157172724
 30
0.0
 10
47.14363554498118
 20
151.0891538856399
 30
0.0
 10
44.64363554498118
 20
151.0891538856399
 30
0.0
340
22F3
213
1.177601578005123
223
-0.1753245211093599
233
0.0
1001
ACAD
1000
DSTYLE
1002
{
1070
   147
1040
0.625
1070
    77
1070
     1
1002
}
  0
MTEXT
  5
22F3
102
{ACAD_XDICTIONARY
360
26B9
102
}
102
{ACAD_REACTORS
330
22F2
102
}
330
1F
100
AcDbEntity
  8
SOLBET_Wymiary_Opisy
100
AcDbMText
 10
42.84103396697605
 20
155.1394784067493
 30
0.0
 40
2.5
 41
0.0
 71
     3
 72
     1
  1
Wieniec \U+017Celbetowy
  7
Solbet_2_5
 73
     1
 44
1.0
1001
ACAD
1000
MTEXTBEGIN
1070
    73
1070
     1
1070
    44
1040
1.0
1070
    74
1070
     0
1000
MTEXTEND
  0
LEADER
  5
22F4
330
1F
100
AcDbEntity
  8
SOLBET_Wymiary_Opisy
100
AcDbLeader
  3
Solbet$7
 73
     0
 74
     0
 75
     1
 40
7.666666666666666
 41
34.75
 76
     3
 10
85.76664524300008
 20
182.4441679250371
 30
0.0
 10
95.77242059644026
 20
196.0922438927917
 30
0.0
 10
98.27242059644028
 20
196.0922438927917
 30
0.0
340
22F5
213
1.177601578005123
223
-0.1753245211093599
233
0.0
1001
ACAD
1000
DSTYLE
1002
{
1070
   147
1040
0.625
1070
    77
1070
     1
1002
}
  0
MTEXT
  5
22F5
102
{ACAD_XDICTIONARY
360
26BB
102
}
102
{ACAD_REACTORS
330
22F4
102
}
330
1F
100
AcDbEntity
  8
SOLBET_Wymiary_Opisy
100
AcDbMText
 10
97.71981901843515
 20
204.5592350805677
 30
0.0
 40
2.5
 41
0.0
 71
     1
 72
     1
  1
Zbrojenie g\U+00F3rne\Pstrefy przypodporowej
  7
Solbet_2_5
 73
     1
 44
1.0
1001
ACAD
1000
MTEXTBEGIN
1070
    73
1070
     1
1070
    44
1040
1.0
1070
    74
1070
     0
1000
MTEXTEND
  0
CIRCLE
  5
22F8
330
1F
100
AcDbEntity
  8
SOLBET_Wymiary_Opisy
100
AcDbCircle
 10
137.4970906231865
 20
185.2608893341084
 30
0.0
 40
6.72794034480946
  0
LEADER
  5
22F9
330
1F
100
AcDbEntity
  8
SOLBET_Wymiary_Opisy
100
AcDbLeader
  3
Solbet$7
 73
     0
 74
     0
 75
     1
 40
5.0
 41
4.0
 76
     3
 10
141.1186642933035
 20
190.9309321412864
 30
0.0
 10
144.08981449412
 20
194.9294188803303
 30
0.0
 10
146.58981449412
 20
194.9294188803303
 30
0.0
213
0.8103787685154202
223
-0.1753245211093599
233
0.0
1001
ACAD
1000
DSTYLE
1002
{
1070
   341
1005
1EF2
1070
   147
1040
0.625
1070
    77
1070
     1
1002
}
  0
MTEXT
  5
22FA
102
{ACAD_REACTORS
330
22F9
102
}
330
1F
100
AcDbEntity
  8
SOLBET_Wymiary_Opisy
100
AcDbMText
 10
150.4044357256046
 20
200.7297434014397
 30
0.0
 40
5.0
 41
0.0
 71
     3
 72
     1
  1
A
  7
Solbet_5
 73
     1
 44
1.0
1001
ACAD
1000
MTEXTBEGIN
1070
    73
1070
     1
1070
    44
1040
1.0
1070
    74
1070
     0
1000
MTEXTEND
  0
LEADER
  5
22FB
330
1F
100
AcDbEntity
  8
SOLBET_Wymiary_Opisy
100
AcDbLeader
  3
Solbet$7
 73
     0
 74
     0
 75
     1
 40
3.5
 41
37.25
 76
     3
 10
95.95963533209715
 20
102.9412668612127
 30
0.0
 10
118.6924244999099
 20
112.0608715818872
 30
0.0
 10
121.1924244999099
 20
112.0608715818872
 30
0.0
213
1.177601578005123
223
-0.1753245211093599
233
0.0
1001
ACAD
1000
DSTYLE
1002
{
1070
   147
1040
0.625
1070
    77
1070
     1
1002
}
  0
MTEXT
  5
22FC
102
{ACAD_XDICTIONARY
360
26BD
102
}
102
{ACAD_REACTORS
330
22FB
102
}
330
1F
100
AcDbEntity
  8
SOLBET_Wymiary_Opisy
100
AcDbMText
 10
120.6398229219048
 20
116.3611961029966
 30
0.0
 40
2.5
 41
0.0
 71
     1
 72
     1
  1
Warstwa wyko\U+0144czeniowa
  7
Solbet_2_5
 73
     1
 44
1.0
1001
ACAD
1000
MTEXTBEGIN
1070
    73
1070
     1
1070
    44
1040
1.0
1070
    74
1070
     0
1000
MTEXTEND
  0
LEADER
  5
22FD
330
1F
100
AcDbEntity
  8
SOLBET_Wymiary_Opisy
100
AcDbLeader
  3
Solbet$7
 73
     0
 74
     0
 75
     1
 40
3.25
 41
32.5
 76
     3
 10
94.54910938887541
 20
95.1751480447939
 30
0.0
 10
118.5527351388523
 20
105.8196650512965
 30
0.0
 10
121.0527351388523
 20
105.8196650512965
 30
0.0
213
0.0
223
-0.2322806831707567
233
0.0
1001
ACAD
1000
DSTYLE
1002
{
1070
   147
1040
0.625
1070
    77
1070
     1
1002
}
  0
MTEXT
  5
22FE
102
{ACAD_REACTORS
330
22FD
102
}
330
1F
100
AcDbEntity
  8
SOLBET_Wymiary_Opisy
100
AcDbMText
 10
120.4410358704201
 20
109.9269457344672
 30
0.0
 40
2.5
 41
0.0
 71
     1
 72
     1
  1
Wylewka jastrychowa
  7
Solbet_2_5
 73
     1
 44
1.0
1001
ACAD
1000
MTEXTBEGIN
1070
    73
1070
     1
1070
    44
1040
1.0
1070
    74
1070
     0
1000
MTEXTEND
  0
LEADER
  5
22FF
330
1F
100
AcDbEntity
  8
SOLBET_Wymiary_Opisy
100
AcDbLeader
  3
Solbet$7
 73
     0
 74
     0
 75
     1
 40
3.25
 41
19.75
 76
     3
 10
96.58765822257464
 20
88.28148834510404
 30
0.0
 10
118.5987775394228
 20
99.58450797251874
 30
0.0
 10
121.0987775394228
 20
99.58450797251874
 30
0.0
213
0.0
223
-0.2322806831707567
233
0.0
1001
ACAD
1000
DSTYLE
1002
{
1070
   147
1040
0.625
1070
    77
1070
     1
1002
}
  0
MTEXT
  5
2300
102
{ACAD_REACTORS
330
22FF
102
}
330
1F
100
AcDbEntity
  8
SOLBET_Wymiary_Opisy
100
AcDbMText
 10
120.6398229219048
 20
103.6917886556895
 30
0.0
 40
2.5
 41
0.0
 71
     1
 72
     1
  1
Hydroizolacja
  7
Solbet_2_5
 73
     1
 44
1.0
1001
ACAD
1000
MTEXTBEGIN
1070
    73
1070
     1
1070
    44
1040
1.0
1070
    74
1070
     0
1000
MTEXTEND
  0
LEADER
  5
2301
330
1F
100
AcDbEntity
  8
SOLBET_Wymiary_Opisy
100
AcDbLeader
  3
Solbet$7
 73
     0
 74
     0
 75
     1
 40
3.25
 41
36.5
 76
     3
 10
100.0693879454085
 20
78.96068298458406
 30
0.0
 10
118.6904698198732
 20
89.65058594628397
 30
0.0
 10
121.1904698198732
 20
89.65058594628397
 30
0.0
213
0.0
223
-0.2322806831707567
233
0.0
1001
ACAD
1000
DSTYLE
1002
{
1070
   147
1040
0.625
1070
    77
1070
     1
1002
}
  0
MTEXT
  5
2302
102
{ACAD_XDICTIONARY
360
26BF
102
}
102
{ACAD_REACTORS
330
2301
102
}
330
1F
100
AcDbEntity
  8
SOLBET_Wymiary_Opisy
100
AcDbMText
 10
120.6398229219048
 20
93.96984553675258
 30
0.0
 40
2.5
 41
0.0
 71
     1
 72
     1
  1
P\U+0142yty izolacyjne twarde
  7
Solbet_2_5
 73
     1
 44
1.0
1001
ACAD
1000
MTEXTBEGIN
1070
    73
1070
     1
1070
    44
1040
1.0
1070
    74
1070
     0
1000
MTEXTEND
  0
LINE
  5
2303
330
1F
100
AcDbEntity
  8
SOLBET_Izolacja
100
AcDbLine
 10
62.72305358617723
 20
74.80229177724357
 30
0.0
 11
106.6093995257833
 21
74.80229177724357
 31
0.0
  0
LINE
  5
2304
330
1F
100
AcDbEntity
  8
SOLBET_Izolacja
100
AcDbLine
 10
62.72305358617723
 20
87.30229177724352
 30
0.0
 11
106.6093995257833
 21
87.30229177724357
 31
0.0
  0
LINE
  5
2305
330
1F
100
AcDbEntity
  8
SOLBET_Tynki_Posadzki
100
AcDbLine
 10
71.33824644822834
 20
104.1688259450196
 30
0.0
 11
106.6093995257833
 21
104.1688259450196
 31
0.0
  0
LINE
  5
2306
330
1F
100
AcDbEntity
  8
SOLBET_Emulsje_Folie
100
AcDbLine
 10
62.92331508221832
 20
88.28148834510404
 30
0.0
 11
106.6093995257833
 21
88.28148834510404
 31
0.0
  0
HATCH
  5
2307
330
1F
100
AcDbEntity
  8
SOLBET_Tynki_Posadzki
100
AcDbHatch
 10
0.0
 20
0.0
 30
0.0
210
0.0
220
0.0
230
1.0
  2
AR-CONC
 70
     0
 71
     0
 91
        1
 92
        5
 93
        4
 72
     2
 10
95.7770553421351
 20
81.05229177724368
 40
33.63970172404727
 50
142.2031821742316
 51
166.0379938227853
 73
     1
 72
     1
 10
63.13120713464968
 20
89.16882594502055
 11
106.609399525783
 21
89.16882594502055
 72
     1
 10
106.6093995257833
 20
89.16882594502055
 11
106.6093995257839
 21
101.6688259450194
 72
     1
 10
106.6093995257838
 20
101.6688259450194
 11
69.19533133875654
 21
101.6688259450194
 97
        0
 75
     0
 76
     1
 52
0.0
 41
0.03
 77
     0
 78
    13
 53
50.0
 43
732.7052504625389
 44
3.920272998505986
 45
5.46554006988012
 46
-0.4781725661670926
 79
     2
 49
0.5715
 49
-6.2865
 53
355.0
 43
732.7052504625389
 44
3.920272998505986
 45
-1.057284779270009
 46
5.731699286465398
 79
     2
 49
0.4572
 49
-5.029199999999999
 53
100.451
 43
733.1607104625389
 44
3.880425498505978
 45
4.408275049978777
 46
5.253500634608755
 79
     2
 49
0.4857000000000001
 49
-5.342699999999999
 53
46.1842
 43
732.7052504625389
 44
5.444272998505987
 45
8.132371226763897
 46
-1.261269837981814
 79
     2
 49
0.8572499999999999
 49
-9.429749999999998
 53
96.6356
 43
733.3829474625388
 44
5.339167998505978
 45
7.122127033987114
 46
7.422766676701476
 79
     2
 49
0.7285500000000001
 49
-8.014049999999999
 53
351.184
 43
732.7052504625389
 44
5.444272998505987
 45
7.122138174418017
 46
7.422753535817929
 79
     2
 49
0.6858
 49
-7.5438
 53
21.0
 43
733.4672504625388
 44
5.063272998505986
 45
4.548446395061498
 46
-3.067965555502874
 79
     2
 49
0.5715
 49
-6.2865
 53
326.0
 43
733.4672504625388
 44
5.063272998505986
 45
1.854060850429411
 46
5.525638983669577
 79
     2
 49
0.4572
 49
-5.029199999999999
 53
71.45140000000001
 43
733.8462854625388
 44
4.807609998505988
 45
6.402494723103733
 46
2.457685731481723
 79
     2
 49
0.4857000000000001
 49
-5.342699999999999
 53
37.5
 43
732.7052504625389
 44
3.920272998505986
 45
0.0926580975177545
 46
2.536651166194593
 79
     6
 49
0.0
 49
-4.968239999999999
 49
0.0
 49
-5.1054
 49
0.0
 49
-5.04825
 53
7.499999999999999
 43
732.7052504625389
 44
3.920272998505986
 45
2.004589875309172
 46
3.005417244543585
 79
     6
 49
0.0
 49
-2.910839999999999
 49
0.0
 49
-4.853939999999999
 49
0.0
 49
-1.92405
 53
327.5
 43
731.0059904625388
 44
3.920272998505986
 45
4.067717855006141
 46
-0.1718623197802037
 79
     6
 49
0.0
 49
-1.905
 49
0.0
 49
-5.943599999999999
 49
0.0
 49
-7.886699999999999
 53
317.5
 43
730.2439904625389
 44
3.920272998505986
 45
4.443875441580541
 46
0.7627947309999904
 79
     6
 49
0.0
 49
-2.476499999999999
 49
0.0
 49
-3.947159999999999
 49
0.0
 49
-5.600699999999999
 47
0.0387476598051738
 98
        1
 10
86.07984388632713
 20
95.26636424263438
1001
ACAD
1010
0.0
1020
0.0
1030
0.0
  0
LWPOLYLINE
  5
2308
330
1F
100
AcDbEntity
  8
SOLBET_Tynki_Posadzki
100
AcDbPolyline
 90
        4
 70
     0
 43
0.0
 10
63.13120713464968
 20
89.16882594502055
 10
106.6093995257833
 20
89.16882594502055
 10
106.6093995257838
 20
101.6688259450196
 10
69.19533133875711
 20
101.6688259450196
1001
ASO_SCHRAFF
1005
0
1070
     1
1002
{
1070
     1
1005
0
1002
}
1002
{
1070
     2
1005
0
1002
}
1002
{
1070
     4
1000
AR-CONC
1040
0.01
1040
0.0
1070
     0
1000
T__SCHR
1070
   256
1000
_bylayer
1040
50.0
1070
     1
1002
}
  0
LINE
  5
230A
330
1F
100
AcDbEntity
  8
SOLBET_Izolacja
  6
BATTING
 48
0.6
100
AcDbLine
 10
62.13735361808812
 20
81.05229177724357
 30
0.0
 11
106.6093995257833
 21
81.05229177724357
 31
0.0
  0
ARC
  5
230B
330
1F
100
AcDbEntity
  8
SOLBET_Wymiary_Opisy
100
AcDbCircle
 10
95.7770553421351
 20
81.05229177724357
 30
0.0
 40
33.6397017240473
100
AcDbArc
 50
136.5926968744823
 51
288.7845676764008
  0
MTEXT
  5
230C
102
{ACAD_XDICTIONARY
360
25BE
102
}
330
1F
100
AcDbEntity
  8
SOLBET_Wymiary_Opisy
100
AcDbMText
 10
72.00605397591562
 20
132.8351402751137
 30
0.0
 40
5.0
 41
30.77919768571883
 71
     1
 72
     5
  1
\pxqc;A\P(5 : 1)
  7
Solbet_5
 73
     1
 44
1.0
1001
ACAD
1000
MTEXTBEGIN
1070
    73
1070
     1
1070
    44
1040
1.0
1070
    74
1070
     0
1000
MTEXTEND
1000
ACAD_MTEXT_DEFINED_HEIGHT_BEGIN
1070
    46
1040
23.42535011036716
1000
ACAD_MTEXT_DEFINED_HEIGHT_END
  0
LINE
  5
230E
330
1F
100
AcDbEntity
  8
SOLBET_Zbrojenie_Konstrukcja
100
AcDbLine
 10
106.6093995257833
 20
64.0133865406695
 30
0.0
 11
66.77179305368269
 21
64.0133865406695
 31
0.0
  0
LINE
  5
230F
330
1F
100
AcDbEntity
  8
SOLBET_Zbrojenie_Konstrukcja
100
AcDbLine
 10
93.03208181303284
 20
64.0133865406695
 30
0.0
 11
102.3192562967514
 21
48.05488068557927
 31
0.0
  0
LINE
  5
2310
330
1F
100
AcDbEntity
  8
SOLBET_Zbrojenie_Konstrukcja
100
AcDbLine
 10
93.03208181303284
 20
64.0133865406695
 30
0.0
 11
84.66326322179009
 21
49.30149404256248
 31
0.0
  0
LINE
  5
2311
330
1F
100
AcDbEntity
  8
SOLBET_Wymiary_Opisy
100
AcDbLine
 10
106.6093995257833
 20
104.1688259450196
 30
0.0
 11
106.6093995257833
 21
49.20437423826069
 31
0.0
  0
LEADER
  5
2316
330
1F
100
AcDbEntity
  8
SOLBET_Wymiary_Opisy
100
AcDbLeader
  3
Solbet$7
 73
     0
 75
     1
 40
3.25
 41
27.75
 76
     3
 10
227.5570633129516
 20
174.4655157172724
 30
0.0
 10
202.9859244410961
 20
151.0891538856399
 30
0.0
 10
200.4859244410961
 20
151.0891538856399
 30
0.0
340
2317
213
1.177601578005123
223
-0.1753245211093599
233
0.0
1001
ACAD
1000
DSTYLE
1002
{
1070
   147
1040
0.625
1070
    77
1070
     1
1002
}
  0
MTEXT
  5
2317
102
{ACAD_XDICTIONARY
360
26C1
102
}
102
{ACAD_REACTORS
330
2316
102
}
330
1F
100
AcDbEntity
  8
SOLBET_Wymiary_Opisy
100
AcDbMText
 10
198.683322863091
 20
155.1394784067493
 30
0.0
 40
2.5
 41
0.0
 71
     3
 72
     1
  1
Wieniec \U+017Celbetowy
  7
Solbet_2_5
 73
     1
 44
1.0
1001
ACAD
1000
MTEXTBEGIN
1070
    73
1070
     1
1070
    44
1040
1.0
1070
    74
1070
     0
1000
MTEXTEND
  0
LEADER
  5
2318
330
1F
100
AcDbEntity
  8
SOLBET_Wymiary_Opisy
100
AcDbLeader
  3
Solbet$7
 73
     0
 74
     0
 75
     1
 40
7.666666666666666
 41
34.75
 76
     3
 10
241.608934139115
 20
182.4441679250371
 30
0.0
 10
251.6147094925552
 20
196.0922438927917
 30
0.0
 10
254.1147094925552
 20
196.0922438927917
 30
0.0
340
2319
213
1.177601578005123
223
-0.1753245211093599
233
0.0
1001
ACAD
1000
DSTYLE
1002
{
1070
   147
1040
0.625
1070
    77
1070
     1
1002
}
  0
MTEXT
  5
2319
102
{ACAD_XDICTIONARY
360
26C3
102
}
102
{ACAD_REACTORS
330
2318
102
}
330
1F
100
AcDbEntity
  8
SOLBET_Wymiary_Opisy
100
AcDbMText
 10
253.5621079145501
 20
204.5592350805677
 30
0.0
 40
2.5
 41
0.0
 71
     1
 72
     1
  1
Zbrojenie g\U+00F3rne\Pstrefy przypodporowej
  7
Solbet_2_5
 73
     1
 44
1.0
1001
ACAD
1000
MTEXTBEGIN
1070
    73
1070
     1
1070
    44
1040
1.0
1070
    74
1070
     0
1000
MTEXTEND
  0
HATCH
  5
2341
330
1F
100
AcDbEntity
  8
SOLBET_Beton
100
AcDbHatch
 10
0.0
 20
0.0
 30
0.0
210
0.0
220
0.0
230
1.0
  2
ANSI37
 70
     0
 71
     1
 91
        1
 92
        1
 93
        5
 72
     1
 10
233.4611843402715
 20
174.5779125270901
 11
294.9601060368775
 21
174.5779125270901
 72
     1
 10
294.9601060368775
 20
174.5779125270901
 11
294.9601060368775
 21
171.5779125270901
 72
     1
 10
294.9601060368775
 20
171.5779125270901
 11
233.9631775077912
 21
171.5779125270901
 72
     1
 10
233.9631775077912
 20
171.5779125270901
 11
233.4628453132798
 21
172.0779124167393
 72
     1
 10
233.4628453132798
 20
172.0779124167393
 11
233.4611843402715
 21
174.5779125270901
 97
        1
330
22B9
 75
     0
 76
     1
 52
0.0
 41
0.7
 77
     0
 78
     2
 53
45.0
 43
0.0
 44
0.0
 45
-1.571544821187101
 46
1.571544821187101
 79
     0
 53
135.0
 43
0.0
 44
0.0
 45
-1.571544821187101
 46
-1.571544821187101
 79
     0
 98
        1
 10
0.0
 20
0.0
1001
ACAD
1010
0.0
1020
0.0
1030
0.0
  0
LINE
  5
23E2
330
1F
100
AcDbEntity
  8
SOLBET_Zbrojenie_Konstrukcja
100
AcDbLine
 10
78.72457738550179
 20
172.5416302980209
 30
0.0
 11
76.77881518182926
 21
172.5416302980209
 31
0.0
  0
LINE
  5
242B
330
1F
100
AcDbEntity
  8
SOLBET_Tynki_Posadzki
100
AcDbLine
 10
81.22258421798211
 20
171.0779125270901
 30
0.0
 11
141.2215056938937
 21
171.0779125270901
 31
0.0
  0
LINE
  5
242C
330
1F
100
AcDbEntity
  8
SOLBET_Tynki_Posadzki
100
AcDbLine
 10
234.9611845609804
 20
171.0779125270901
 30
0.0
 11
294.9601060368775
 21
171.0779125270901
 31
0.0
  0
INSERT
  5
2633
330
1F
100
AcDbEntity
  8
SOLBET_Bloczki
100
AcDbBlockReference
  2
SOLBET_Bloczek_Optimal_240x240x590_P+W_KG500_PRA
 10
68.72258421798211
 20
183.5779125270901
 30
0.0
  0
INSERT
  5
2634
330
1F
100
AcDbEntity
  8
SOLBET_Bloczki
100
AcDbBlockReference
  2
SOLBET_Bloczek_Optimal_240x240x590_P+W_KG500_PRA
 10
68.72258421798211
 20
195.5779124859027
 30
0.0
  0
INSERT
  5
2635
330
1F
100
AcDbEntity
  8
SOLBET_Bloczki
100
AcDbBlockReference
  2
SOLBET_Bloczek_Optimal_240x240x590_P+W_KG500_PRA
 10
222.4611843852319
 20
183.5779125682776
 30
0.0
  0
INSERT
  5
2636
330
1F
100
AcDbEntity
  8
SOLBET_Bloczki
100
AcDbBlockReference
  2
SOLBET_Bloczek_Optimal_240x240x590_P+W_KG500_PRA
 10
222.461184385232
 20
195.5779125682777
 30
0.0
  0
MTEXT
  5
2675
102
{ACAD_XDICTIONARY
360
2676
102
}
330
1F
100
AcDbEntity
  8
SOLBET_Wymiary_Opisy
100
AcDbMText
 10
301.5391659001707
 20
7.273150535415538
 30
0.0
 40
5.0
 41
0.0
 71
     1
 72
     5
  1
Skala 1:20
  7
Solbet_5
 73
     1
 44
1.0
1001
ACAD
1000
MTEXTBEGIN
1070
    73
1070
     1
1070
    44
1040
1.0
1070
    74
1070
     0
1000
MTEXTEND
1000
ACAD_MTEXT_DEFINED_HEIGHT_BEGIN
1070
    46
1040
5.395147572682731
1000
ACAD_MTEXT_DEFINED_HEIGHT_END
  0
LWPOLYLINE
  5
2678
330
1F
100
AcDbEntity
  8
SOLBET_Ramka_05
100
AcDbPolyline
 90
        4
 70
     1
 43
0.0
 10
298.5204997792568
 20
9.804221198935465
 10
334.636676666679
 20
9.804221198935465
 10
334.636676666679
 20
0.0
 10
298.5204997792569
 20
0.0
  0
ENDSEC
  0
SECTION
  2
OBJECTS
  0
DICTIONARY
  5
C
330
0
100
AcDbDictionary
281
     1
  3
ACAD_COLOR
350
6B
  3
ACAD_GROUP
350
D
  3
ACAD_LAYOUT
350
1A
  3
ACAD_MATERIAL
350
6A
  3
ACAD_MLEADERSTYLE
350
12D
  3
ACAD_MLINESTYLE
350
17
  3
ACAD_PLOTSETTINGS
350
19
  3
ACAD_PLOTSTYLENAME
350
E
  3
ACAD_SCALELIST
350
10C
  3
ACAD_TABLESTYLE
350
7E
  3
ACAD_VISUALSTYLE
350
EF
  3
ACDB_RECOMPOSE_DATA
350
15D
  3
AcDbVariableDictionary
350
5E
  3
DWGPROPS
350
26A9
  0
DICTIONARY
  5
443
330
8
100
AcDbDictionary
280
     1
281
     1
  0
DICTIONARY
  5
3E5
330
2
100
AcDbDictionary
280
     1
281
     1
  3
ACAD_LAYERFILTERS
360
1883
  3
ACLYDICTIONARY
360
1882
  0
DICTIONARY
  5
13C
330
10
100
AcDbDictionary
280
     1
281
     1
  3
ADSK_XREC_LAYER_RECONCILED
360
3F4
  0
DICTIONARY
  5
403
330
3DD
100
AcDbDictionary
280
     1
281
     1
  3
ADSK_XREC_LAYER_RECONCILED
360
404
  0
DICTIONARY
  5
405
330
3DF
100
AcDbDictionary
280
     1
281
     1
  3
ADSK_XREC_LAYER_RECONCILED
360
406
  0
DICTIONARY
  5
407
330
3E0
100
AcDbDictionary
280
     1
281
     1
  3
ADSK_XREC_LAYER_RECONCILED
360
408
  0
DICTIONARY
  5
409
330
3E1
100
AcDbDictionary
280
     1
281
     1
  3
ADSK_XREC_LAYER_RECONCILED
360
40A
  0
DICTIONARY
  5
40B
330
3E2
100
AcDbDictionary
280
     1
281
     1
  3
ADSK_XREC_LAYER_RECONCILED
360
40C
  0
DICTIONARY
  5
40F
330
3E4
100
AcDbDictionary
280
     1
281
     1
  3
ADSK_XREC_LAYER_RECONCILED
360
410
  0
DICTIONARY
  5
411
330
3E8
100
AcDbDictionary
280
     1
281
     1
  3
ADSK_XREC_LAYER_RECONCILED
360
412
  0
DICTIONARY
  5
25BC
330
25BB
100
AcDbDictionary
280
     1
281
     1
  3
ASDK_XREC_ANNO_SCALE_INFO
360
25BD
  0
DICTIONARY
  5
4A3
330
1F
100
AcDbDictionary
280
     1
281
     1
  3
ACAD_SORTENTS
360
4A4
  0
DICTIONARY
  5
224E
330
2243
100
AcDbDictionary
280
     1
281
     1
  3
ACAD_SORTENTS
360
224F
  0
DICTIONARY
  5
262F
330
2623
100
AcDbDictionary
280
     1
281
     1
  3
ACAD_SORTENTS
360
2630
  0
DICTIONARY
  5
2223
330
2222
100
AcDbDictionary
280
     1
281
     1
  3
ACAD_MTEXT_RT
360
26B6
  3
AcDbContextDataManager
360
2224
  0
DICTIONARY
  5
2238
330
2237
100
AcDbDictionary
280
     1
281
     1
  3
ACAD_MTEXT_RT
360
26B7
  3
AcDbContextDataManager
360
2239
  0
DICTIONARY
  5
223D
330
223C
100
AcDbDictionary
280
     1
281
     1
  3
ACAD_MTEXT_RT
360
26B8
  3
AcDbContextDataManager
360
223E
  0
DICTIONARY
  5
26B9
330
22F3
100
AcDbDictionary
280
     1
281
     1
  3
ACAD_MTEXT_RT
360
26BA
  0
DICTIONARY
  5
26BB
330
22F5
100
AcDbDictionary
280
     1
281
     1
  3
ACAD_MTEXT_RT
360
26BC
  0
DICTIONARY
  5
26BD
330
22FC
100
AcDbDictionary
280
     1
281
     1
  3
ACAD_MTEXT_RT
360
26BE
  0
DICTIONARY
  5
26BF
330
2302
100
AcDbDictionary
280
     1
281
     1
  3
ACAD_MTEXT_RT
360
26C0
  0
DICTIONARY
  5
25BE
330
230C
100
AcDbDictionary
280
     1
281
     1
  3
ACAD_MTEXT_2008_RT
360
25BF
  0
DICTIONARY
  5
26C1
330
2317
100
AcDbDictionary
280
     1
281
     1
  3
ACAD_MTEXT_RT
360
26C2
  0
DICTIONARY
  5
26C3
330
2319
100
AcDbDictionary
280
     1
281
     1
  3
ACAD_MTEXT_RT
360
26C4
  0
DICTIONARY
  5
2676
330
2675
100
AcDbDictionary
280
     1
281
     1
  3
ACAD_MTEXT_2008_RT
360
2677
  0
DICTIONARY
  5
6B
102
{ACAD_REACTORS
330
C
102
}
330
C
100
AcDbDictionary
281
     1
  0
DICTIONARY
  5
D
102
{ACAD_REACTORS
330
C
102
}
330
C
100
AcDbDictionary
281
     1
  0
DICTIONARY
  5
1A
102
{ACAD_REACTORS
330
C
102
}
330
C
100
AcDbDictionary
281
     1
  3
Arkusz1
350
D3
  3
Arkusz2
350
D7
  3
Model
350
22
  0
DICTIONARY
  5
6A
102
{ACAD_REACTORS
330
C
102
}
330
C
100
AcDbDictionary
281
     1
  3
ByBlock
350
ED
  3
ByLayer
350
EC
  3
Global
350
EE
  0
DICTIONARY
  5
12D
102
{ACAD_REACTORS
330
C
102
}
330
C
100
AcDbDictionary
281
     1
  3
Standard
350
12E
  0
DICTIONARY
  5
17
102
{ACAD_REACTORS
330
C
102
}
330
C
100
AcDbDictionary
281
     1
  3
SOLBET_IZOLACJA
350
7E9
  3
Standard
350
18
  0
DICTIONARY
  5
19
102
{ACAD_REACTORS
330
C
102
}
330
C
100
AcDbDictionary
281
     1
  0
ACDBDICTIONARYWDFLT
  5
E
102
{ACAD_REACTORS
330
C
102
}
330
C
100
AcDbDictionary
281
     1
  3
Normal
350
F
100
AcDbDictionaryWithDefault
340
F
  0
DICTIONARY
  5
10C
102
{ACAD_REACTORS
330
C
102
}
330
C
100
AcDbDictionary
281
     1
  3
A0
350
10D
  3
A1
350
188
  3
A2
350
189
  3
A3
350
18A
  3
A4
350
18B
  3
A5
350
18C
  3
A6
350
18D
  3
A7
350
18E
  3
A8
350
18F
  3
A9
350
190
  3
B0
350
191
  3
B1
350
192
  3
B2
350
193
  3
B3
350
194
  3
B4
350
195
  3
B5
350
196
  3
B6
350
197
  3
B7
350
198
  3
B8
350
199
  3
B9
350
19A
  3
C0
350
19B
  3
C1
350
19C
  3
C2
350
19D
  3
C3
350
19E
  3
C4
350
19F
  3
C5
350
1A0
  3
C6
350
1A1
  3
C7
350
1A2
  3
C8
350
1A3
  3
C9
350
1A4
  3
D0
350
1A5
  3
D1
350
1A6
  3
D2
350
1A7
  0
DICTIONARY
  5
7E
102
{ACAD_REACTORS
330
C
102
}
330
C
100
AcDbDictionary
281
     1
  3
Standard
350
7F
  0
DICTIONARY
  5
EF
102
{ACAD_REACTORS
330
C
102
}
330
C
100
AcDbDictionary
281
     1
  3
2dWireframe
350
F5
  3
3D Hidden
350
F7
  3
3dWireframe
350
F6
  3
Basic
350
F4
  3
Brighten
350
FB
  3
ColorChange
350
FF
  3
Conceptual
350
F8
  3
Dim
350
FA
  3
Facepattern
350
FE
  3
Flat
350
F0
  3
FlatWithEdges
350
F1
  3
Gouraud
350
F2
  3
GouraudWithEdges
350
F3
  3
Linepattern
350
FD
  3
Realistic
350
F9
  3
Thicken
350
FC
  0
XRECORD
  5
15D
102
{ACAD_REACTORS
330
C
102
}
330
C
100
AcDbXrecord
280
     1
 90
        1
330
7F
330
2222
330
2237
330
223C
330
230C
  0
DICTIONARY
  5
5E
102
{ACAD_REACTORS
330
C
102
}
330
C
100
AcDbDictionary
281
     1
  3
CANNOSCALE
350
146
  3
CMLEADERSTYLE
350
145
  3
CTABLESTYLE
350
84
  3
DIMASSOC
350
5F
  3
HIDETEXT
350
63
  3
INDEXCTL
350
466
  3
LIGHTINGUNITS
350
464
  3
MSLTSCALE
350
463
  3
PSOLHEIGHT
350
26A8
  3
PSOLWIDTH
350
26A7
  3
SORTENTS
350
465
  0
XRECORD
  5
26A9
102
{ACAD_REACTORS
330
C
102
}
330
C
100
AcDbXrecord
280
     1
  1
DWGPROPS COOKIE
  2

  3

  4

  6

  7

  8
Olus
  9

300
=
301
=
302
=
303
=
304
=
305
=
306
=
307
=
308
=
309
=
 40
0.4368754166666668
 41
2454690.075573148
 42
2454848.877979873
  1

 90
        0
  0
DICTIONARY
  5
1883
102
{ACAD_REACTORS
330
3E5
102
}
330
3E5
100
AcDbDictionary
281
     1
  0
DICTIONARY
  5
1882
102
{ACAD_REACTORS
330
3E5
102
}
330
3E5
100
AcDbDictionary
281
     1
1001
ACAD
1000
<All
  0
XRECORD
  5
3F4
102
{ACAD_REACTORS
330
13C
102
}
330
13C
100
AcDbXrecord
280
     1
290
     1
  0
XRECORD
  5
404
102
{ACAD_REACTORS
330
403
102
}
330
403
100
AcDbXrecord
280
     1
290
     1
  0
XRECORD
  5
406
102
{ACAD_REACTORS
330
405
102
}
330
405
100
AcDbXrecord
280
     1
290
     1
  0
XRECORD
  5
408
102
{ACAD_REACTORS
330
407
102
}
330
407
100
AcDbXrecord
280
     1
290
     1
  0
XRECORD
  5
40A
102
{ACAD_REACTORS
330
409
102
}
330
409
100
AcDbXrecord
280
     1
290
     1
  0
XRECORD
  5
40C
102
{ACAD_REACTORS
330
40B
102
}
330
40B
100
AcDbXrecord
280
     1
290
     1
  0
XRECORD
  5
410
102
{ACAD_REACTORS
330
40F
102
}
330
40F
100
AcDbXrecord
280
     1
290
     1
  0
XRECORD
  5
412
102
{ACAD_REACTORS
330
411
102
}
330
411
100
AcDbXrecord
280
     1
290
     1
  0
XRECORD
  5
25BD
102
{ACAD_REACTORS
330
25BC
102
}
330
25BC
100
AcDbXrecord
280
     1
 70
     1
340
10D
340
3DF
 70
    -1
  0
SORTENTSTABLE
  5
4A4
102
{ACAD_REACTORS
330
4A3
102
}
330
4A3
100
AcDbSortentsTable
330
1F
331
22F9
  5
22FB
331
2301
  5
2303
331
228A
  5
226D
331
2168
  5
2290
331
2170
  5
216F
331
21A7
  5
21A6
331
2206
  5
220C
331
220E
  5
2214
331
21C7
  5
21C8
331
2180
  5
217E
331
2216
  5
221C
331
21CF
  5
21D0
331
2311
  5
2313
331
2319
  5
231B
331
2341
  5
2201
331
22F2
  5
22F4
331
2188
  5
2187
331
21E7
  5
21EA
331
2198
  5
22EC
331
21EF
  5
21F2
331
21F7
  5
21FA
331
22FA
  5
22FC
331
2302
  5
2304
331
226B
  5
22BE
331
230A
  5
230C
331
2169
  5
2168
331
21A0
  5
219F
331
21A8
  5
21A7
331
2171
  5
228F
331
2207
  5
220D
331
2179
  5
2177
331
220F
  5
2215
331
21C8
  5
21C9
331
2181
  5
217F
331
2217
  5
2222
331
2293
  5
21AE
331
223C
  5
2283
331
22BB
  5
2295
331
22F3
  5
22F5
331
21D0
  5
21D1
331
21E8
  5
21EB
331
2199
  5
22ED
331
21F0
  5
21F3
331
2237
  5
2272
331
22FB
  5
22FD
331
2264
  5
22BB
331
2303
  5
2305
331
226C
  5
2285
331
230B
  5
230D
331
2284
  5
2182
331
21F8
  5
21FB
331
216A
  5
2169
331
2200
  5
2205
331
21A9
  5
21A8
331
2208
  5
220E
331
217A
  5
2178
331
2210
  5
2216
331
2182
  5
2180
331
22BC
  5
2296
331
22F4
  5
22F6
331
2218
  5
2264
331
21E9
  5
21EC
331
219A
  5
2199
331
21F1
  5
21F4
331
22FC
  5
22FE
331
2304
  5
2306
331
226D
  5
2286
331
230C
  5
230E
331
2285
  5
2288
331
228D
  5
226C
331
21F9
  5
21FC
331
216B
  5
216A
331
2201
  5
2207
331
2209
  5
220F
331
21C2
  5
21C3
331
2211
  5
2217
331
2183
  5
2181
331
21CA
  5
21CA
331
22BD
  5
22B7
331
22F5
  5
22F7
331
2221
  5
226E
331
219B
  5
219A
331
21F2
  5
21F5
331
22FD
  5
22FF
331
2305
  5
2307
331
2286
  5
2289
331
228E
  5
228C
331
21FA
  5
21FD
331
216C
  5
216B
331
21A3
  5
21A2
331
2202
  5
2208
331
2174
  5
2172
331
220A
  5
2210
331
21C3
  5
21C4
331
2212
  5
2218
331
21CB
  5
21CB
331
2184
  5
2183
331
2296
  5
2292
331
22BE
  5
22B8
331
2222
  5
2271
331
21EB
  5
21ED
331
21F3
  5
21F6
331
22FE
  5
2300
331
2306
  5
2308
331
230E
  5
2310
331
2287
  5
228B
331
228F
  5
228D
331
21FB
  5
21FE
331
216D
  5
216C
331
21A4
  5
21A3
331
2203
  5
2209
331
2175
  5
2173
331
21AC
  5
21A9
331
220B
  5
2211
331
21C4
  5
21C5
331
217D
  5
217B
331
21CC
  5
21CC
331
2213
  5
2219
331
2316
  5
2318
331
22B7
  5
2293
331
22BF
  5
22B9
331
21E4
  5
21E7
331
21EC
  5
21EE
331
219D
  5
219B
331
21F4
  5
21F7
331
22FF
  5
2301
331
2307
  5
2309
331
230F
  5
2311
331
21FC
  5
21FF
331
216E
  5
216D
331
21A5
  5
21A4
331
2204
  5
220A
331
21AD
  5
21AA
331
220C
  5
2212
331
21C5
  5
21C6
331
217E
  5
217C
331
2214
  5
221A
331
21CD
  5
21CE
331
2290
  5
228E
331
2317
  5
2319
331
22B8
  5
2294
331
21E5
  5
21E8
331
2196
  5
2291
331
21ED
  5
21EF
331
21F5
  5
21F8
331
22F8
  5
22FA
331
2300
  5
2302
331
2308
  5
230A
331
216F
  5
216E
331
21A6
  5
21A5
331
2205
  5
220B
331
2177
  5
2174
331
21AE
  5
22BF
331
220D
  5
2213
331
21C6
  5
21C7
331
217F
  5
217D
331
2215
  5
221B
331
21CE
  5
21CF
331
2187
  5
2186
331
2291
  5
21AF
331
2310
  5
2312
331
2318
  5
231A
331
22B9
  5
2202
331
21E6
  5
21E9
331
21EE
  5
21F1
331
219F
  5
219E
331
21F6
  5
21F9
  0
SORTENTSTABLE
  5
224F
102
{ACAD_REACTORS
330
224E
102
}
330
224E
100
AcDbSortentsTable
330
2243
  0
SORTENTSTABLE
  5
2630
102
{ACAD_REACTORS
330
262F
102
}
330
262F
100
AcDbSortentsTable
330
2623
  0
XRECORD
  5
26B6
102
{ACAD_REACTORS
330
2223
102
}
330
2223
100
AcDbXrecord
280
     1
 40
347553.0
  1
{\LDETAL 64\P}Oparcie stropu Filigran na ścianach zewnętrznych warstwowych
  0
DICTIONARY
  5
2224
102
{ACAD_REACTORS
330
2223
102
}
330
2223
100
AcDbDictionary
281
     1
  3
ACDB_ANNOTATIONSCALES
350
2225
  0
XRECORD
  5
26B7
102
{ACAD_REACTORS
330
2238
102
}
330
2238
100
AcDbXrecord
280
     1
 40
258673.0
  1
Na ścianie zewnętrznej\Pprostopadłej do kierunku płyt
  0
DICTIONARY
  5
2239
102
{ACAD_REACTORS
330
2238
102
}
330
2238
100
AcDbDictionary
281
     1
  3
ACDB_ANNOTATIONSCALES
350
223A
  0
XRECORD
  5
26B8
102
{ACAD_REACTORS
330
223D
102
}
330
223D
100
AcDbXrecord
280
     1
 40
284063.0
  1
Na ścianie zewnętrznej\Prównoległej do kierunku płyt
  0
DICTIONARY
  5
223E
102
{ACAD_REACTORS
330
223D
102
}
330
223D
100
AcDbDictionary
281
     1
  3
ACDB_ANNOTATIONSCALES
350
223F
  0
XRECORD
  5
26BA
102
{ACAD_REACTORS
330
26B9
102
}
330
26B9
100
AcDbXrecord
280
     1
 40
25446.0
  1
Wieniec żelbetowy
  0
XRECORD
  5
26BC
102
{ACAD_REACTORS
330
26BB
102
}
330
26BB
100
AcDbXrecord
280
     1
 40
100191.0
  1
Zbrojenie górne\Pstrefy przypodporowej
  0
XRECORD
  5
26BE
102
{ACAD_REACTORS
330
26BD
102
}
330
26BD
100
AcDbXrecord
280
     1
 40
34960.0
  1
Warstwa wykończeniowa
  0
XRECORD
  5
26C0
102
{ACAD_REACTORS
330
26BF
102
}
330
26BF
100
AcDbXrecord
280
     1
 40
42625.0
  1
Płyty izolacyjne twarde
  0
XRECORD
  5
25BF
102
{ACAD_REACTORS
330
25BE
102
}
330
25BE
100
AcDbXrecord
280
     1
 40
24693.0
  1
\pxqc;A\P(5 : 1)
  0
XRECORD
  5
26C2
102
{ACAD_REACTORS
330
26C1
102
}
330
26C1
100
AcDbXrecord
280
     1
 40
25446.0
  1
Wieniec żelbetowy
  0
XRECORD
  5
26C4
102
{ACAD_REACTORS
330
26C3
102
}
330
26C3
100
AcDbXrecord
280
     1
 40
100191.0
  1
Zbrojenie górne\Pstrefy przypodporowej
  0
XRECORD
  5
2677
102
{ACAD_REACTORS
330
2676
102
}
330
2676
100
AcDbXrecord
280
     1
 40
24748.0
  1
\pxqc;C\P(5 : 1)
  0
LAYOUT
  5
D3
102
{ACAD_XDICTIONARY
360
26AD
102
}
102
{ACAD_REACTORS
330
1A
102
}
330
1A
100
AcDbPlotSettings
  1

  2
C:\Documents and Settings\basas\Application Data\Autodesk\AutoCAD 2005\R16.1\enu\plotters\Default Windows System Printer.pc3
  4

  6

 40
0.0
 41
0.0
 42
0.0
 43
0.0
 44
0.0
 45
0.0
 46
0.0
 47
0.0
 48
0.0
 49
0.0
140
0.0
141
0.0
142
1.0
143
1.0
 70
   688
 72
     0
 73
     0
 74
     5
  7

 75
    16
147
1.0
148
0.0
149
0.0
100
AcDbLayout
  1
Arkusz1
 70
     1
 71
     1
 10
0.0
 20
0.0
 11
12.0
 21
9.0
 12
0.0
 22
0.0
 32
0.0
 14
0.0
 24
0.0
 34
0.0
 15
0.0
 25
0.0
 35
0.0
146
0.0
 13
0.0
 23
0.0
 33
0.0
 16
1.0
 26
0.0
 36
0.0
 17
0.0
 27
1.0
 37
0.0
 76
     0
330
D2
  0
LAYOUT
  5
D7
102
{ACAD_XDICTIONARY
360
26AF
102
}
102
{ACAD_REACTORS
330
1A
102
}
330
1A
100
AcDbPlotSettings
  1

  2
C:\Documents and Settings\basas\Application Data\Autodesk\AutoCAD 2005\R16.1\enu\plotters\Default Windows System Printer.pc3
  4

  6

 40
0.0
 41
0.0
 42
0.0
 43
0.0
 44
0.0
 45
0.0
 46
0.0
 47
0.0
 48
0.0
 49
0.0
140
0.0
141
0.0
142
1.0
143
1.0
 70
   688
 72
     0
 73
     0
 74
     5
  7

 75
    16
147
1.0
148
0.0
149
0.0
100
AcDbLayout
  1
Arkusz2
 70
     1
 71
     2
 10
0.0
 20
0.0
 11
12.0
 21
9.0
 12
0.0
 22
0.0
 32
0.0
 14
0.0
 24
0.0
 34
0.0
 15
0.0
 25
0.0
 35
0.0
146
0.0
 13
0.0
 23
0.0
 33
0.0
 16
1.0
 26
0.0
 36
0.0
 17
0.0
 27
1.0
 37
0.0
 76
     0
330
D6
  0
LAYOUT
  5
22
102
{ACAD_XDICTIONARY
360
26AA
102
}
102
{ACAD_REACTORS
330
1A
102
}
330
1A
100
AcDbPlotSettings
  1

  2
none_device
  4
Letter_(8.50_x_11.00_Inches)
  6

 40
6.349999904632568
 41
6.349999904632568
 42
6.350006103515625
 43
6.350006103515625
 44
215.8999938964844
 45
279.3999938964844
 46
11.54999923706054
 47
-13.65000009536743
 48
0.0
 49
0.0
140
210.0
141
297.0
142
1.0
143
1.0
 70
 11936
 72
     1
 73
     0
 74
     4
  7

 75
     0
147
0.9999999999999998
148
0.0
149
0.0
100
AcDbLayout
  1
Model
 70
     1
 71
     0
 10
0.0
 20
0.0
 11
12.0
 21
9.0
 12
0.0
 22
0.0
 32
0.0
 14
0.0
 24
0.0
 34
0.0
 15
0.0
 25
0.0
 35
0.0
146
0.0
 13
0.0
 23
0.0
 33
0.0
 16
1.0
 26
0.0
 36
0.0
 17
0.0
 27
1.0
 37
0.0
 76
     0
330
1F
331
EA
1001
ACAD_PSEXT
1000
Brak
1000
Brak
1000
Nie można zastosować.
1000
Arkusz nie zostanie wydrukowany dopóki nie wybrano konfiguracji plotera.
1070
     0
  0
MATERIAL
  5
ED
102
{ACAD_XDICTIONARY
360
26B3
102
}
102
{ACAD_REACTORS
330
6A
102
}
330
6A
100
AcDbMaterial
  1
ByBlock
 73
     2
 78
     2
172
     2
176
     2
270
     2
274
     2
  0
MATERIAL
  5
EC
102
{ACAD_XDICTIONARY
360
26B1
102
}
102
{ACAD_REACTORS
330
6A
102
}
330
6A
100
AcDbMaterial
  1
ByLayer
 73
     2
 78
     2
172
     2
176
     2
270
     2
274
     2
  0
MATERIAL
  5
EE
102
{ACAD_XDICTIONARY
360
173
102
}
102
{ACAD_REACTORS
330
6A
102
}
330
6A
100
AcDbMaterial
  1
Global
 73
     2
 43
0.0007999999797903
 43
0.0
 43
0.0
 43
0.0
 43
0.0
 43
0.0007999999797903
 43
0.0
 43
0.0
 43
0.0
 43
0.0
 43
1.0
 43
0.0
 43
0.0
 43
0.0
 43
0.0
 43
1.0
 78
     2
172
     2
 49
0.0007999999797903
 49
0.0
 49
0.0
 49
0.0
 49
0.0
 49
0.0007999999797903
 49
0.0
 49
0.0
 49
0.0
 49
0.0
 49
1.0
 49
0.0
 49
0.0
 49
0.0
 49
0.0
 49
1.0
176
     2
142
0.0007999999797903
142
0.0
142
0.0
142
0.0
142
0.0
142
0.0007999999797903
142
0.0
142
0.0
142
0.0
142
0.0
142
1.0
142
0.0
142
0.0
142
0.0
142
0.0
142
1.0
270
     2
144
0.0007999999797903
144
0.0
144
0.0
144
0.0
144
0.0
144
0.0007999999797903
144
0.0
144
0.0
144
0.0
144
0.0
144
1.0
144
0.0
144
0.0
144
0.0
144
0.0
144
1.0
274
     2
1001
ACAD
1070
    -1
1070
     3
1070
     0
1000

1071
        0
1070
     0
  0
ACAD_PROXY_OBJECT
  5
12E
102
{ACAD_REACTORS
330
12D
102
}
330
12D
100
AcDbProxyObject
 90
      499
 91
      508
 95
       23
 70
     0
 93
      618
310
40901902A4063FBFFFFFE0000000000000020400000000000020404254DD185B99185C99000000000000000104090140501A0000000000000410000000000000004102576400000000000003903F
340
14
340
0
340
11
340
0
 94
        0
1001
ACAD_MLEADERVER
1070
     2
1001
ACAD
1000
AcRTDxfName
1000
MLEADERSTYLE
1000
AcRTDxfName
1000
MLEADERSTYLE
  0
MLINESTYLE
  5
7E9
102
{ACAD_REACTORS
330
17
102
}
330
17
100
AcDbMlineStyle
  2
SOLBET_IZOLACJA
 70
   272
  3

 62
   256
 51
90.0
 52
90.0
 71
     2
 49
0.008
 62
   256
  6
BYLAYER
 49
-0.008
 62
   256
  6
BYLAYER
  0
MLINESTYLE
  5
18
102
{ACAD_REACTORS
330
17
102
}
330
17
100
AcDbMlineStyle
  2
STANDARD
 70
     0
  3

 62
   256
 51
90.0
 52
90.0
 71
     2
 49
0.5
 62
   256
  6
BYLAYER
 49
-0.5
 62
   256
  6
BYLAYER
  0
ACDBPLACEHOLDER
  5
F
102
{ACAD_REACTORS
330
E
102
}
330
E
  0
ACAD_PROXY_OBJECT
  5
10D
102
{ACAD_REACTORS
330
10C
102
}
330
10C
100
AcDbProxyObject
 90
      499
 91
      507
 95
       23
 70
     0
 93
       49
310
904313A31005FF
 94
        0
1001
ACAD
1000
AcRTDxfName
1000
SCALE
1000
AcRTDxfName
1000
SCALE
  0
ACAD_PROXY_OBJECT
  5
188
102
{ACAD_REACTORS
330
10C
102
}
330
10C
100
AcDbProxyObject
 90
      499
 91
      507
 95
       23
 70
     0
 93
      113
310
904313A3200400000000000000407F
 94
        0
1001
ACAD
1000
AcRTDxfName
1000
SCALE
1000
AcRTDxfName
1000
SCALE
  0
ACAD_PROXY_OBJECT
  5
189
102
{ACAD_REACTORS
330
10C
102
}
330
10C
100
AcDbProxyObject
 90
      499
 91
      507
 95
       23
 70
     0
 93
      113
310
904313A3400400000000000010407F
 94
        0
1001
ACAD
1000
AcRTDxfName
1000
SCALE
1000
AcRTDxfName
1000
SCALE
  0
ACAD_PROXY_OBJECT
  5
18A
102
{ACAD_REACTORS
330
10C
102
}
330
10C
100
AcDbProxyObject
 90
      499
 91
      507
 95
       23
 70
     0
 93
      113
310
904313A3500400000000000014407F
 94
        0
1001
ACAD
1000
AcRTDxfName
1000
SCALE
1000
AcRTDxfName
1000
SCALE
  0
ACAD_PROXY_OBJECT
  5
18B
102
{ACAD_REACTORS
330
10C
102
}
330
10C
100
AcDbProxyObject
 90
      499
 91
      507
 95
       23
 70
     0
 93
      113
310
904313A3800400000000000020407F
 94
        0
1001
ACAD
1000
AcRTDxfName
1000
SCALE
1000
AcRTDxfName
1000
SCALE
  0
ACAD_PROXY_OBJECT
  5
18C
102
{ACAD_REACTORS
330
10C
102
}
330
10C
100
AcDbProxyObject
 90
      499
 91
      507
 95
       23
 70
     0
 93
      121
310
905313A313000400000000000024407F
 94
        0
1001
ACAD
1000
AcRTDxfName
1000
SCALE
1000
AcRTDxfName
1000
SCALE
  0
ACAD_PROXY_OBJECT
  5
18D
102
{ACAD_REACTORS
330
10C
102
}
330
10C
100
AcDbProxyObject
 90
      499
 91
      507
 95
       23
 70
     0
 93
      121
310
905313A313600400000000000030407F
 94
        0
1001
ACAD
1000
AcRTDxfName
1000
SCALE
1000
AcRTDxfName
1000
SCALE
  0
ACAD_PROXY_OBJECT
  5
18E
102
{ACAD_REACTORS
330
10C
102
}
330
10C
100
AcDbProxyObject
 90
      499
 91
      507
 95
       23
 70
     0
 93
      121
310
905313A323000400000000000034407F
 94
        0
1001
ACAD
1000
AcRTDxfName
1000
SCALE
1000
AcRTDxfName
1000
SCALE
  0
ACAD_PROXY_OBJECT
  5
18F
102
{ACAD_REACTORS
330
10C
102
}
330
10C
100
AcDbProxyObject
 90
      499
 91
      507
 95
       23
 70
     0
 93
      121
310
905313A33300040000000000003E407F
 94
        0
1001
ACAD
1000
AcRTDxfName
1000
SCALE
1000
AcRTDxfName
1000
SCALE
  0
ACAD_PROXY_OBJECT
  5
190
102
{ACAD_REACTORS
330
10C
102
}
330
10C
100
AcDbProxyObject
 90
      499
 91
      507
 95
       23
 70
     0
 93
      121
310
905313A343000400000000000044407F
 94
        0
1001
ACAD
1000
AcRTDxfName
1000
SCALE
1000
AcRTDxfName
1000
SCALE
  0
ACAD_PROXY_OBJECT
  5
191
102
{ACAD_REACTORS
330
10C
102
}
330
10C
100
AcDbProxyObject
 90
      499
 91
      507
 95
       23
 70
     0
 93
      121
310
905313A353000400000000000049407F
 94
        0
1001
ACAD
1000
AcRTDxfName
1000
SCALE
1000
AcRTDxfName
1000
SCALE
  0
ACAD_PROXY_OBJECT
  5
192
102
{ACAD_REACTORS
330
10C
102
}
330
10C
100
AcDbProxyObject
 90
      499
 91
      507
 95
       23
 70
     0
 93
      129
310
906313A31303000400000000000059407F
 94
        0
1001
ACAD
1000
AcRTDxfName
1000
SCALE
1000
AcRTDxfName
1000
SCALE
  0
ACAD_PROXY_OBJECT
  5
193
102
{ACAD_REACTORS
330
10C
102
}
330
10C
100
AcDbProxyObject
 90
      499
 91
      507
 95
       23
 70
     0
 93
      113
310
904323A3100000000000000001017F
 94
        0
1001
ACAD
1000
AcRTDxfName
1000
SCALE
1000
AcRTDxfName
1000
SCALE
  0
ACAD_PROXY_OBJECT
  5
194
102
{ACAD_REACTORS
330
10C
102
}
330
10C
100
AcDbProxyObject
 90
      499
 91
      507
 95
       23
 70
     0
 93
      113
310
904343A3100000000000000041017F
 94
        0
1001
ACAD
1000
AcRTDxfName
1000
SCALE
1000
AcRTDxfName
1000
SCALE
  0
ACAD_PROXY_OBJECT
  5
195
102
{ACAD_REACTORS
330
10C
102
}
330
10C
100
AcDbProxyObject
 90
      499
 91
      507
 95
       23
 70
     0
 93
      113
310
904383A3100000000000000081017F
 94
        0
1001
ACAD
1000
AcRTDxfName
1000
SCALE
1000
AcRTDxfName
1000
SCALE
  0
ACAD_PROXY_OBJECT
  5
196
102
{ACAD_REACTORS
330
10C
102
}
330
10C
100
AcDbProxyObject
 90
      499
 91
      507
 95
       23
 70
     0
 93
      121
310
90531303A3100000000000000091017F
 94
        0
1001
ACAD
1000
AcRTDxfName
1000
SCALE
1000
AcRTDxfName
1000
SCALE
  0
ACAD_PROXY_OBJECT
  5
197
102
{ACAD_REACTORS
330
10C
102
}
330
10C
100
AcDbProxyObject
 90
      499
 91
      507
 95
       23
 70
     0
 93
      129
310
9063130303A3100000000000000165017F
 94
        0
1001
ACAD
1000
AcRTDxfName
1000
SCALE
1000
AcRTDxfName
1000
SCALE
  0
ACAD_PROXY_OBJECT
  5
198
102
{ACAD_REACTORS
330
10C
102
}
330
10C
100
AcDbProxyObject
 90
      499
 91
      507
 95
       23
 70
     0
 93
      265
310
90F312F31323822203D2031272D302200000000000000200FC00000000000028407F
 94
        0
1001
ACAD
1000
AcRTDxfName
1000
SCALE
1000
AcRTDxfName
1000
SCALE
  0
ACAD_PROXY_OBJECT
  5
199
102
{ACAD_REACTORS
330
10C
102
}
330
10C
100
AcDbProxyObject
 90
      499
 91
      507
 95
       23
 70
     0
 93
      257
310
90E312F363422203D2031272D302200000000000000240FC00000000000028407F
 94
        0
1001
ACAD
1000
AcRTDxfName
1000
SCALE
1000
AcRTDxfName
1000
SCALE
  0
ACAD_PROXY_OBJECT
  5
19A
102
{ACAD_REACTORS
330
10C
102
}
330
10C
100
AcDbProxyObject
 90
      499
 91
      507
 95
       23
 70
     0
 93
      257
310
90E312F333222203D2031272D302200000000000000280FC00000000000028407F
 94
        0
1001
ACAD
1000
AcRTDxfName
1000
SCALE
1000
AcRTDxfName
1000
SCALE
  0
ACAD_PROXY_OBJECT
  5
19B
102
{ACAD_REACTORS
330
10C
102
}
330
10C
100
AcDbProxyObject
 90
      499
 91
      507
 95
       23
 70
     0
 93
      257
310
90E312F313622203D2031272D3022000000000000002C0FC00000000000028407F
 94
        0
1001
ACAD
1000
AcRTDxfName
1000
SCALE
1000
AcRTDxfName
1000
SCALE
  0
ACAD_PROXY_OBJECT
  5
19C
102
{ACAD_REACTORS
330
10C
102
}
330
10C
100
AcDbProxyObject
 90
      499
 91
      507
 95
       23
 70
     0
 93
      257
310
90E332F333222203D2031272D3022000000000000002E0FC00000000000028407F
 94
        0
1001
ACAD
1000
AcRTDxfName
1000
SCALE
1000
AcRTDxfName
1000
SCALE
  0
ACAD_PROXY_OBJECT
  5
19D
102
{ACAD_REACTORS
330
10C
102
}
330
10C
100
AcDbProxyObject
 90
      499
 91
      507
 95
       23
 70
     0
 93
      249
310
90D312F3822203D2031272D302200000000000000300FC00000000000028407F
 94
        0
1001
ACAD
1000
AcRTDxfName
1000
SCALE
1000
AcRTDxfName
1000
SCALE
  0
ACAD_PROXY_OBJECT
  5
19E
102
{ACAD_REACTORS
330
10C
102
}
330
10C
100
AcDbProxyObject
 90
      499
 91
      507
 95
       23
 70
     0
 93
      257
310
90E332F313622203D2031272D302200000000000000320FC00000000000028407F
 94
        0
1001
ACAD
1000
AcRTDxfName
1000
SCALE
1000
AcRTDxfName
1000
SCALE
  0
ACAD_PROXY_OBJECT
  5
19F
102
{ACAD_REACTORS
330
10C
102
}
330
10C
100
AcDbProxyObject
 90
      499
 91
      507
 95
       23
 70
     0
 93
      249
310
90D312F3422203D2031272D302200000000000000340FC00000000000028407F
 94
        0
1001
ACAD
1000
AcRTDxfName
1000
SCALE
1000
AcRTDxfName
1000
SCALE
  0
ACAD_PROXY_OBJECT
  5
1A0
102
{ACAD_REACTORS
330
10C
102
}
330
10C
100
AcDbProxyObject
 90
      499
 91
      507
 95
       23
 70
     0
 93
      249
310
90D332F3822203D2031272D302200000000000000360FC00000000000028407F
 94
        0
1001
ACAD
1000
AcRTDxfName
1000
SCALE
1000
AcRTDxfName
1000
SCALE
  0
ACAD_PROXY_OBJECT
  5
1A1
102
{ACAD_REACTORS
330
10C
102
}
330
10C
100
AcDbProxyObject
 90
      499
 91
      507
 95
       23
 70
     0
 93
      249
310
90D312F3222203D2031272D302200000000000000380FC00000000000028407F
 94
        0
1001
ACAD
1000
AcRTDxfName
1000
SCALE
1000
AcRTDxfName
1000
SCALE
  0
ACAD_PROXY_OBJECT
  5
1A2
102
{ACAD_REACTORS
330
10C
102
}
330
10C
100
AcDbProxyObject
 90
      499
 91
      507
 95
       23
 70
     0
 93
      249
310
90D332F3422203D2031272D3022000000000000003A0FC00000000000028407F
 94
        0
1001
ACAD
1000
AcRTDxfName
1000
SCALE
1000
AcRTDxfName
1000
SCALE
  0
ACAD_PROXY_OBJECT
  5
1A3
102
{ACAD_REACTORS
330
10C
102
}
330
10C
100
AcDbProxyObject
 90
      499
 91
      507
 95
       23
 70
     0
 93
      169
310
90B3122203D2031272D302200400000000000028407F
 94
        0
1001
ACAD
1000
AcRTDxfName
1000
SCALE
1000
AcRTDxfName
1000
SCALE
  0
ACAD_PROXY_OBJECT
  5
1A4
102
{ACAD_REACTORS
330
10C
102
}
330
10C
100
AcDbProxyObject
 90
      499
 91
      507
 95
       23
 70
     0
 93
      265
310
90F312D312F3222203D2031272D3022000000000000003E0FC00000000000028407F
 94
        0
1001
ACAD
1000
AcRTDxfName
1000
SCALE
1000
AcRTDxfName
1000
SCALE
  0
ACAD_PROXY_OBJECT
  5
1A5
102
{ACAD_REACTORS
330
10C
102
}
330
10C
100
AcDbProxyObject
 90
      499
 91
      507
 95
       23
 70
     0
 93
      233
310
90B3322203D2031272D3022000000000000000210000000000000028407F
 94
        0
1001
ACAD
1000
AcRTDxfName
1000
SCALE
1000
AcRTDxfName
1000
SCALE
  0
ACAD_PROXY_OBJECT
  5
1A6
102
{ACAD_REACTORS
330
10C
102
}
330
10C
100
AcDbProxyObject
 90
      499
 91
      507
 95
       23
 70
     0
 93
      233
310
90B3622203D2031272D3022000000000000000610000000000000028407F
 94
        0
1001
ACAD
1000
AcRTDxfName
1000
SCALE
1000
AcRTDxfName
1000
SCALE
  0
ACAD_PROXY_OBJECT
  5
1A7
102
{ACAD_REACTORS
330
10C
102
}
330
10C
100
AcDbProxyObject
 90
      499
 91
      507
 95
       23
 70
     0
 93
      257
310
90E31272D3022203D2031272D3022000000000000000A10000000000000028407F
 94
        0
1001
ACAD
1000
AcRTDxfName
1000
SCALE
1000
AcRTDxfName
1000
SCALE
  0
TABLESTYLE
  5
7F
102
{ACAD_XDICTIONARY
360
162
102
}
102
{ACAD_REACTORS
330
7E
102
}
330
7E
100
AcDbTableStyle
  3
Standard
 70
     0
 71
     0
 40
1.5
 41
1.5
280
     0
281
     0
  7
Standard
140
4.5
170
     2
 62
     0
 63
     7
283
     0
274
    -2
284
     1
 64
     0
275
    -2
285
     1
 65
     0
276
    -2
286
     1
 66
     0
277
    -2
287
     1
 67
     0
278
    -2
288
     1
 68
     0
279
    -2
289
     1
 69
     0
  7
Standard
140
6.0
170
     5
 62
     0
 63
     7
283
     0
274
    -2
284
     1
 64
     0
275
    -2
285
     1
 65
     0
276
    -2
286
     1
 66
     0
277
    -2
287
     1
 67
     0
278
    -2
288
     1
 68
     0
279
    -2
289
     1
 69
     0
  7
Standard
140
4.5
170
     5
 62
     0
 63
     7
283
     0
274
    -2
284
     1
 64
     0
275
    -2
285
     1
 65
     0
276
    -2
286
     1
 66
     0
277
    -2
287
     1
 67
     0
278
    -2
288
     1
 68
     0
279
    -2
289
     1
 69
     0
  0
VISUALSTYLE
  5
F5
102
{ACAD_REACTORS
330
EF
102
}
330
EF
100
AcDbVisualStyle
  2
2dWireframe
 70
     4
 71
     0
 72
     2
 73
     1
 90
        0
 40
-0.6
 41
-30.0
 62
     5
 63
     7
 74
     1
 91
        4
 64
     7
 65
   257
 75
     1
175
     1
 42
1.0
 92
        0
 66
   257
 43
1.0
 76
     1
 77
     6
 78
     2
 67
     7
 79
     5
170
     0
171
     0
290
     0
174
     0
 93
        1
 44
0.0
173
     0
291
     0
 45
0.0
1001
ACAD
1000
AcDbSavedByObjectVersion
1070
     0
  0
VISUALSTYLE
  5
F7
102
{ACAD_REACTORS
330
EF
102
}
330
EF
100
AcDbVisualStyle
  2
3D Hidden
 70
     6
 71
     1
 72
     2
 73
     2
 90
        0
 40
-0.6
 41
-30.0
 62
     5
 63
     7
 74
     2
 91
        2
 64
     7
 65
   257
 75
     2
175
     1
 42
40.0
 92
        0
 66
   257
 43
1.0
 76
     1
 77
     6
 78
     2
 67
     7
 79
     3
170
     0
171
     0
290
     0
174
     0
 93
        1
 44
0.0
173
     0
291
     0
 45
0.0
1001
ACAD
1000
AcDbSavedByObjectVersion
1070
     0
  0
VISUALSTYLE
  5
F6
102
{ACAD_REACTORS
330
EF
102
}
330
EF
100
AcDbVisualStyle
  2
3dWireframe
 70
     5
 71
     0
 72
     2
 73
     1
 90
        0
 40
-0.6
 41
-30.0
 62
     5
 63
     7
 74
     1
 91
        4
 64
     7
 65
   257
 75
     1
175
     1
 42
1.0
 92
        0
 66
   257
 43
1.0
 76
     1
 77
     6
 78
     2
 67
     7
 79
     5
170
     0
171
     0
290
     0
174
     0
 93
        1
 44
0.0
173
     0
291
     0
 45
0.0
1001
ACAD
1000
AcDbSavedByObjectVersion
1070
     0
  0
VISUALSTYLE
  5
F4
102
{ACAD_REACTORS
330
EF
102
}
330
EF
100
AcDbVisualStyle
  2
Basic
 70
     7
 71
     1
 72
     0
 73
     1
 90
        0
 40
-0.6
 41
-30.0
 62
     5
 63
     7
 74
     0
 91
        4
 64
     7
 65
   257
 75
     1
175
     1
 42
1.0
 92
        8
 66
     7
 43
1.0
 76
     1
 77
     6
 78
     2
 67
     7
 79
     5
170
     0
171
     0
290
     0
174
     0
 93
        1
 44
0.0
173
     0
291
     1
 45
0.0
1001
ACAD
1000
AcDbSavedByObjectVersion
1070
     0
  0
VISUALSTYLE
  5
FB
102
{ACAD_REACTORS
330
EF
102
}
330
EF
100
AcDbVisualStyle
  2
Brighten
 70
    12
 71
     2
 72
     2
 73
     1
 90
        0
 40
-0.6
 41
-30.0
 62
     5
 63
     7
 74
     1
 91
        4
 64
     7
 65
   257
 75
     1
175
     1
 42
1.0
 92
        8
 66
     7
 43
1.0
 76
     1
 77
     6
 78
     2
 67
     7
 79
     5
170
     0
171
     0
290
     0
174
     0
 93
        1
 44
50.0
173
     0
291
     1
 45
0.0
1001
ACAD
1000
AcDbSavedByObjectVersion
1070
     0
  0
VISUALSTYLE
  5
FF
102
{ACAD_REACTORS
330
EF
102
}
330
EF
100
AcDbVisualStyle
  2
ColorChange
 70
    16
 71
     2
 72
     2
 73
     3
 90
        0
 40
-0.6
 41
-30.0
 62
     5
 63
     8
 74
     1
 91
        4
 64
     7
 65
   257
 75
     1
175
     1
 42
1.0
 92
        8
 66
     8
 43
1.0
 76
     1
 77
     6
 78
     2
 67
     7
 79
     5
170
     0
171
     0
290
     0
174
     0
 93
        1
 44
0.0
173
     0
291
     1
 45
0.0
1001
ACAD
1000
AcDbSavedByObjectVersion
1070
     0
  0
VISUALSTYLE
  5
F8
102
{ACAD_REACTORS
330
EF
102
}
330
EF
100
AcDbVisualStyle
  2
Conceptual
 70
     9
 71
     3
 72
     2
 73
     1
 90
        0
 40
-0.6
 41
-30.0
 62
     5
 63
     7
 74
     2
 91
        2
 64
     7
 65
   257
 75
     1
175
     1
 42
40.0
 92
        8
 66
     7
 43
1.0
 76
     1
 77
     6
 78
     2
 67
     7
 79
     3
170
     0
171
     0
290
     0
174
     0
 93
        1
 44
0.0
173
     0
291
     0
 45
0.0
1001
ACAD
1000
AcDbSavedByObjectVersion
1070
     0
  0
VISUALSTYLE
  5
FA
102
{ACAD_REACTORS
330
EF
102
}
330
EF
100
AcDbVisualStyle
  2
Dim
 70
    11
 71
     2
 72
     2
 73
     1
 90
        0
 40
-0.6
 41
-30.0
 62
     5
 63
     7
 74
     1
 91
        4
 64
     7
 65
   257
 75
     1
175
     1
 42
1.0
 92
        8
 66
     7
 43
1.0
 76
     1
 77
     6
 78
     2
 67
     7
 79
     5
170
     0
171
     0
290
     0
174
     0
 93
        1
 44
-50.0
173
     0
291
     1
 45
0.0
1001
ACAD
1000
AcDbSavedByObjectVersion
1070
     0
  0
VISUALSTYLE
  5
FE
102
{ACAD_REACTORS
330
EF
102
}
330
EF
100
AcDbVisualStyle
  2
Facepattern
 70
    15
 71
     2
 72
     2
 73
     1
 90
        0
 40
-0.6
 41
-30.0
 62
     5
 63
     7
 74
     1
 91
        4
 64
     7
 65
   257
 75
     1
175
     1
 42
1.0
 92
        8
 66
     7
 43
1.0
 76
     1
 77
     6
 78
     2
 67
     7
 79
     5
170
     0
171
     0
290
     0
174
     0
 93
        1
 44
0.0
173
     0
291
     1
 45
0.0
1001
ACAD
1000
AcDbSavedByObjectVersion
1070
     0
  0
VISUALSTYLE
  5
F0
102
{ACAD_REACTORS
330
EF
102
}
330
EF
100
AcDbVisualStyle
  2
Flat
 70
     0
 71
     2
 72
     1
 73
     1
 90
        2
 40
-0.6
 41
30.0
 62
     5
 63
     7
 74
     0
 91
        4
 64
     7
 65
   257
 75
     1
175
     1
 42
1.0
 92
        8
 66
     7
 43
1.0
 76
     1
 77
     6
 78
     2
 67
     7
 79
     5
170
     0
171
     0
290
     0
174
     0
 93
        1
 44
0.0
173
     0
291
     1
 45
0.0
1001
ACAD
1000
AcDbSavedByObjectVersion
1070
     0
  0
VISUALSTYLE
  5
F1
102
{ACAD_REACTORS
330
EF
102
}
330
EF
100
AcDbVisualStyle
  2
FlatWithEdges
 70
     1
 71
     2
 72
     1
 73
     1
 90
        2
 40
-0.6
 41
30.0
 62
     5
 63
     7
 74
     1
 91
        4
 64
     7
 65
   257
 75
     1
175
     1
 42
1.0
 92
        0
 66
   257
 43
1.0
 76
     1
 77
     6
 78
     2
 67
     7
 79
     5
170
     0
171
     0
290
     0
174
     0
 93
        1
 44
0.0
173
     0
291
     1
 45
0.0
1001
ACAD
1000
AcDbSavedByObjectVersion
1070
     0
  0
VISUALSTYLE
  5
F2
102
{ACAD_REACTORS
330
EF
102
}
330
EF
100
AcDbVisualStyle
  2
Gouraud
 70
     2
 71
     2
 72
     2
 73
     1
 90
        2
 40
-0.6
 41
30.0
 62
     5
 63
     7
 74
     0
 91
        4
 64
     7
 65
   257
 75
     1
175
     1
 42
1.0
 92
        0
 66
     7
 43
1.0
 76
     1
 77
     6
 78
     2
 67
     7
 79
     5
170
     0
171
     0
290
     0
174
     0
 93
        1
 44
0.0
173
     0
291
     1
 45
0.0
1001
ACAD
1000
AcDbSavedByObjectVersion
1070
     0
  0
VISUALSTYLE
  5
F3
102
{ACAD_REACTORS
330
EF
102
}
330
EF
100
AcDbVisualStyle
  2
GouraudWithEdges
 70
     3
 71
     2
 72
     2
 73
     1
 90
        2
 40
-0.6
 41
30.0
 62
     5
 63
     7
 74
     1
 91
        4
 64
     7
 65
   257
 75
     1
175
     1
 42
1.0
 92
        0
 66
   257
 43
1.0
 76
     1
 77
     6
 78
     2
 67
     7
 79
     5
170
     0
171
     0
290
     0
174
     0
 93
        1
 44
0.0
173
     0
291
     1
 45
0.0
1001
ACAD
1000
AcDbSavedByObjectVersion
1070
     0
  0
VISUALSTYLE
  5
FD
102
{ACAD_REACTORS
330
EF
102
}
330
EF
100
AcDbVisualStyle
  2
Linepattern
 70
    14
 71
     2
 72
     2
 73
     1
 90
        0
 40
-0.6
 41
-30.0
 62
     5
 63
     7
 74
     1
 91
        4
 64
     7
 65
   257
 75
     7
175
     7
 42
1.0
 92
        8
 66
     7
 43
1.0
 76
     1
 77
     6
 78
     2
 67
     7
 79
     5
170
     0
171
     0
290
     0
174
     0
 93
        1
 44
0.0
173
     0
291
     1
 45
0.0
1001
ACAD
1000
AcDbSavedByObjectVersion
1070
     0
  0
VISUALSTYLE
  5
F9
102
{ACAD_REACTORS
330
EF
102
}
330
EF
100
AcDbVisualStyle
  2
Realistic
 70
     8
 71
     2
 72
     2
 73
     1
 90
        0
 40
-0.6
 41
-30.0
 62
     5
 63
     7
 74
     1
 91
        0
 64
     7
 65
   257
 75
     1
175
     1
 42
1.0
 92
        8
 66
     8
 43
1.0
 76
     1
 77
     6
 78
     2
 67
     7
 79
     5
170
     0
171
     0
290
     0
174
     0
 93
       13
 44
0.0
173
     0
291
     0
 45
0.0
1001
ACAD
1000
AcDbSavedByObjectVersion
1070
     0
  0
VISUALSTYLE
  5
FC
102
{ACAD_REACTORS
330
EF
102
}
330
EF
100
AcDbVisualStyle
  2
Thicken
 70
    13
 71
     2
 72
     2
 73
     1
 90
        0
 40
-0.6
 41
-30.0
 62
     5
 63
     7
 74
     1
 91
        4
 64
     7
 65
   257
 75
     1
175
     1
 42
1.0
 92
       12
 66
     7
 43
1.0
 76
     1
 77
     6
 78
     2
 67
     7
 79
     5
170
     0
171
     0
290
     0
174
     0
 93
        1
 44
0.0
173
     0
291
     1
 45
0.0
1001
ACAD
1000
AcDbSavedByObjectVersion
1070
     0
  0
DICTIONARYVAR
  5
146
102
{ACAD_REACTORS
330
5E
102
}
330
5E
100
DictionaryVariables
280
     0
  1
1:1
  0
DICTIONARYVAR
  5
145
102
{ACAD_REACTORS
330
5E
102
}
330
5E
100
DictionaryVariables
280
     0
  1
STANDARD
  0
DICTIONARYVAR
  5
84
102
{ACAD_REACTORS
330
5E
102
}
330
5E
100
DictionaryVariables
280
     0
  1
STANDARD
  0
DICTIONARYVAR
  5
5F
102
{ACAD_REACTORS
330
5E
102
}
330
5E
100
DictionaryVariables
280
     0
  1
2
  0
DICTIONARYVAR
  5
63
102
{ACAD_REACTORS
330
5E
102
}
330
5E
100
DictionaryVariables
280
     0
  1
1
  0
DICTIONARYVAR
  5
466
102
{ACAD_REACTORS
330
5E
102
}
330
5E
100
DictionaryVariables
280
     0
  1
0
  0
DICTIONARYVAR
  5
464
102
{ACAD_REACTORS
330
5E
102
}
330
5E
100
DictionaryVariables
280
     0
  1
2
  0
DICTIONARYVAR
  5
463
102
{ACAD_REACTORS
330
5E
102
}
330
5E
100
DictionaryVariables
280
     0
  1
1
  0
DICTIONARYVAR
  5
26A8
102
{ACAD_REACTORS
330
5E
102
}
330
5E
100
DictionaryVariables
280
     0
  1
80.000000
  0
DICTIONARYVAR
  5
26A7
102
{ACAD_REACTORS
330
5E
102
}
330
5E
100
DictionaryVariables
280
     0
  1
5.000000
  0
DICTIONARYVAR
  5
465
102
{ACAD_REACTORS
330
5E
102
}
330
5E
100
DictionaryVariables
280
     0
  1
127
  0
DICTIONARY
  5
2225
102
{ACAD_REACTORS
330
2224
102
}
330
2224
100
AcDbDictionary
281
     1
  0
DICTIONARY
  5
223A
102
{ACAD_REACTORS
330
2239
102
}
330
2239
100
AcDbDictionary
281
     1
  0
DICTIONARY
  5
223F
102
{ACAD_REACTORS
330
223E
102
}
330
223E
100
AcDbDictionary
281
     1
  0
DICTIONARY
  5
26AD
330
D3
100
AcDbDictionary
280
     1
281
     1
  3
ACAD_XREC_ROUNDTRIP
360
26AE
  0
DICTIONARY
  5
26AF
330
D7
100
AcDbDictionary
280
     1
281
     1
  3
ACAD_XREC_ROUNDTRIP
360
26B0
  0
DICTIONARY
  5
26AA
330
22
100
AcDbDictionary
280
     1
281
     1
  3
ACAD_XREC_ROUNDTRIP
360
26AB
  0
DICTIONARY
  5
26B3
330
ED
100
AcDbDictionary
280
     1
281
     1
  3
ACAD_XREC_ROUNDTRIP
360
26B4
  0
DICTIONARY
  5
26B1
330
EC
100
AcDbDictionary
280
     1
281
     1
  3
ACAD_XREC_ROUNDTRIP
360
26B2
  0
DICTIONARY
  5
173
330
EE
100
AcDbDictionary
280
     1
281
     1
  3
ACAD_XREC_ROUNDTRIP
360
26B5
  3
BUMPTILE
360
175
  3
DIFFUSETILE
360
174
  3
OPACITYTILE
360
176
  3
REFLECTIONTILE
360
177
  0
DICTIONARY
  5
162
330
7F
100
AcDbDictionary
280
     1
281
     1
  3
ACAD_ROUNDTRIP_2008_TABLESTYLE_CELLSTYLEMAP
360
25BA
  3
ACAD_XREC_ROUNDTRIP
360
26AC
  0
XRECORD
  5
26AE
102
{ACAD_REACTORS
330
26AD
102
}
330
26AD
100
AcDbXrecord
280
     1
102
SHADEPLOT
 70
     0
102
SHADEPLOTRESLEVEL
 70
     2
102
SHADEPLOTCUSTOMDPI
 70
   300
  0
XRECORD
  5
26B0
102
{ACAD_REACTORS
330
26AF
102
}
330
26AF
100
AcDbXrecord
280
     1
102
SHADEPLOT
 70
     0
102
SHADEPLOTRESLEVEL
 70
     2
102
SHADEPLOTCUSTOMDPI
 70
   300
  0
XRECORD
  5
26AB
102
{ACAD_REACTORS
330
26AA
102
}
330
26AA
100
AcDbXrecord
280
     1
102
SHADEPLOT
 70
     0
102
SHADEPLOTRESLEVEL
 70
     2
102
SHADEPLOTCUSTOMDPI
 70
   300
  0
XRECORD
  5
26B4
102
{ACAD_REACTORS
330
26B3
102
}
330
26B3
100
AcDbXrecord
280
     1
102
MATERIAL
148
0.0
149
0.0
149
0.0
 93
        0
 94
       63
282
     0
 72
     1
 77
     1
171
     1
175
     1
179
     1
273
     0
  0
XRECORD
  5
26B2
102
{ACAD_REACTORS
330
26B1
102
}
330
26B1
100
AcDbXrecord
280
     1
102
MATERIAL
148
0.0
149
0.0
149
0.0
 93
        0
 94
       63
282
     0
 72
     1
 77
     1
171
     1
175
     1
179
     1
273
     0
  0
XRECORD
  5
26B5
102
{ACAD_REACTORS
330
173
102
}
330
173
100
AcDbXrecord
280
     1
102
MATERIAL
148
0.0
149
0.0
149
0.0
 93
        0
 94
       63
282
     0
 72
     1
 77
     1
171
     1
175
     1
179
     1
273
     0
  0
XRECORD
  5
175
102
{ACAD_REACTORS
330
173
102
}
330
173
100
AcDbXrecord
280
     1
270
     1
271
     1
  0
XRECORD
  5
174
102
{ACAD_REACTORS
330
173
102
}
330
173
100
AcDbXrecord
280
     1
270
     1
271
     1
  0
XRECORD
  5
176
102
{ACAD_REACTORS
330
173
102
}
330
173
100
AcDbXrecord
280
     1
270
     1
271
     1
  0
XRECORD
  5
177
102
{ACAD_REACTORS
330
173
102
}
330
173
100
AcDbXrecord
280
     1
270
     1
271
     1
  0
ACAD_PROXY_OBJECT
  5
25BA
102
{ACAD_REACTORS
330
162
102
}
330
162
100
AcDbProxyObject
 90
      499
 91
      509
 95
       23
 70
     0
 93
     5304
310
40D054060020000020000003200101A000080002A5058000000C10000000000000006101010000000000003E0FC000000000000F83F0000000000003E0FC000000000000F83F000000000000049000000000000001240419019018000000C1003FBFFFFFE0000000000003C8FD029018000000C1003FBFFFFFE00000000000
310
03C8FD049018000000C1003FBFFFFFE0000000000003C8FD089018000000C1003FBFFFFFE0000000000003C8FD109018000000C1003FBFFFFFE0000000000003C8FD209018000000C1003FBFFFFFE0000000000003C8FD01405075F5449544C450041501A8000000C800406800020000A94160000003040000000000000012
310
40404000000000000F83F0000000000003E0FC000000000000F83F0000000000003E0FC0000000000001240000000000000049010640640600000030400FEFFFFFF8000000000000F23F40A40600000030400FEFFFFFF8000000000000F23F41240600000030400FEFFFFFF8000000000000F23F42240600000030400FEFFF
310
FFF8000000000000F23F44240600000030400FEFFFFFF8000000000000F23F48240600000030400FEFFFFFF8000000000000F23F409014217D2115051115480105406A0000003200101A000080002A5028000000C10000000000000004901010000000000003E0FC000000000000F83F0000000000003E0FC000000000000F
310
83F000000000000049000000000000001240419019018000000C1003FBFFFFFE0000000000003C8FD029018000000C1003FBFFFFFE0000000000003C8FD049018000000C1003FBFFFFFE0000000000003C8FD089018000000C1003FBFFFFFE0000000000003C8FD109018000000C1003FBFFFFFE0000000000003C8FD20901
310
8000000C1003FBFFFFFE0000000000003C8FD03409065F444154410000
340
11
340
14
340
14
340
14
340
14
340
14
340
14
340
11
340
14
340
14
340
14
340
14
340
14
340
14
340
11
340
14
340
14
340
14
340
14
340
14
340
14
 94
        0
1001
ACAD
1000
AcRTDxfName
1000
CELLSTYLEMAP
1000
AcRTDxfName
1000
CELLSTYLEMAP
  0
XRECORD
  5
26AC
102
{ACAD_REACTORS
330
162
102
}
330
162
100
AcDbXrecord
280
     1
102
ACAD_ROUNDTRIP_PRE2007_TABLESTYLE
 90
      512
 91
        0
  1

 92
      512
 93
        0
  2

 94
      512
 95
        0
  3

  0
ENDSEC
  0
EOF
