  0
SECTION
  2
HEADER
  9
$ACADVER
  1
AC1015
  9
$ACADMAINTVER
 70
    20
  9
$DWGCODEPAGE
  3
ANSI_1250
  9
$INSBASE
 10
0.0
 20
0.0
 30
0.0
  9
$EXTMIN
 10
0.1837615874710536
 20
0.3106013154524589
 30
-0.0000000000112498
  9
$EXTMAX
 10
334.5457367947312
 20
297.3196628232423
 30
0.0000000000002956
  9
$LIMMIN
 10
0.1888598094933513
 20
0.315129994699646
  9
$LIMMAX
 10
334.5406339015833
 20
297.3151299946997
  9
$ORTHOMODE
 70
     1
  9
$REGENMODE
 70
     1
  9
$FILLMODE
 70
     1
  9
$QTEXTMODE
 70
     0
  9
$MIRRTEXT
 70
     0
  9
$LTSCALE
 40
1.0
  9
$ATTMODE
 70
     2
  9
$TEXTSIZE
 40
5.0
  9
$TRACEWID
 40
1.0
  9
$TEXTSTYLE
  7
Solbet_5
  9
$CLAYER
  8
SOLBET_Bloczki
  9
$CELTYPE
  6
ByLayer
  9
$CECOLOR
 62
   256
  9
$CELTSCALE
 40
1.0
  9
$DISPSILH
 70
     0
  9
$DIMSCALE
 40
1.0
  9
$DIMASZ
 40
2.5
  9
$DIMEXO
 40
0.0
  9
$DIMDLI
 40
3.75
  9
$DIMRND
 40
0.0
  9
$DIMDLE
 40
0.0
  9
$DIMEXE
 40
1.25
  9
$DIMTP
 40
0.0
  9
$DIMTM
 40
0.0
  9
$DIMTXT
 40
2.5
  9
$DIMCEN
 40
2.5
  9
$DIMTSZ
 40
0.0
  9
$DIMTOL
 70
     0
  9
$DIMLIM
 70
     0
  9
$DIMTIH
 70
     0
  9
$DIMTOH
 70
     0
  9
$DIMSE1
 70
     0
  9
$DIMSE2
 70
     0
  9
$DIMTAD
 70
     1
  9
$DIMZIN
 70
     8
  9
$DIMBLK
  1

  9
$DIMASO
 70
     1
  9
$DIMSHO
 70
     1
  9
$DIMPOST
  1

  9
$DIMAPOST
  1

  9
$DIMALT
 70
     0
  9
$DIMALTD
 70
     3
  9
$DIMALTF
 40
0.03937007874016
  9
$DIMLFAC
 40
1.0
  9
$DIMTOFL
 70
     1
  9
$DIMTVP
 40
0.0
  9
$DIMTIX
 70
     0
  9
$DIMSOXD
 70
     0
  9
$DIMSAH
 70
     0
  9
$DIMBLK1
  1

  9
$DIMBLK2
  1

  9
$DIMSTYLE
  2
Solbet
  9
$DIMCLRD
 70
     0
  9
$DIMCLRE
 70
     0
  9
$DIMCLRT
 70
     0
  9
$DIMTFAC
 40
1.0
  9
$DIMGAP
 40
0.625
  9
$DIMJUST
 70
     0
  9
$DIMSD1
 70
     0
  9
$DIMSD2
 70
     0
  9
$DIMTOLJ
 70
     0
  9
$DIMTZIN
 70
     8
  9
$DIMALTZ
 70
     0
  9
$DIMALTTZ
 70
     0
  9
$DIMUPT
 70
     0
  9
$DIMDEC
 70
     2
  9
$DIMTDEC
 70
     2
  9
$DIMALTU
 70
     2
  9
$DIMALTTD
 70
     3
  9
$DIMTXSTY
  7
Solbet_2_5
  9
$DIMAUNIT
 70
     0
  9
$DIMADEC
 70
     0
  9
$DIMALTRND
 40
0.0
  9
$DIMAZIN
 70
     0
  9
$DIMDSEP
 70
    44
  9
$DIMATFIT
 70
     3
  9
$DIMFRAC
 70
     0
  9
$DIMLDRBLK
  1

  9
$DIMLUNIT
 70
     2
  9
$DIMLWD
 70
    -2
  9
$DIMLWE
 70
    -2
  9
$DIMTMOVE
 70
     0
  9
$LUNITS
 70
     2
  9
$LUPREC
 70
     4
  9
$SKETCHINC
 40
1.0
  9
$FILLETRAD
 40
0.0
  9
$AUNITS
 70
     0
  9
$AUPREC
 70
     0
  9
$MENU
  1
.
  9
$ELEVATION
 40
0.0
  9
$PELEVATION
 40
0.0
  9
$THICKNESS
 40
0.0
  9
$LIMCHECK
 70
     0
  9
$CHAMFERA
 40
0.0
  9
$CHAMFERB
 40
0.0
  9
$CHAMFERC
 40
0.0
  9
$CHAMFERD
 40
0.0
  9
$SKPOLY
 70
     0
  9
$TDCREATE
 40
2454690.075573148
  9
$TDUCREATE
 40
2454690.033906482
  9
$TDUPDATE
 40
2454848.878725127
  9
$TDUUPDATE
 40
2454848.837058461
  9
$TDINDWG
 40
0.4542119560
  9
$TDUSRTIMER
 40
0.4542074306
  9
$USRTIMER
 70
     1
  9
$ANGBASE
 50
0.0
  9
$ANGDIR
 70
     0
  9
$PDMODE
 70
     0
  9
$PDSIZE
 40
0.0
  9
$PLINEWID
 40
0.0
  9
$SPLFRAME
 70
     0
  9
$SPLINETYPE
 70
     6
  9
$SPLINESEGS
 70
     8
  9
$HANDSEED
  5
2770
  9
$SURFTAB1
 70
     6
  9
$SURFTAB2
 70
     6
  9
$SURFTYPE
 70
     6
  9
$SURFU
 70
     6
  9
$SURFV
 70
     6
  9
$UCSBASE
  2

  9
$UCSNAME
  2

  9
$UCSORG
 10
0.0
 20
0.0
 30
0.0
  9
$UCSXDIR
 10
1.0
 20
0.0
 30
0.0
  9
$UCSYDIR
 10
0.0
 20
1.0
 30
0.0
  9
$UCSORTHOREF
  2

  9
$UCSORTHOVIEW
 70
     0
  9
$UCSORGTOP
 10
0.0
 20
0.0
 30
0.0
  9
$UCSORGBOTTOM
 10
0.0
 20
0.0
 30
0.0
  9
$UCSORGLEFT
 10
0.0
 20
0.0
 30
0.0
  9
$UCSORGRIGHT
 10
0.0
 20
0.0
 30
0.0
  9
$UCSORGFRONT
 10
0.0
 20
0.0
 30
0.0
  9
$UCSORGBACK
 10
0.0
 20
0.0
 30
0.0
  9
$PUCSBASE
  2

  9
$PUCSNAME
  2

  9
$PUCSORG
 10
0.0
 20
0.0
 30
0.0
  9
$PUCSXDIR
 10
1.0
 20
0.0
 30
0.0
  9
$PUCSYDIR
 10
0.0
 20
1.0
 30
0.0
  9
$PUCSORTHOREF
  2

  9
$PUCSORTHOVIEW
 70
     0
  9
$PUCSORGTOP
 10
0.0
 20
0.0
 30
0.0
  9
$PUCSORGBOTTOM
 10
0.0
 20
0.0
 30
0.0
  9
$PUCSORGLEFT
 10
0.0
 20
0.0
 30
0.0
  9
$PUCSORGRIGHT
 10
0.0
 20
0.0
 30
0.0
  9
$PUCSORGFRONT
 10
0.0
 20
0.0
 30
0.0
  9
$PUCSORGBACK
 10
0.0
 20
0.0
 30
0.0
  9
$USERI1
 70
     0
  9
$USERI2
 70
     0
  9
$USERI3
 70
     0
  9
$USERI4
 70
     0
  9
$USERI5
 70
     0
  9
$USERR1
 40
0.0
  9
$USERR2
 40
0.0
  9
$USERR3
 40
0.0
  9
$USERR4
 40
0.0
  9
$USERR5
 40
0.0
  9
$WORLDVIEW
 70
     1
  9
$SHADEDGE
 70
     3
  9
$SHADEDIF
 70
    70
  9
$TILEMODE
 70
     1
  9
$MAXACTVP
 70
    64
  9
$PINSBASE
 10
0.0
 20
0.0
 30
0.0
  9
$PLIMCHECK
 70
     0
  9
$PEXTMIN
 10
0.0
 20
0.0
 30
0.0
  9
$PEXTMAX
 10
0.0
 20
0.0
 30
0.0
  9
$PLIMMIN
 10
0.0
 20
0.0
  9
$PLIMMAX
 10
12.0
 20
9.0
  9
$UNITMODE
 70
     0
  9
$VISRETAIN
 70
     1
  9
$PLINEGEN
 70
     0
  9
$PSLTSCALE
 70
     1
  9
$TREEDEPTH
 70
  3020
  9
$CMLSTYLE
  2
SOLBET_IZOLACJA
  9
$CMLJUST
 70
     0
  9
$CMLSCALE
 40
20.0
  9
$PROXYGRAPHICS
 70
     1
  9
$MEASUREMENT
 70
     1
  9
$CELWEIGHT
370
    -1
  9
$ENDCAPS
280
     0
  9
$JOINSTYLE
280
     0
  9
$LWDISPLAY
290
     1
  9
$INSUNITS
 70
     4
  9
$HYPERLINKBASE
  1

  9
$STYLESHEET
  1

  9
$XEDIT
290
     1
  9
$CEPSNTYPE
380
     0
  9
$PSTYLEMODE
290
     1
  9
$FINGERPRINTGUID
  2
{6B12AB33-8E39-428E-8E85-461C8D99A3CB}
  9
$VERSIONGUID
  2
{AFCCB4D6-0163-4751-A81E-F3C7A1D740E9}
  9
$EXTNAMES
290
     1
  9
$PSVPSCALE
 40
0.0
  9
$OLESTARTUP
290
     0
  0
ENDSEC
  0
SECTION
  2
CLASSES
  0
CLASS
  1
ACDBDICTIONARYWDFLT
  2
AcDbDictionaryWithDefault
  3
ObjectDBX Classes
 90
        0
280
     0
281
     0
  0
CLASS
  1
ACDBPLACEHOLDER
  2
AcDbPlaceHolder
  3
ObjectDBX Classes
 90
        0
280
     0
281
     0
  0
CLASS
  1
LAYOUT
  2
AcDbLayout
  3
ObjectDBX Classes
 90
        0
280
     0
281
     0
  0
CLASS
  1
DICTIONARYVAR
  2
AcDbDictionaryVar
  3
ObjectDBX Classes
 90
        0
280
     0
281
     0
  0
CLASS
  1
TABLESTYLE
  2
AcDbTableStyle
  3
ObjectDBX Classes
 90
     4095
280
     0
281
     0
  0
CLASS
  1
MATERIAL
  2
AcDbMaterial
  3
ObjectDBX Classes
 90
     1024
280
     0
281
     0
  0
CLASS
  1
VISUALSTYLE
  2
AcDbVisualStyle
  3
ObjectDBX Classes
 90
     4095
280
     0
281
     0
  0
CLASS
  1
SCALE
  2
AcDbScale
  3
ObjectDBX Classes
 90
     1153
280
     0
281
     0
  0
CLASS
  1
MLEADERSTYLE
  2
AcDbMLeaderStyle
  3
ACDB_MLEADERSTYLE_CLASS
 90
     4095
280
     0
281
     0
  0
CLASS
  1
CELLSTYLEMAP
  2
AcDbCellStyleMap
  3
ObjectDBX Classes
 90
     1152
280
     0
281
     0
  0
CLASS
  1
DIMASSOC
  2
AcDbDimAssoc
  3
"AcDbDimAssoc|Product Desc:     AcDim ARX App For Dimension|Company:          Autodesk, Inc.|WEB Address:      www.autodesk.com"
 90
    32768
280
     0
281
     0
  0
CLASS
  1
SORTENTSTABLE
  2
AcDbSortentsTable
  3
ObjectDBX Classes
 90
        0
280
     0
281
     0
  0
CLASS
  1
MULTILEADER
  2
AcDbMLeader
  3
ACDB_MLEADER_CLASS
 90
    33793
280
     0
281
     1
  0
CLASS
  1
ACDB_MTEXTOBJECTCONTEXTDATA_CLASS
  2
AcDbMTextObjectContextData
  3
ObjectDBX Classes
 90
    33921
280
     0
281
     0
  0
ENDSEC
  0
SECTION
  2
TABLES
  0
TABLE
  2
VPORT
  5
8
102
{ACAD_XDICTIONARY
360
443
102
}
330
0
100
AcDbSymbolTable
 70
     1
  0
VPORT
  5
EA
330
8
100
AcDbSymbolTableRecord
100
AcDbViewportTableRecord
  2
*Active
 70
     0
 10
0.0
 20
0.0
 11
1.0
 21
1.0
 12
167.3647491911011
 22
148.8151320693474
 13
0.0
 23
0.0
 14
10.0
 24
10.0
 15
10.0
 25
10.0
 16
0.0
 26
0.0
 36
1.0
 17
0.0
 27
0.0
 37
0.0
 40
300.3091621912098
 41
1.74582560296846
 42
50.0
 43
0.0
 44
0.0
 50
0.0
 51
0.0
 71
     0
 72
  1000
 73
     1
 74
     3
 75
     0
 76
     0
 77
     0
 78
     0
281
     0
 65
     1
110
0.0
120
0.0
130
0.0
111
1.0
121
0.0
131
0.0
112
0.0
122
1.0
132
0.0
 79
     0
146
0.0
  0
ENDTAB
  0
TABLE
  2
LTYPE
  5
5
330
0
100
AcDbSymbolTable
 70
     2
  0
LTYPE
  5
14
330
5
100
AcDbSymbolTableRecord
100
AcDbLinetypeTableRecord
  2
ByBlock
 70
     0
  3

 72
    65
 73
     0
 40
0.0
  0
LTYPE
  5
15
330
5
100
AcDbSymbolTableRecord
100
AcDbLinetypeTableRecord
  2
ByLayer
 70
     0
  3

 72
    65
 73
     0
 40
0.0
  0
LTYPE
  5
16
330
5
100
AcDbSymbolTableRecord
100
AcDbLinetypeTableRecord
  2
Continuous
 70
     0
  3
Solid line
 72
    65
 73
     0
 40
0.0
  0
LTYPE
  5
982
330
5
100
AcDbSymbolTableRecord
100
AcDbLinetypeTableRecord
  2
BATTING
 70
     0
  3
Batting SSSSSSSSSSSSSSSSSSSSSSSSSSSSSSSSSSSSSSSSSSSSSSS
 72
    65
 73
     4
 40
10.16254
 49
0.00254
 74
     0
 49
-2.54
 74
     4
 75
   134
340
7E7
 46
2.54
 50
0.0
 44
-2.54
 45
0.0
 49
-5.08
 74
     4
 75
   134
340
7E7
 46
2.54
 50
180.0
 44
2.54
 45
0.0
 49
-2.54
 74
     0
  0
ENDTAB
  0
TABLE
  2
LAYER
  5
2
102
{ACAD_XDICTIONARY
360
3E5
102
}
330
0
100
AcDbSymbolTable
 70
    12
  0
LAYER
  5
10
102
{ACAD_XDICTIONARY
360
13C
102
}
330
2
100
AcDbSymbolTableRecord
100
AcDbLayerTableRecord
  2
0
 70
     0
 62
     7
  6
Continuous
370
    -3
390
F
  0
LAYER
  5
2BB
330
2
100
AcDbSymbolTableRecord
100
AcDbLayerTableRecord
  2
DEFPOINTS
 70
     0
 62
     7
  6
Continuous
290
     0
370
    -3
390
F
  0
LAYER
  5
3DD
102
{ACAD_XDICTIONARY
360
403
102
}
330
2
100
AcDbSymbolTableRecord
100
AcDbLayerTableRecord
  2
SOLBET_Bloczki
 70
     0
 62
   140
  6
Continuous
370
    -3
390
F
1001
AcAecLayerStandard
1000

1000

  0
LAYER
  5
3DF
102
{ACAD_XDICTIONARY
360
405
102
}
330
2
100
AcDbSymbolTableRecord
100
AcDbLayerTableRecord
  2
SOLBET_Wymiary_Opisy
 70
     0
 62
     1
  6
Continuous
370
    -3
390
F
1001
AcAecLayerStandard
1000

1000

  0
LAYER
  5
3E0
102
{ACAD_XDICTIONARY
360
407
102
}
330
2
100
AcDbSymbolTableRecord
100
AcDbLayerTableRecord
  2
SOLBET_Beton
 70
     0
 62
     9
  6
Continuous
370
    -3
390
F
1001
AcAecLayerStandard
1000

1000

  0
LAYER
  5
3E1
102
{ACAD_XDICTIONARY
360
409
102
}
330
2
100
AcDbSymbolTableRecord
100
AcDbLayerTableRecord
  2
SOLBET_Izolacja
 70
     0
 62
    40
  6
Continuous
370
    -3
390
F
1001
AcAecLayerStandard
1000

1000

  0
LAYER
  5
3E2
102
{ACAD_XDICTIONARY
360
40B
102
}
330
2
100
AcDbSymbolTableRecord
100
AcDbLayerTableRecord
  2
SOLBET_Zbrojenie_Konstrukcja
 70
     0
 62
     7
  6
Continuous
370
    -3
390
F
1001
AcAecLayerStandard
1000

1000

  0
LAYER
  5
3E4
102
{ACAD_XDICTIONARY
360
40F
102
}
330
2
100
AcDbSymbolTableRecord
100
AcDbLayerTableRecord
  2
SOLBET_Tynki_Posadzki
 70
     0
 62
     3
  6
Continuous
370
    -3
390
F
1001
AcAecLayerStandard
1000

1000

  0
LAYER
  5
3E8
102
{ACAD_XDICTIONARY
360
411
102
}
330
2
100
AcDbSymbolTableRecord
100
AcDbLayerTableRecord
  2
SOLBET_Ramka_05
 70
     0
 62
     2
  6
Continuous
370
    -3
390
F
1001
AcAecLayerStandard
1000

1000

  0
LAYER
  5
472
330
2
100
AcDbSymbolTableRecord
100
AcDbLayerTableRecord
  2
SOLBET_Zaprawy
 70
     0
 62
     4
  6
Continuous
370
    -3
390
F
1001
AcAecLayerStandard
1000

1000

  0
LAYER
  5
4E2
330
2
100
AcDbSymbolTableRecord
100
AcDbLayerTableRecord
  2
SOLBET_Emulsje_Folie
 70
     0
 62
     6
  6
Continuous
370
    -3
390
F
1001
AcAecLayerStandard
1000

1000

  0
LAYER
  5
2610
102
{ACAD_XDICTIONARY
360
2611
102
}
330
2
100
AcDbSymbolTableRecord
100
AcDbLayerTableRecord
  2
SOLBET_Wymiary_Opisy @ 1
 70
     0
 62
     1
  6
Continuous
370
    -3
390
F
1001
AcAecLayerStandard
1000

1000

1001
AcadAnnotativeDecomposition
1000
AnnotativeData
1002
{
1070
     1
1070
     1
1002
}
  0
ENDTAB
  0
TABLE
  2
STYLE
  5
3
330
0
100
AcDbSymbolTable
 70
     5
  0
STYLE
  5
11
330
3
100
AcDbSymbolTableRecord
100
AcDbTextStyleTableRecord
  2
Standard
 70
     0
 40
0.0
 41
1.0
 50
0.0
 71
     0
 42
2.5
  3
txt.shx
  4

  0
STYLE
  5
7D7
330
3
100
AcDbSymbolTableRecord
100
AcDbTextStyleTableRecord
  2
Solbet_5
 70
     0
 40
5.0
 41
1.0
 50
0.0
 71
     0
 42
5.0
  3
isocpeur.ttf
  4

1001
ACAD
1000
ISOCPEUR
1071
       34
  0
STYLE
  5
7D9
330
3
100
AcDbSymbolTableRecord
100
AcDbTextStyleTableRecord
  2
Solbet_2_5
 70
     0
 40
2.5
 41
1.0
 50
0.0
 71
     0
 42
2.5
  3
isocpeur.ttf
  4

1001
ACAD
1000
ISOCPEUR
1071
       34
  0
STYLE
  5
7E7
330
3
100
AcDbSymbolTableRecord
100
AcDbTextStyleTableRecord
  2

 70
     1
 40
0.0
 41
1.0
 50
0.0
 71
     0
 42
2.5
  3
ltypeshp.shx
  4

  0
STYLE
  5
227C
330
3
100
AcDbSymbolTableRecord
100
AcDbTextStyleTableRecord
  2
Solbet_1
 70
     0
 40
1.0
 41
1.0
 50
0.0
 71
     0
 42
2.5
  3
isocpeur.ttf
  4

1001
ACAD
1000
ISOCPEUR
1071
       34
  0
ENDTAB
  0
TABLE
  2
VIEW
  5
6
330
0
100
AcDbSymbolTable
 70
     0
  0
ENDTAB
  0
TABLE
  2
UCS
  5
7
330
0
100
AcDbSymbolTable
 70
     0
  0
ENDTAB
  0
TABLE
  2
APPID
  5
9
330
0
100
AcDbSymbolTable
 70
    13
  0
APPID
  5
12
330
9
100
AcDbSymbolTableRecord
100
AcDbRegAppTableRecord
  2
ACAD
 70
     0
  0
APPID
  5
9E
330
9
100
AcDbSymbolTableRecord
100
AcDbRegAppTableRecord
  2
ACAD_PSEXT
 70
     0
  0
APPID
  5
133
330
9
100
AcDbSymbolTableRecord
100
AcDbRegAppTableRecord
  2
AcadAnnoPO
 70
     0
  0
APPID
  5
134
330
9
100
AcDbSymbolTableRecord
100
AcDbRegAppTableRecord
  2
AcadAnnotative
 70
     0
  0
APPID
  5
135
330
9
100
AcDbSymbolTableRecord
100
AcDbRegAppTableRecord
  2
ACAD_DSTYLE_DIMJAG
 70
     0
  0
APPID
  5
136
330
9
100
AcDbSymbolTableRecord
100
AcDbRegAppTableRecord
  2
ACAD_DSTYLE_DIMTALN
 70
     0
  0
APPID
  5
165
330
9
100
AcDbSymbolTableRecord
100
AcDbRegAppTableRecord
  2
ACAD_MLEADERVER
 70
     0
  0
APPID
  5
2C4
330
9
100
AcDbSymbolTableRecord
100
AcDbRegAppTableRecord
  2
ASO_SCHRAFF
 70
     0
  0
APPID
  5
3DE
330
9
100
AcDbSymbolTableRecord
100
AcDbRegAppTableRecord
  2
AcAecLayerStandard
 70
     0
  0
APPID
  5
7DE
330
9
100
AcDbSymbolTableRecord
100
AcDbRegAppTableRecord
  2
ACAD_EXEMPT_FROM_CAD_STANDARDS
 70
     0
  0
APPID
  5
948
330
9
100
AcDbSymbolTableRecord
100
AcDbRegAppTableRecord
  2
ACAD_DSTYLE_DIMBREAK
 70
     0
  0
APPID
  5
1D0A
330
9
100
AcDbSymbolTableRecord
100
AcDbRegAppTableRecord
  2
AcadAnnotativeDecomposition
 70
     0
  0
APPID
  5
227D
330
9
100
AcDbSymbolTableRecord
100
AcDbRegAppTableRecord
  2
AcDbAttr
 70
     0
  0
ENDTAB
  0
TABLE
  2
DIMSTYLE
  5
A
330
0
100
AcDbSymbolTable
 70
     2
100
AcDbDimStyleTable
 71
     1
340
949
  0
DIMSTYLE
105
949
330
A
100
AcDbSymbolTableRecord
100
AcDbDimStyleTableRecord
  2
Solbet
 70
     0
 41
2.5
 42
0.0
 43
3.75
 44
1.25
 73
     0
 74
     0
 77
     1
 78
     8
140
2.5
141
2.5
143
0.03937007874016
147
0.625
171
     3
172
     1
271
     2
272
     2
274
     3
278
    44
283
     0
284
     8
340
7D9
1001
ACAD_DSTYLE_DIMBREAK
1070
   391
1040
3.75
1001
ACAD_DSTYLE_DIMJAG
1070
   388
1040
1.5
1001
ACAD_DSTYLE_DIMTALN
1070
   392
1070
     0
  0
DIMSTYLE
105
954
330
A
100
AcDbSymbolTableRecord
100
AcDbDimStyleTableRecord
  2
Solbet$7
 70
     0
 41
2.5
 42
0.0
 43
3.75
 44
1.25
 73
     0
 74
     0
 77
     1
 78
     8
140
2.5
141
2.5
143
0.03937007874016
147
0.625
171
     3
172
     1
271
     2
272
     2
274
     3
278
    44
283
     0
284
     8
340
7D9
341
958
1001
ACAD_DSTYLE_DIMBREAK
1070
   391
1040
3.75
1001
ACAD_DSTYLE_DIMJAG
1070
   388
1040
1.5
1001
ACAD_DSTYLE_DIMTALN
1070
   392
1070
     0
  0
ENDTAB
  0
TABLE
  2
BLOCK_RECORD
  5
1
330
0
100
AcDbSymbolTable
 70
    11
  0
BLOCK_RECORD
  5
1F
102
{ACAD_XDICTIONARY
360
4A3
102
}
330
1
100
AcDbSymbolTableRecord
100
AcDbBlockTableRecord
  2
*Model_Space
340
22
  0
BLOCK_RECORD
  5
D2
330
1
100
AcDbSymbolTableRecord
100
AcDbBlockTableRecord
  2
*Paper_Space
340
D3
  0
BLOCK_RECORD
  5
D6
330
1
100
AcDbSymbolTableRecord
100
AcDbBlockTableRecord
  2
*Paper_Space0
340
D7
  0
BLOCK_RECORD
  5
958
330
1
100
AcDbSymbolTableRecord
100
AcDbBlockTableRecord
  2
_DotSmall
340
0
  0
BLOCK_RECORD
  5
1EF2
330
1
100
AcDbSymbolTableRecord
100
AcDbBlockTableRecord
  2
_None
340
0
  0
BLOCK_RECORD
  5
228E
102
{ACAD_XDICTIONARY
360
229A
102
}
330
1
100
AcDbSymbolTableRecord
100
AcDbBlockTableRecord
  2
SOLBET_Bloczek_Optimal_420x240x590_P+W_PRA
340
0
1001
ACAD
1000
DesignCenter Data
1002
{
1070
     1
1070
     4
1002
}
  0
BLOCK_RECORD
  5
22AD
102
{ACAD_XDICTIONARY
360
22B7
102
}
330
1
100
AcDbSymbolTableRecord
100
AcDbBlockTableRecord
  2
SOLBET_Plytka_80x240x590_brak_PRA
340
0
1001
ACAD
1000
DesignCenter Data
1002
{
1070
     1
1070
     4
1002
}
  0
BLOCK_RECORD
  5
22BC
102
{ACAD_XDICTIONARY
360
22CA
102
}
330
1
100
AcDbSymbolTableRecord
100
AcDbBlockTableRecord
  2
SOLBET_Ksztaltka_U_420x240x500_PRA
340
0
1001
ACAD
1000
DesignCenter Data
1002
{
1070
     1
1070
     4
1002
}
  0
BLOCK_RECORD
  5
2495
102
{ACAD_XDICTIONARY
360
24A1
102
}
330
1
100
AcDbSymbolTableRecord
100
AcDbBlockTableRecord
  2
SOLBET_Bloczek_Ideal_420x240x590_P+W_PRA
340
0
1001
ACAD
1000
DesignCenter Data
1002
{
1070
     1
1070
     4
1002
}
  0
BLOCK_RECORD
  5
2654
102
{ACAD_XDICTIONARY
360
2662
102
}
330
1
100
AcDbSymbolTableRecord
100
AcDbBlockTableRecord
  2
SOLBET_Ksztaltka_U_420x240x500_KG400_PRA
340
0
102
{BLKREFS
331
2666
102
}
1001
ACAD
1000
DesignCenter Data
1002
{
1070
     1
1070
     4
1002
}
  0
BLOCK_RECORD
  5
269F
102
{ACAD_XDICTIONARY
360
26A9
102
}
330
1
100
AcDbSymbolTableRecord
100
AcDbBlockTableRecord
  2
SOLBET_Plytka_80x240x590_KG600_PRA
340
0
102
{BLKREFS
331
26AD
331
26AE
102
}
1001
ACAD
1000
DesignCenter Data
1002
{
1070
     1
1070
     4
1002
}
  0
BLOCK_RECORD
  5
26AF
102
{ACAD_XDICTIONARY
360
26BB
102
}
330
1
100
AcDbSymbolTableRecord
100
AcDbBlockTableRecord
  2
SOLBET_Bloczek_Ideal_420x240x590_P+W_KG400_PRA
340
0
102
{BLKREFS
331
26BF
331
26C0
331
26C1
331
26C2
331
26C3
102
}
1001
ACAD
1000
DesignCenter Data
1002
{
1070
     1
1070
     4
1002
}
  0
ENDTAB
  0
ENDSEC
  0
SECTION
  2
BLOCKS
  0
BLOCK
  5
20
330
1F
100
AcDbEntity
  8
0
100
AcDbBlockBegin
  2
*Model_Space
 70
     0
 10
0.0
 20
0.0
 30
0.0
  3
*Model_Space
  1

  0
ENDBLK
  5
21
330
1F
100
AcDbEntity
  8
0
100
AcDbBlockEnd
  0
BLOCK
  5
D4
330
D2
100
AcDbEntity
 67
     1
  8
0
100
AcDbBlockBegin
  2
*Paper_Space
 70
     0
 10
0.0
 20
0.0
 30
0.0
  3
*Paper_Space
  1

  0
ENDBLK
  5
D5
330
D2
100
AcDbEntity
 67
     1
  8
0
100
AcDbBlockEnd
  0
BLOCK
  5
D8
330
D6
100
AcDbEntity
 67
     1
  8
0
100
AcDbBlockBegin
  2
*Paper_Space0
 70
     0
 10
0.0
 20
0.0
 30
0.0
  3
*Paper_Space0
  1

  0
ENDBLK
  5
D9
330
D6
100
AcDbEntity
 67
     1
  8
0
100
AcDbBlockEnd
  0
BLOCK
  5
95A
330
958
100
AcDbEntity
  8
0
100
AcDbBlockBegin
  2
_DotSmall
 70
     0
 10
0.0
 20
0.0
 30
0.0
  3
_DotSmall
  1

  0
LWPOLYLINE
  5
959
330
958
100
AcDbEntity
  8
0
  6
ByBlock
 62
     0
100
AcDbPolyline
 90
        2
 70
     1
 43
0.5
 10
-0.0625
 20
0.0
 42
1.0
 10
0.0625
 20
0.0
 42
1.0
  0
ENDBLK
  5
95B
330
958
100
AcDbEntity
  8
0
100
AcDbBlockEnd
  0
BLOCK
  5
1EF3
330
1EF2
100
AcDbEntity
  8
0
100
AcDbBlockBegin
  2
_None
 70
     0
 10
0.0
 20
0.0
 30
0.0
  3
_None
  1

  0
ENDBLK
  5
1EF4
330
1EF2
100
AcDbEntity
  8
0
100
AcDbBlockEnd
  0
BLOCK
  5
229C
330
228E
100
AcDbEntity
  8
0
100
AcDbBlockBegin
  2
SOLBET_Bloczek_Optimal_420x240x590_P+W_PRA
 70
     2
 10
0.0
 20
0.0
 30
0.0
  3
SOLBET_Bloczek_Optimal_420x240x590_P+W_PRA
  1

  0
ATTDEF
  5
228F
330
228E
100
AcDbEntity
  8
SOLBET_Wymiary_Opisy
100
AcDbText
 10
-0.0000000703746536
 20
6.303237281370451
 30
0.0
 40
0.9913121336814832
  1
420x240x590
  7
Solbet_1
100
AcDbAttributeDefinition
  3

  2
WYMIARY
 70
     3
1001
AcDbAttr
1070
     0
1070
     1
  0
ATTDEF
  5
2290
330
228E
100
AcDbEntity
  8
SOLBET_Wymiary_Opisy
100
AcDbText
 10
-0.0000000703746536
 20
4.790717873654354
 30
0.0
 40
0.9913121336814832
  1
400
  7
Solbet_1
100
AcDbAttributeDefinition
  3

  2
KLASA_GĘSTOŚCI
 70
     9
1001
AcDbAttr
1070
     0
1070
     1
  0
ATTDEF
  5
2291
330
228E
100
AcDbEntity
  8
SOLBET_Wymiary_Opisy
100
AcDbText
 10
-0.0000000703746536
 20
3.269569038442127
 30
0.0
 40
0.9913121336814832
  1
Pióra+Wpusty
  7
Solbet_1
100
AcDbAttributeDefinition
  3

  2
PROFILOWANIE
 70
     3
1001
AcDbAttr
1070
     0
1070
     1
  0
ATTDEF
  5
2292
330
228E
100
AcDbEntity
  8
SOLBET_Wymiary_Opisy
100
AcDbText
 10
-0.0000000703746536
 20
0.2448646291013483
 30
0.0
 40
0.9913121336814832
  1
SOLBET
  7
Solbet_1
100
AcDbAttributeDefinition
  3

  2
FIRMA
 70
     3
1001
AcDbAttr
1070
     0
1070
     1
  0
ATTDEF
  5
2293
330
228E
100
AcDbEntity
  8
SOLBET_Wymiary_Opisy
100
AcDbText
 10
-0.0000000703746536
 20
9.333547279718283
 30
0.0
 40
0.9913121336814832
  1
Bloczek
  7
Solbet_1
100
AcDbAttributeDefinition
  3
Nazwa
  2
NAZWA
 70
     3
1001
AcDbAttr
1070
     0
1070
     1
  0
ATTDEF
  5
2294
330
228E
100
AcDbEntity
  8
SOLBET_Wymiary_Opisy
100
AcDbText
 10
-0.0000000703746536
 20
7.794499099484078
 30
0.0
 40
0.9913121336814832
  1
OPTIMAL
  7
Solbet_1
100
AcDbAttributeDefinition
  3

  2
SYSTEM
 70
     3
1001
AcDbAttr
1070
     0
1070
     1
  0
ATTDEF
  5
2295
330
228E
100
AcDbEntity
  8
SOLBET_Wymiary_Opisy
100
AcDbText
 10
-0.0000000703746536
 20
1.74418138862846
 30
0.0
 40
0.9913121336814832
  1
Prawo
  7
Solbet_1
100
AcDbAttributeDefinition
  3

  2
WIDOK
 70
    11
1001
AcDbAttr
1070
     0
1070
     1
  0
LINE
  5
2296
330
228E
100
AcDbEntity
  8
SOLBET_Bloczki
100
AcDbLine
 10
21.00000014074931
 20
12.00000020414847
 30
0.0
 11
21.00000014074931
 21
0.000000204148364
 31
0.0
  0
LINE
  5
2297
330
228E
100
AcDbEntity
  8
SOLBET_Bloczki
100
AcDbLine
 10
21.00000014074931
 20
12.00000020414847
 30
0.0
 11
0.0000001407493072
 21
12.00000020414847
 31
0.0
  0
LINE
  5
2298
330
228E
100
AcDbEntity
  8
SOLBET_Bloczki
100
AcDbLine
 10
0.0000001407493072
 20
12.00000020414847
 30
0.0
 11
0.0000001407493072
 21
0.000000204148364
 31
0.0
  0
LINE
  5
2299
330
228E
100
AcDbEntity
  8
SOLBET_Bloczki
100
AcDbLine
 10
0.0000001407493072
 20
0.000000204148364
 30
0.0
 11
21.00000014074931
 21
0.000000204148364
 31
0.0
  0
ENDBLK
  5
229D
330
228E
100
AcDbEntity
  8
0
100
AcDbBlockEnd
  0
BLOCK
  5
22B9
330
22AD
100
AcDbEntity
  8
0
100
AcDbBlockBegin
  2
SOLBET_Plytka_80x240x590_brak_PRA
 70
     2
 10
0.0
 20
0.0
 30
0.0
  3
SOLBET_Plytka_80x240x590_brak_PRA
  1

  0
ATTDEF
  5
22AE
330
22AD
100
AcDbEntity
  8
SOLBET_Wymiary_Opisy
100
AcDbText
 10
0.0000000947117284
 20
4.975188798271157
 30
0.0
 40
1.029483505648801
  1
80x240x590
  7
Solbet_1
100
AcDbAttributeDefinition
  3

  2
WYMIARY
 70
     3
1001
AcDbAttr
1070
     0
1070
     1
  0
ATTDEF
  5
22AF
330
22AD
100
AcDbEntity
  8
SOLBET_Wymiary_Opisy
100
AcDbText
 10
0.0000000947117284
 20
3.40442846021831
 30
0.0
 40
1.029483505648801
  1
600
  7
Solbet_1
100
AcDbAttributeDefinition
  3

  2
KLASA_GĘSTOŚCI
 70
     3
1001
AcDbAttr
1070
     0
1070
     1
  0
ATTDEF
  5
22B0
330
22AD
100
AcDbEntity
  8
SOLBET_Wymiary_Opisy
100
AcDbText
 10
0.0000000947117284
 20
0.2542933553923256
 30
0.0
 40
1.029483505648801
  1
SOLBET
  7
Solbet_1
100
AcDbAttributeDefinition
  3

  2
FIRMA
 70
     3
1001
AcDbAttr
1070
     0
1070
     1
  0
ATTDEF
  5
22B1
330
22AD
100
AcDbEntity
  8
SOLBET_Wymiary_Opisy
100
AcDbText
 10
-0.0000001564046322
 20
6.512920961642439
 30
0.0
 40
1.029483505648801
  1
Płytka
  7
Solbet_1
100
AcDbAttributeDefinition
  3
Nazwa
  2
NAZWA
 70
     3
1001
AcDbAttr
1070
     0
1070
     1
  0
ATTDEF
  5
22B2
330
22AD
100
AcDbEntity
  8
SOLBET_Wymiary_Opisy
100
AcDbText
 10
0.0000000947117284
 20
1.811342665324326
 30
0.0
 40
1.029483505648801
  1
Prawo
  7
Solbet_1
100
AcDbAttributeDefinition
  3

  2
WIDOK
 70
    11
1001
AcDbAttr
1070
     0
1070
     1
  0
LINE
  5
22B3
330
22AD
100
AcDbEntity
  8
SOLBET_Bloczki
100
AcDbLine
 10
3.999999830192336
 20
12.00000020463494
 30
0.0
 11
3.999999830192336
 21
0.0000002046349437
 31
0.0
  0
LINE
  5
22B4
330
22AD
100
AcDbEntity
  8
SOLBET_Bloczki
100
AcDbLine
 10
3.999999830192336
 20
0.0000002046349437
 30
0.0
 11
-0.000000169807663
 21
0.0000002046349437
 31
0.0
  0
LINE
  5
22B5
330
22AD
100
AcDbEntity
  8
SOLBET_Bloczki
100
AcDbLine
 10
-0.000000169807663
 20
0.0000002046349437
 30
0.0
 11
-0.000000169807663
 21
12.00000020463517
 31
0.0
  0
LINE
  5
22B6
330
22AD
100
AcDbEntity
  8
SOLBET_Bloczki
100
AcDbLine
 10
-0.000000169807663
 20
12.00000020463517
 30
0.0
 11
3.999999830192336
 21
12.00000020463517
 31
0.0
  0
ENDBLK
  5
22BA
330
22AD
100
AcDbEntity
  8
0
100
AcDbBlockEnd
  0
BLOCK
  5
22CC
330
22BC
100
AcDbEntity
  8
0
100
AcDbBlockBegin
  2
SOLBET_Ksztaltka_U_420x240x500_PRA
 70
     2
 10
0.0
 20
0.0
 30
0.0
  3
SOLBET_Ksztaltka_U_420x240x500_PRA
  1

  0
ATTDEF
  5
22BD
330
22BC
100
AcDbEntity
  8
SOLBET_Wymiary_Opisy
100
AcDbText
 10
-0.0000000476806008
 20
4.790718044940628
 30
0.0
 40
0.9913121336814832
  1
420x240x500
  7
Solbet_1
100
AcDbAttributeDefinition
  3

  2
WYMIARY
 70
     3
1001
AcDbAttr
1070
     0
1070
     1
  0
ATTDEF
  5
22BE
330
22BC
100
AcDbEntity
  8
SOLBET_Wymiary_Opisy
100
AcDbText
 10
-0.0000000476806008
 20
3.27819863722453
 30
0.0
 40
0.9913121336814832
  1
400
  7
Solbet_1
100
AcDbAttributeDefinition
  3

  2
KLASA_GĘSTOŚCI
 70
     3
1001
AcDbAttr
1070
     0
1070
     1
  0
ATTDEF
  5
22BF
330
22BC
100
AcDbEntity
  8
SOLBET_Wymiary_Opisy
100
AcDbText
 10
-0.0000000476806008
 20
0.2448648003876223
 30
0.0
 40
0.9913121336814832
  1
SOLBET
  7
Solbet_1
100
AcDbAttributeDefinition
  3

  2
FIRMA
 70
     3
1001
AcDbAttr
1070
     0
1070
     1
  0
ATTDEF
  5
22C0
330
22BC
100
AcDbEntity
  8
SOLBET_Wymiary_Opisy
100
AcDbText
 10
-0.0000000476806008
 20
6.347422594011662
 30
0.0
 40
0.9913121336814832
  1
Kształtka U
  7
Solbet_1
100
AcDbAttributeDefinition
  3
Nazwa
  2
NAZWA
 70
     3
1001
AcDbAttr
1070
     0
1070
     1
  0
ATTDEF
  5
22C1
330
22BC
100
AcDbEntity
  8
SOLBET_Wymiary_Opisy
100
AcDbText
 10
-0.0000000476806008
 20
1.744181559914735
 30
0.0
 40
0.9913121336814832
  1
Prawo
  7
Solbet_1
100
AcDbAttributeDefinition
  3

  2
WIDOK
 70
    11
1001
AcDbAttr
1070
     0
1070
     1
  0
LINE
  5
22C2
330
22BC
100
AcDbEntity
  8
SOLBET_Bloczki
100
AcDbLine
 10
0.0000011705760737
 20
20.99999992050084
 30
0.0
 11
12.00000117057607
 21
20.99999992050084
 31
0.0
  0
LINE
  5
22C3
330
22BC
100
AcDbEntity
  8
SOLBET_Bloczki
100
AcDbLine
 10
12.00000117057607
 20
20.99999992050084
 30
0.0
 11
12.00000117057607
 21
-0.0000000794991628
 31
0.0
  0
LINE
  5
22C4
330
22BC
100
AcDbEntity
  8
SOLBET_Bloczki
100
AcDbLine
 10
12.00000117057607
 20
-0.0000000794991628
 30
0.0
 11
0.0000011705760699
 21
-0.0000000794991593
 31
0.0
  0
LINE
  5
22C5
330
22BC
100
AcDbEntity
  8
SOLBET_Bloczki
100
AcDbLine
 10
0.0000011705760699
 20
-0.0000000794991593
 30
0.0
 11
0.0000011705760706
 21
3.99999992050084
 31
0.0
  0
LINE
  5
22C6
330
22BC
100
AcDbEntity
  8
SOLBET_Bloczki
100
AcDbLine
 10
0.0000011705760737
 20
20.99999992050084
 30
0.0
 11
0.000001170576073
 21
16.99999992050084
 31
0.0
  0
LINE
  5
22C7
330
22BC
100
AcDbEntity
  8
SOLBET_Bloczki
100
AcDbLine
 10
8.000001170576073
 20
16.99999992050084
 30
0.0
 11
8.000001170576069
 21
3.99999992050084
 31
0.0
  0
LINE
  5
22C8
330
22BC
100
AcDbEntity
  8
SOLBET_Bloczki
100
AcDbLine
 10
0.000001170576073
 20
16.99999992050084
 30
0.0
 11
8.000001170576073
 21
16.99999992050084
 31
0.0
  0
LINE
  5
22C9
330
22BC
100
AcDbEntity
  8
SOLBET_Bloczki
100
AcDbLine
 10
0.0000011705760706
 20
3.99999992050084
 30
0.0
 11
8.000001170576069
 21
3.99999992050084
 31
0.0
  0
ENDBLK
  5
22CD
330
22BC
100
AcDbEntity
  8
0
100
AcDbBlockEnd
  0
BLOCK
  5
24A3
330
2495
100
AcDbEntity
  8
0
100
AcDbBlockBegin
  2
SOLBET_Bloczek_Ideal_420x240x590_P+W_PRA
 70
     2
 10
0.0
 20
0.0
 30
0.0
  3
SOLBET_Bloczek_Ideal_420x240x590_P+W_PRA
  1

  0
ATTDEF
  5
2496
330
2495
100
AcDbEntity
  8
SOLBET_Wymiary_Opisy
100
AcDbText
 10
-0.0000000703746536
 20
6.303237281370451
 30
0.0
 40
0.9913121336814832
  1
420x240x590
  7
Solbet_1
100
AcDbAttributeDefinition
  3

  2
WYMIARY
 70
     3
1001
AcDbAttr
1070
     0
1070
     1
  0
ATTDEF
  5
2497
330
2495
100
AcDbEntity
  8
SOLBET_Wymiary_Opisy
100
AcDbText
 10
-0.0000000703746536
 20
4.790717873654354
 30
0.0
 40
0.9913121336814832
  1
400
  7
Solbet_1
100
AcDbAttributeDefinition
  3

  2
KLASA_GĘSTOŚCI
 70
     9
1001
AcDbAttr
1070
     0
1070
     1
  0
ATTDEF
  5
2498
330
2495
100
AcDbEntity
  8
SOLBET_Wymiary_Opisy
100
AcDbText
 10
-0.0000000703746536
 20
3.269569038442127
 30
0.0
 40
0.9913121336814832
  1
Pióra+Wpusty
  7
Solbet_1
100
AcDbAttributeDefinition
  3

  2
PROFILOWANIE
 70
     3
1001
AcDbAttr
1070
     0
1070
     1
  0
ATTDEF
  5
2499
330
2495
100
AcDbEntity
  8
SOLBET_Wymiary_Opisy
100
AcDbText
 10
-0.0000000703746536
 20
0.2448646291013483
 30
0.0
 40
0.9913121336814832
  1
SOLBET
  7
Solbet_1
100
AcDbAttributeDefinition
  3

  2
FIRMA
 70
     3
1001
AcDbAttr
1070
     0
1070
     1
  0
ATTDEF
  5
249A
330
2495
100
AcDbEntity
  8
SOLBET_Wymiary_Opisy
100
AcDbText
 10
-0.0000000703746536
 20
9.333547279718283
 30
0.0
 40
0.9913121336814832
  1
Bloczek
  7
Solbet_1
100
AcDbAttributeDefinition
  3
Nazwa
  2
NAZWA
 70
     3
1001
AcDbAttr
1070
     0
1070
     1
  0
ATTDEF
  5
249B
330
2495
100
AcDbEntity
  8
SOLBET_Wymiary_Opisy
100
AcDbText
 10
-0.0000000703746536
 20
7.794499099484078
 30
0.0
 40
0.9913121336814832
  1
SOLBET IDEAL
  7
Solbet_1
100
AcDbAttributeDefinition
  3

  2
SYSTEM
 70
     3
1001
AcDbAttr
1070
     0
1070
     1
  0
ATTDEF
  5
249C
330
2495
100
AcDbEntity
  8
SOLBET_Wymiary_Opisy
100
AcDbText
 10
-0.0000000703746536
 20
1.74418138862846
 30
0.0
 40
0.9913121336814832
  1
Prawo
  7
Solbet_1
100
AcDbAttributeDefinition
  3

  2
WIDOK
 70
    11
1001
AcDbAttr
1070
     0
1070
     1
  0
LINE
  5
249D
330
2495
100
AcDbEntity
  8
SOLBET_Bloczki
100
AcDbLine
 10
21.00000014074931
 20
12.00000020414847
 30
0.0
 11
21.00000014074931
 21
0.000000204148364
 31
0.0
  0
LINE
  5
249E
330
2495
100
AcDbEntity
  8
SOLBET_Bloczki
100
AcDbLine
 10
21.00000014074931
 20
12.00000020414847
 30
0.0
 11
0.0000001407493072
 21
12.00000020414847
 31
0.0
  0
LINE
  5
249F
330
2495
100
AcDbEntity
  8
SOLBET_Bloczki
100
AcDbLine
 10
0.0000001407493072
 20
12.00000020414847
 30
0.0
 11
0.0000001407493072
 21
0.000000204148364
 31
0.0
  0
LINE
  5
24A0
330
2495
100
AcDbEntity
  8
SOLBET_Bloczki
100
AcDbLine
 10
0.0000001407493072
 20
0.000000204148364
 30
0.0
 11
21.00000014074931
 21
0.000000204148364
 31
0.0
  0
ENDBLK
  5
24A4
330
2495
100
AcDbEntity
  8
0
100
AcDbBlockEnd
  0
BLOCK
  5
2664
330
2654
100
AcDbEntity
  8
0
100
AcDbBlockBegin
  2
SOLBET_Ksztaltka_U_420x240x500_KG400_PRA
 70
     2
 10
0.0
 20
0.0
 30
0.0
  3
SOLBET_Ksztaltka_U_420x240x500_KG400_PRA
  1

  0
ATTDEF
  5
2655
330
2654
100
AcDbEntity
  8
SOLBET_Wymiary_Opisy
100
AcDbText
 10
-0.0000000476806008
 20
4.790718044940628
 30
0.0
 40
0.9913121336814832
  1
420x240x500
  7
Solbet_1
100
AcDbAttributeDefinition
  3

  2
WYMIARY
 70
    11
1001
AcDbAttr
1070
     0
1070
     1
  0
ATTDEF
  5
2656
330
2654
100
AcDbEntity
  8
SOLBET_Wymiary_Opisy
100
AcDbText
 10
-0.0000000476806008
 20
3.27819863722453
 30
0.0
 40
0.9913121336814832
  1
400
  7
Solbet_1
100
AcDbAttributeDefinition
  3

  2
KLASA_GĘSTOŚCI
 70
    11
1001
AcDbAttr
1070
     0
1070
     1
  0
ATTDEF
  5
2657
330
2654
100
AcDbEntity
  8
SOLBET_Wymiary_Opisy
100
AcDbText
 10
-0.0000000476806008
 20
0.2448648003876223
 30
0.0
 40
0.9913121336814832
  1
SOLBET
  7
Solbet_1
100
AcDbAttributeDefinition
  3

  2
FIRMA
 70
    11
1001
AcDbAttr
1070
     0
1070
     1
  0
ATTDEF
  5
2658
330
2654
100
AcDbEntity
  8
SOLBET_Wymiary_Opisy
100
AcDbText
 10
-0.0000000476806008
 20
6.347422594011662
 30
0.0
 40
0.9913121336814832
  1
Kształtka U
  7
Solbet_1
100
AcDbAttributeDefinition
  3
Nazwa
  2
NAZWA
 70
    11
1001
AcDbAttr
1070
     0
1070
     1
  0
ATTDEF
  5
2659
330
2654
100
AcDbEntity
  8
SOLBET_Wymiary_Opisy
100
AcDbText
 10
-0.0000000476806008
 20
1.744181559914735
 30
0.0
 40
0.9913121336814832
  1
Prawo
  7
Solbet_1
100
AcDbAttributeDefinition
  3

  2
WIDOK
 70
    11
1001
AcDbAttr
1070
     0
1070
     1
  0
LINE
  5
265A
330
2654
100
AcDbEntity
  8
SOLBET_Bloczki
100
AcDbLine
 10
0.0000011705760737
 20
20.99999992050084
 30
0.0
 11
12.00000117057607
 21
20.99999992050084
 31
0.0
  0
LINE
  5
265B
330
2654
100
AcDbEntity
  8
SOLBET_Bloczki
100
AcDbLine
 10
12.00000117057607
 20
20.99999992050084
 30
0.0
 11
12.00000117057607
 21
-0.0000000794991628
 31
0.0
  0
LINE
  5
265C
330
2654
100
AcDbEntity
  8
SOLBET_Bloczki
100
AcDbLine
 10
12.00000117057607
 20
-0.0000000794991628
 30
0.0
 11
0.0000011705760699
 21
-0.0000000794991593
 31
0.0
  0
LINE
  5
265D
330
2654
100
AcDbEntity
  8
SOLBET_Bloczki
100
AcDbLine
 10
0.0000011705760699
 20
-0.0000000794991593
 30
0.0
 11
0.0000011705760706
 21
3.99999992050084
 31
0.0
  0
LINE
  5
265E
330
2654
100
AcDbEntity
  8
SOLBET_Bloczki
100
AcDbLine
 10
0.0000011705760737
 20
20.99999992050084
 30
0.0
 11
0.000001170576073
 21
16.99999992050084
 31
0.0
  0
LINE
  5
265F
330
2654
100
AcDbEntity
  8
SOLBET_Bloczki
100
AcDbLine
 10
8.000001170576073
 20
16.99999992050084
 30
0.0
 11
8.000001170576069
 21
3.99999992050084
 31
0.0
  0
LINE
  5
2660
330
2654
100
AcDbEntity
  8
SOLBET_Bloczki
100
AcDbLine
 10
0.000001170576073
 20
16.99999992050084
 30
0.0
 11
8.000001170576073
 21
16.99999992050084
 31
0.0
  0
LINE
  5
2661
330
2654
100
AcDbEntity
  8
SOLBET_Bloczki
100
AcDbLine
 10
0.0000011705760706
 20
3.99999992050084
 30
0.0
 11
8.000001170576069
 21
3.99999992050084
 31
0.0
  0
ENDBLK
  5
2665
330
2654
100
AcDbEntity
  8
0
100
AcDbBlockEnd
  0
BLOCK
  5
26AB
330
269F
100
AcDbEntity
  8
0
100
AcDbBlockBegin
  2
SOLBET_Plytka_80x240x590_KG600_PRA
 70
     2
 10
0.0
 20
0.0
 30
0.0
  3
SOLBET_Plytka_80x240x590_KG600_PRA
  1

  0
ATTDEF
  5
26A0
330
269F
100
AcDbEntity
  8
SOLBET_Wymiary_Opisy
100
AcDbText
 10
0.0000000947117284
 20
4.975188798271157
 30
0.0
 40
1.029483505648801
  1
80x240x590
  7
Solbet_1
100
AcDbAttributeDefinition
  3

  2
WYMIARY
 70
    11
1001
AcDbAttr
1070
     0
1070
     1
  0
ATTDEF
  5
26A1
330
269F
100
AcDbEntity
  8
SOLBET_Wymiary_Opisy
100
AcDbText
 10
0.0000000947117284
 20
3.40442846021831
 30
0.0
 40
1.029483505648801
  1
600
  7
Solbet_1
100
AcDbAttributeDefinition
  3

  2
KLASA_GĘSTOŚCI
 70
    11
1001
AcDbAttr
1070
     0
1070
     1
  0
ATTDEF
  5
26A2
330
269F
100
AcDbEntity
  8
SOLBET_Wymiary_Opisy
100
AcDbText
 10
0.0000000947117284
 20
0.2542933553923256
 30
0.0
 40
1.029483505648801
  1
SOLBET
  7
Solbet_1
100
AcDbAttributeDefinition
  3

  2
FIRMA
 70
    11
1001
AcDbAttr
1070
     0
1070
     1
  0
ATTDEF
  5
26A3
330
269F
100
AcDbEntity
  8
SOLBET_Wymiary_Opisy
100
AcDbText
 10
-0.0000001564046322
 20
6.512920961642439
 30
0.0
 40
1.029483505648801
  1
Płytka
  7
Solbet_1
100
AcDbAttributeDefinition
  3
Nazwa
  2
NAZWA
 70
    11
1001
AcDbAttr
1070
     0
1070
     1
  0
ATTDEF
  5
26A4
330
269F
100
AcDbEntity
  8
SOLBET_Wymiary_Opisy
100
AcDbText
 10
0.0000000947117284
 20
1.811342665324326
 30
0.0
 40
1.029483505648801
  1
Prawo
  7
Solbet_1
100
AcDbAttributeDefinition
  3

  2
WIDOK
 70
    11
1001
AcDbAttr
1070
     0
1070
     1
  0
LINE
  5
26A5
330
269F
100
AcDbEntity
  8
SOLBET_Bloczki
100
AcDbLine
 10
3.999999830192336
 20
12.00000020463494
 30
0.0
 11
3.999999830192336
 21
0.0000002046349437
 31
0.0
  0
LINE
  5
26A6
330
269F
100
AcDbEntity
  8
SOLBET_Bloczki
100
AcDbLine
 10
3.999999830192336
 20
0.0000002046349437
 30
0.0
 11
-0.000000169807663
 21
0.0000002046349437
 31
0.0
  0
LINE
  5
26A7
330
269F
100
AcDbEntity
  8
SOLBET_Bloczki
100
AcDbLine
 10
-0.000000169807663
 20
0.0000002046349437
 30
0.0
 11
-0.000000169807663
 21
12.00000020463517
 31
0.0
  0
LINE
  5
26A8
330
269F
100
AcDbEntity
  8
SOLBET_Bloczki
100
AcDbLine
 10
-0.000000169807663
 20
12.00000020463517
 30
0.0
 11
3.999999830192336
 21
12.00000020463517
 31
0.0
  0
ENDBLK
  5
26AC
330
269F
100
AcDbEntity
  8
0
100
AcDbBlockEnd
  0
BLOCK
  5
26BD
330
26AF
100
AcDbEntity
  8
0
100
AcDbBlockBegin
  2
SOLBET_Bloczek_Ideal_420x240x590_P+W_KG400_PRA
 70
     2
 10
0.0
 20
0.0
 30
0.0
  3
SOLBET_Bloczek_Ideal_420x240x590_P+W_KG400_PRA
  1

  0
ATTDEF
  5
26B0
330
26AF
100
AcDbEntity
  8
SOLBET_Wymiary_Opisy
100
AcDbText
 10
-0.0000000703746536
 20
6.303237281370451
 30
0.0
 40
0.9913121336814832
  1
420x240x590
  7
Solbet_1
100
AcDbAttributeDefinition
  3

  2
WYMIARY
 70
    11
1001
AcDbAttr
1070
     0
1070
     1
  0
ATTDEF
  5
26B1
330
26AF
100
AcDbEntity
  8
SOLBET_Wymiary_Opisy
100
AcDbText
 10
-0.0000000703746536
 20
4.790717873654354
 30
0.0
 40
0.9913121336814832
  1
400
  7
Solbet_1
100
AcDbAttributeDefinition
  3

  2
KLASA_GĘSTOŚCI
 70
    11
1001
AcDbAttr
1070
     0
1070
     1
  0
ATTDEF
  5
26B2
330
26AF
100
AcDbEntity
  8
SOLBET_Wymiary_Opisy
100
AcDbText
 10
-0.0000000703746536
 20
3.269569038442127
 30
0.0
 40
0.9913121336814832
  1
Pióra+Wpusty
  7
Solbet_1
100
AcDbAttributeDefinition
  3

  2
PROFILOWANIE
 70
    11
1001
AcDbAttr
1070
     0
1070
     1
  0
ATTDEF
  5
26B3
330
26AF
100
AcDbEntity
  8
SOLBET_Wymiary_Opisy
100
AcDbText
 10
-0.0000000703746536
 20
0.2448646291013483
 30
0.0
 40
0.9913121336814832
  1
SOLBET
  7
Solbet_1
100
AcDbAttributeDefinition
  3

  2
FIRMA
 70
    11
1001
AcDbAttr
1070
     0
1070
     1
  0
ATTDEF
  5
26B4
330
26AF
100
AcDbEntity
  8
SOLBET_Wymiary_Opisy
100
AcDbText
 10
-0.0000000703746536
 20
9.333547279718283
 30
0.0
 40
0.9913121336814832
  1
Bloczek
  7
Solbet_1
100
AcDbAttributeDefinition
  3
Nazwa
  2
NAZWA
 70
    11
1001
AcDbAttr
1070
     0
1070
     1
  0
ATTDEF
  5
26B5
330
26AF
100
AcDbEntity
  8
SOLBET_Wymiary_Opisy
100
AcDbText
 10
-0.0000000703746536
 20
7.794499099484078
 30
0.0
 40
0.9913121336814832
  1
SOLBET Ideal
  7
Solbet_1
100
AcDbAttributeDefinition
  3

  2
SYSTEM
 70
    11
1001
AcDbAttr
1070
     0
1070
     1
  0
ATTDEF
  5
26B6
330
26AF
100
AcDbEntity
  8
SOLBET_Wymiary_Opisy
100
AcDbText
 10
-0.0000000703746536
 20
1.74418138862846
 30
0.0
 40
0.9913121336814832
  1
Prawo
  7
Solbet_1
100
AcDbAttributeDefinition
  3

  2
WIDOK
 70
    11
1001
AcDbAttr
1070
     0
1070
     1
  0
LINE
  5
26B7
330
26AF
100
AcDbEntity
  8
SOLBET_Bloczki
100
AcDbLine
 10
21.00000014074931
 20
12.00000020414847
 30
0.0
 11
21.00000014074931
 21
0.000000204148364
 31
0.0
  0
LINE
  5
26B8
330
26AF
100
AcDbEntity
  8
SOLBET_Bloczki
100
AcDbLine
 10
21.00000014074931
 20
12.00000020414847
 30
0.0
 11
0.0000001407493072
 21
12.00000020414847
 31
0.0
  0
LINE
  5
26B9
330
26AF
100
AcDbEntity
  8
SOLBET_Bloczki
100
AcDbLine
 10
0.0000001407493072
 20
12.00000020414847
 30
0.0
 11
0.0000001407493072
 21
0.000000204148364
 31
0.0
  0
LINE
  5
26BA
330
26AF
100
AcDbEntity
  8
SOLBET_Bloczki
100
AcDbLine
 10
0.0000001407493072
 20
0.000000204148364
 30
0.0
 11
21.00000014074931
 21
0.000000204148364
 31
0.0
  0
ENDBLK
  5
26BE
330
26AF
100
AcDbEntity
  8
0
100
AcDbBlockEnd
  0
ENDSEC
  0
SECTION
  2
ENTITIES
  0
LINE
  5
2178
330
1F
100
AcDbEntity
  8
SOLBET_Wymiary_Opisy
100
AcDbLine
 10
144.6238059903792
 20
191.7546686772018
 30
0.0
 11
144.6238059903792
 21
132.3155252380891
 31
0.0
  0
LWPOLYLINE
  5
2179
330
1F
100
AcDbEntity
  8
SOLBET_Zbrojenie_Konstrukcja
100
AcDbPolyline
 90
        2
 70
     1
 43
0.3
 10
71.16528476766894
 20
159.9216283007697
 42
1.0
 10
71.46528476767184
 20
159.9216283007697
 42
1.0
  0
LWPOLYLINE
  5
217A
330
1F
100
AcDbEntity
  8
SOLBET_Zbrojenie_Konstrukcja
100
AcDbPolyline
 90
        2
 70
     1
 43
0.3
 10
74.53949100183149
 20
159.900008625689
 42
1.0
 10
74.83949100183441
 20
159.900008625689
 42
1.0
  0
LWPOLYLINE
  5
217B
330
1F
100
AcDbEntity
  8
SOLBET_Zbrojenie_Konstrukcja
100
AcDbPolyline
 90
        2
 70
     1
 43
0.3
 10
74.53949100183149
 20
151.5400049574816
 42
1.0
 10
74.83949100183441
 20
151.5400049574816
 42
1.0
  0
LWPOLYLINE
  5
217C
330
1F
100
AcDbEntity
  8
SOLBET_Zbrojenie_Konstrukcja
100
AcDbPolyline
 90
        2
 70
     1
 43
0.3
 10
71.16528476766894
 20
151.5400049574816
 42
1.0
 10
71.46528476767184
 20
151.5400049574816
 42
1.0
  0
LINE
  5
217D
330
1F
100
AcDbEntity
  8
SOLBET_Zbrojenie_Konstrukcja
100
AcDbLine
 10
73.61020483893867
 20
158.8326617879354
 30
0.0
 11
72.19599127656898
 21
160.2468753503087
 31
0.0
  0
LINE
  5
217E
330
1F
100
AcDbEntity
  8
SOLBET_Zbrojenie_Konstrukcja
100
AcDbLine
 10
72.41020483892703
 20
157.6326617879365
 30
0.0
 11
70.99599127655733
 21
159.046875350308
 31
0.0
  0
LWPOLYLINE
  5
217F
330
1F
100
AcDbEntity
  8
SOLBET_Zbrojenie_Konstrukcja
100
AcDbPolyline
 90
        5
 70
     0
 43
0.0
 10
74.98118484162318
 20
151.2237835571629
 10
74.98118484162318
 20
160.2468753503087
 10
70.99599127655733
 20
160.2468753503087
 10
70.99599127655733
 20
151.2237835571629
 10
74.98118484162318
 20
151.2237835571629
  0
LINE
  5
2181
330
1F
100
AcDbEntity
  8
SOLBET_Izolacja
  6
Continuous
100
AcDbLine
 10
70.12488451448212
 20
142.0390170765165
 30
0.0
 11
70.12488451448212
 21
162.0390170765165
 31
0.0
  0
LINE
  5
2184
330
1F
100
AcDbEntity
  8
SOLBET_Wymiary_Opisy
100
AcDbLine
 10
60.02099552169443
 20
191.7546686772018
 30
0.0
 11
144.6238059903792
 21
191.7546686772018
 31
0.0
  0
LINE
  5
2187
330
1F
100
AcDbEntity
  8
SOLBET_Tynki_Posadzki
100
AcDbLine
 10
85.42295070566821
 20
167.9123239100734
 30
0.0
 11
85.42295070566821
 21
167.4123239100734
 31
0.0
  0
ARC
  5
2188
330
1F
100
AcDbEntity
  8
SOLBET_Tynki_Posadzki
100
AcDbCircle
 10
84.62488451448212
 20
167.9123239100734
 30
0.0
 40
1.5000521396288
100
AcDbArc
 50
0.0
 51
90.0
  0
LINE
  5
218A
330
1F
100
AcDbEntity
  8
SOLBET_Izolacja
  6
Continuous
100
AcDbLine
 10
85.12488451448211
 20
167.4123239100734
 30
0.0
 11
84.12488451448211
 21
167.4123239100734
 31
0.0
  0
LINE
  5
218D
330
1F
100
AcDbEntity
  8
SOLBET_Tynki_Posadzki
100
AcDbLine
 10
85.42295070566821
 20
167.9123239100734
 30
0.0
 11
144.6238059903792
 21
167.9123239100734
 31
0.0
  0
LINE
  5
2190
330
1F
100
AcDbEntity
  8
SOLBET_Izolacja
  6
Continuous
100
AcDbLine
 10
85.12488451448211
 20
162.0390170765165
 30
0.0
 11
85.12488451448211
 21
167.4123239100734
 31
0.0
  0
LINE
  5
2191
330
1F
100
AcDbEntity
  8
SOLBET_Izolacja
  6
Continuous
100
AcDbLine
 10
85.12488451448211
 20
164.5390170765183
 30
0.0
 11
144.6238059903792
 21
164.5390170765183
 31
0.0
  0
LINE
  5
2192
330
1F
100
AcDbEntity
  8
SOLBET_Tynki_Posadzki
100
AcDbLine
 10
84.62488451448212
 20
167.4123239100734
 30
0.0
 11
84.62488451448212
 21
191.7546686772018
 31
0.0
  0
LINE
  5
2194
330
1F
100
AcDbEntity
  8
SOLBET_Emulsje_Folie
100
AcDbLine
 10
85.23970056414896
 20
167.6623239100734
 30
0.0
 11
85.23970056414896
 21
164.9848563900903
 31
0.0
  0
LINE
  5
2195
330
1F
100
AcDbEntity
  8
SOLBET_Emulsje_Folie
100
AcDbLine
 10
85.48970056413441
 20
164.7348563900902
 30
0.0
 11
144.6238059903792
 21
164.7348563900884
 31
0.0
  0
ARC
  5
2196
330
1F
100
AcDbEntity
  8
SOLBET_Emulsje_Folie
100
AcDbCircle
 10
85.48970056413441
 20
164.9848563900903
 30
0.0
 40
0.25
100
AcDbArc
 50
180.0
 51
270.0
  0
LWPOLYLINE
  5
2197
102
{ACAD_REACTORS
330
22DA
102
}
330
1F
100
AcDbEntity
  8
SOLBET_Tynki_Posadzki
100
AcDbPolyline
 90
        5
 70
     1
 43
0.0
 10
85.23970056414896
 20
164.9848563900903
 42
0.0737237824442244
 10
85.2504537473526
 20
164.9123239100734
 10
144.6238059903792
 20
164.9123239100734
 10
144.6238059903792
 20
167.4123239100734
 10
85.23970056414896
 20
167.4123239100734
1001
ASO_SCHRAFF
1005
0
1070
     1
1002
{
1070
     1
1005
0
1002
}
1002
{
1070
     2
1005
0
1002
}
1002
{
1070
     4
1000
AR-CONC
1040
0.01
1040
0.0
1070
     0
1000
T__SCHR
1070
   256
1000
_bylayer
1040
50.0
1070
     1
1002
}
  0
LINE
  5
219A
330
1F
100
AcDbEntity
  8
SOLBET_Tynki_Posadzki
100
AcDbLine
 10
84.62488451448212
 20
149.5390170765165
 30
0.0
 11
84.62488451448212
 21
132.3155252380891
 31
0.0
  0
LWPOLYLINE
  5
21A6
330
1F
100
AcDbEntity
  8
SOLBET_Zbrojenie_Konstrukcja
100
AcDbPolyline
 90
       16
 70
     1
 43
0.0
 10
70.96335570839642
 20
162.1050224107063
 42
0.0869419154568836
 10
71.01007245428104
 20
162.0806185209009
 42
0.04426695874853
 10
71.06668067990745
 20
162.067991500228
 42
0.0327594189474477
 10
71.1448165826971
 20
162.0628666267699
 42
0.0327594189473721
 10
71.22295248547221
 20
162.067991500228
 42
0.0442669587487512
 10
71.27956071111317
 20
162.0806185209009
 42
0.0869419154555393
 10
71.32627745699778
 20
162.1050224107063
 42
0.233077666948955
 10
71.3353735565563
 20
162.1234753844661
 42
0.2330776669476068
 10
71.32627745699778
 20
162.141928358226
 42
0.0869419154571649
 10
71.27956071111317
 20
162.1663322480314
 42
0.0442669587478621
 10
71.22295248547221
 20
162.1789592687042
 42
0.032759418947709
 10
71.1448165826971
 20
162.1840841421605
 42
0.0327594189469762
 10
71.06668067990745
 20
162.1789592687042
 42
0.0442669587489952
 10
71.01007245428104
 20
162.1663322480295
 42
0.0869419154555225
 10
70.96335570839642
 20
162.141928358226
 42
0.2095631734287794
 10
70.95435306665081
 20
162.1255586410776
 42
0.256839199828224
1001
ASO_SCHRAFF
1005
0
1070
     1
1002
{
1070
     1
1005
0
1002
}
1002
{
1070
     2
1005
0
1002
}
1002
{
1070
     4
1000
SOFIFUELL
1040
1.0
1040
0.0
1070
     0
1000
T__SCHR
1070
   256
1000
_bylayer
1040
50.0
1070
     1
1002
}
  0
LINE
  5
21AE
330
1F
100
AcDbEntity
  8
SOLBET_Wymiary_Opisy
100
AcDbLine
 10
60.02099552169443
 20
132.3155252380891
 30
0.0
 11
144.6238059903792
 21
132.3155252380891
 31
0.0
  0
LINE
  5
21AF
330
1F
100
AcDbEntity
  8
SOLBET_Tynki_Posadzki
100
AcDbLine
 10
62.37488451446757
 20
132.3155252380891
 30
0.0
 11
62.37488451446757
 21
191.7546686772018
 31
0.0
  0
LINE
  5
21B0
330
1F
100
AcDbEntity
  8
SOLBET_Zaprawy
100
AcDbLine
 10
62.84156270794688
 20
132.3155252380891
 30
0.0
 11
62.84156270794688
 21
191.7546686772018
 31
0.0
  0
LINE
  5
21B3
330
1F
100
AcDbEntity
  8
SOLBET_Wymiary_Opisy
100
AcDbLine
 10
299.4316405843139
 20
191.7546686772018
 30
0.0
 11
299.4316405843139
 21
132.3155252380891
 31
0.0
  0
LWPOLYLINE
  5
21B4
330
1F
100
AcDbEntity
  8
SOLBET_Zbrojenie_Konstrukcja
100
AcDbPolyline
 90
        2
 70
     1
 43
0.3
 10
225.9731193616036
 20
159.9216283007697
 42
1.0
 10
226.2731193616065
 20
159.9216283007697
 42
1.0
  0
LWPOLYLINE
  5
21B5
330
1F
100
AcDbEntity
  8
SOLBET_Zbrojenie_Konstrukcja
100
AcDbPolyline
 90
        2
 70
     1
 43
0.3
 10
236.3219293537851
 20
159.900008625689
 42
1.0
 10
236.621929353788
 20
159.900008625689
 42
1.0
  0
LWPOLYLINE
  5
21B6
330
1F
100
AcDbEntity
  8
SOLBET_Zbrojenie_Konstrukcja
100
AcDbPolyline
 90
        2
 70
     1
 43
0.3
 10
236.3219293537851
 20
151.105238476837
 42
1.0
 10
236.621929353788
 20
151.105238476837
 42
1.0
  0
LWPOLYLINE
  5
21B7
330
1F
100
AcDbEntity
  8
SOLBET_Zbrojenie_Konstrukcja
100
AcDbPolyline
 90
        2
 70
     1
 43
0.3
 10
225.9731193616036
 20
151.105238476837
 42
1.0
 10
226.2731193616065
 20
151.105238476837
 42
1.0
  0
LINE
  5
21B8
330
1F
100
AcDbEntity
  8
SOLBET_Zbrojenie_Konstrukcja
100
AcDbLine
 10
228.4180394328733
 20
158.8326617879354
 30
0.0
 11
227.0038258705036
 21
160.2468753503087
 31
0.0
  0
LINE
  5
21B9
330
1F
100
AcDbEntity
  8
SOLBET_Zbrojenie_Konstrukcja
100
AcDbLine
 10
227.2180394328617
 20
157.6326617879365
 30
0.0
 11
225.803825870492
 21
159.046875350308
 31
0.0
  0
LWPOLYLINE
  5
21BA
330
1F
100
AcDbEntity
  8
SOLBET_Zbrojenie_Konstrukcja
100
AcDbPolyline
 90
        5
 70
     0
 43
0.0
 10
236.7636231935622
 20
150.7890170765183
 10
236.7636231935622
 20
160.2468753503087
 10
225.803825870492
 20
160.2468753503087
 10
225.803825870492
 20
150.7890170765183
 10
236.7636231935622
 20
150.7890170765183
  0
LINE
  5
21BC
330
1F
100
AcDbEntity
  8
SOLBET_Izolacja
  6
Continuous
100
AcDbLine
 10
224.9327191084022
 20
150.0390170765165
 30
0.0
 11
224.9327191084022
 21
162.0390170765165
 31
0.0
  0
LINE
  5
21C0
330
1F
100
AcDbEntity
  8
SOLBET_Wymiary_Opisy
100
AcDbLine
 10
214.8288301156291
 20
191.7546686772018
 30
0.0
 11
299.4316405843139
 21
191.7546686772018
 31
0.0
  0
LINE
  5
21C3
330
1F
100
AcDbEntity
  8
SOLBET_Tynki_Posadzki
100
AcDbLine
 10
240.2307852995883
 20
167.9123239100734
 30
0.0
 11
240.2307852995883
 21
167.4123239100734
 31
0.0
  0
ARC
  5
21C4
330
1F
100
AcDbEntity
  8
SOLBET_Tynki_Posadzki
100
AcDbCircle
 10
239.4327191084022
 20
167.9123239100734
 30
0.0
 40
1.5000521396288
100
AcDbArc
 50
0.0
 51
90.0
  0
LINE
  5
21C6
330
1F
100
AcDbEntity
  8
SOLBET_Izolacja
  6
Continuous
100
AcDbLine
 10
239.9327191084022
 20
167.4123239100734
 30
0.0
 11
238.9327191084023
 21
167.4123239100734
 31
0.0
  0
LINE
  5
21C9
330
1F
100
AcDbEntity
  8
SOLBET_Tynki_Posadzki
100
AcDbLine
 10
240.2307852995883
 20
167.9123239100734
 30
0.0
 11
299.4316405843139
 21
167.9123239100734
 31
0.0
  0
LINE
  5
21CC
330
1F
100
AcDbEntity
  8
SOLBET_Izolacja
  6
Continuous
100
AcDbLine
 10
239.9327191084022
 20
162.0390170765165
 30
0.0
 11
239.9327191084022
 21
167.4123239100734
 31
0.0
  0
LINE
  5
21CD
330
1F
100
AcDbEntity
  8
SOLBET_Izolacja
  6
Continuous
100
AcDbLine
 10
239.9327191084022
 20
164.5390170765183
 30
0.0
 11
299.4316405843139
 21
164.5390170765183
 31
0.0
  0
LINE
  5
21CE
330
1F
100
AcDbEntity
  8
SOLBET_Tynki_Posadzki
100
AcDbLine
 10
239.4327191084022
 20
167.4123239100734
 30
0.0
 11
239.4327191084022
 21
191.7546686772018
 31
0.0
  0
LINE
  5
21CF
330
1F
100
AcDbEntity
  8
SOLBET_Beton
100
AcDbLine
 10
239.4327191084022
 20
162.0390170765165
 30
0.0
 11
299.4316405843139
 21
162.0390170765165
 31
0.0
  0
LINE
  5
21D0
330
1F
100
AcDbEntity
  8
SOLBET_Emulsje_Folie
100
AcDbLine
 10
240.0475351580837
 20
167.6623239100734
 30
0.0
 11
240.0475351580837
 21
164.9848563900903
 31
0.0
  0
LINE
  5
21D1
330
1F
100
AcDbEntity
  8
SOLBET_Emulsje_Folie
100
AcDbLine
 10
240.2975351580691
 20
164.7348563900902
 30
0.0
 11
299.4316405843139
 21
164.7348563900884
 31
0.0
  0
ARC
  5
21D2
330
1F
100
AcDbEntity
  8
SOLBET_Emulsje_Folie
100
AcDbCircle
 10
240.2975351580691
 20
164.9848563900903
 30
0.0
 40
0.25
100
AcDbArc
 50
180.0
 51
270.0
  0
LINE
  5
21D5
330
1F
100
AcDbEntity
  8
SOLBET_Tynki_Posadzki
100
AcDbLine
 10
239.4327191084022
 20
149.5390170765165
 30
0.0
 11
239.4327191084022
 21
132.3155252380891
 31
0.0
  0
LWPOLYLINE
  5
21DD
102
{ACAD_REACTORS
330
23F7
102
}
330
1F
100
AcDbEntity
  8
SOLBET_Zbrojenie_Konstrukcja
100
AcDbPolyline
 90
       16
 70
     1
 43
0.0
 10
235.2936227966722
 20
162.2173549745673
 42
-0.0869419154568836
 10
235.2469060507875
 20
162.1929510847619
 42
-0.04426695874853
 10
235.1902978251465
 20
162.180324064089
 42
-0.0327594189474477
 10
235.1121619223714
 20
162.175199190631
 42
-0.0327594189473721
 10
235.0340260195963
 20
162.180324064089
 42
-0.0442669587487512
 10
234.9774177939554
 20
162.1929510847619
 42
-0.0869419154555393
 10
234.9307010480708
 20
162.2173549745673
 42
-0.233077666948955
 10
234.9216049485122
 20
162.2358079483272
 42
-0.2330776669476068
 10
234.9307010480708
 20
162.254260922087
 42
-0.0869419154571649
 10
234.9774177939554
 20
162.2786648118924
 42
-0.0442669587478621
 10
235.0340260195963
 20
162.2912918325653
 42
-0.032759418947709
 10
235.1121619223714
 20
162.2964167060215
 42
-0.0327594189469762
 10
235.1902978251465
 20
162.2912918325653
 42
-0.0442669587489952
 10
235.2469060507875
 20
162.2786648118906
 42
-0.0869419154555225
 10
235.2936227966722
 20
162.254260922087
 42
-0.2095631734287794
 10
235.3026254384032
 20
162.2378912049387
 42
-0.256839199828224
1001
ASO_SCHRAFF
1005
0
1070
     1
1002
{
1070
     1
1005
0
1002
}
1002
{
1070
     2
1005
0
1002
}
1002
{
1070
     4
1000
SOFIFUELL
1040
1.0
1040
0.0
1070
     0
1000
T__SCHR
1070
   256
1000
_bylayer
1040
50.0
1070
     1
1002
}
  0
LWPOLYLINE
  5
21DE
330
1F
100
AcDbEntity
  8
SOLBET_Zbrojenie_Konstrukcja
100
AcDbPolyline
 90
       16
 70
     1
 43
0.0
 10
225.9526511766318
 20
162.175199190631
 42
-0.0327594189470737
 10
225.8745152738421
 20
162.180324064089
 42
-0.0442669587490688
 10
225.8179070482011
 20
162.1929510847619
 42
-0.0869419154566485
 10
225.7711903023311
 20
162.2173549745673
 42
-0.2330776669510323
 10
225.7620942027726
 20
162.2358079483272
 42
-0.2330776669455295
 10
225.7711903023311
 20
162.254260922087
 42
-0.086941915456222
 10
225.8179070482011
 20
162.2786648118906
 42
-0.0442669587489878
 10
225.8745152738421
 20
162.2912918325653
 42
-0.032759418946939
 10
225.9526511766318
 20
162.2964167060215
 42
-0.032759418947148
 10
226.0307870794069
 20
162.2912918325653
 42
-0.0442669587490284
 10
226.0873953050478
 20
162.2786648118906
 42
-0.0869419154566317
 10
226.1341120509179
 20
162.254260922087
 42
-0.233077666949109
 10
226.143208150491
 20
162.2358079483272
 42
-0.2330776669474527
 10
226.1341120509179
 20
162.2173549745673
 42
-0.0869419154562388
 10
226.0873953050478
 20
162.1929510847619
 42
-0.0442669587490685
 10
226.0307870794069
 20
162.180324064089
 42
-0.0327594189470737
  0
LWPOLYLINE
  5
21DF
102
{ACAD_REACTORS
330
23F7
102
}
330
1F
100
AcDbEntity
  8
SOLBET_Zbrojenie_Konstrukcja
100
AcDbPolyline
 90
       16
 70
     1
 43
0.0
 10
225.7711903023311
 20
162.2173549745673
 42
0.0869419154568836
 10
225.8179070482011
 20
162.1929510847619
 42
0.04426695874853
 10
225.8745152738421
 20
162.180324064089
 42
0.0327594189474477
 10
225.9526511766318
 20
162.175199190631
 42
0.0327594189473721
 10
226.0307870794069
 20
162.180324064089
 42
0.0442669587487512
 10
226.0873953050478
 20
162.1929510847619
 42
0.0869419154555393
 10
226.1341120509179
 20
162.2173549745673
 42
0.233077666948955
 10
226.143208150491
 20
162.2358079483272
 42
0.2330776669476068
 10
226.1341120509179
 20
162.254260922087
 42
0.0869419154571649
 10
226.0873953050478
 20
162.2786648118924
 42
0.0442669587478621
 10
226.0307870794069
 20
162.2912918325653
 42
0.032759418947709
 10
225.9526511766318
 20
162.2964167060215
 42
0.0327594189469762
 10
225.8745152738421
 20
162.2912918325653
 42
0.0442669587489952
 10
225.8179070482011
 20
162.2786648118906
 42
0.0869419154555225
 10
225.7711903023311
 20
162.254260922087
 42
0.2095631734287794
 10
225.7621876605709
 20
162.2378912049387
 42
0.256839199828224
1001
ASO_SCHRAFF
1005
0
1070
     1
1002
{
1070
     1
1005
0
1002
}
1002
{
1070
     2
1005
0
1002
}
1002
{
1070
     4
1000
SOFIFUELL
1040
1.0
1040
0.0
1070
     0
1000
T__SCHR
1070
   256
1000
_bylayer
1040
50.0
1070
     1
1002
}
  0
LINE
  5
21E7
330
1F
100
AcDbEntity
  8
SOLBET_Wymiary_Opisy
100
AcDbLine
 10
214.8288301156291
 20
132.3155252380891
 30
0.0
 11
299.4316405843139
 21
132.3155252380891
 31
0.0
  0
LINE
  5
21E8
330
1F
100
AcDbEntity
  8
SOLBET_Tynki_Posadzki
100
AcDbLine
 10
217.1827191084022
 20
132.3155252380891
 30
0.0
 11
217.1827191084022
 21
191.7546686772018
 31
0.0
  0
LINE
  5
21E9
330
1F
100
AcDbEntity
  8
SOLBET_Zaprawy
100
AcDbLine
 10
217.6493973018815
 20
132.3155252380891
 30
0.0
 11
217.6493973018815
 21
191.7546686772018
 31
0.0
  0
LWPOLYLINE
  5
21F0
330
1F
100
AcDbEntity
  8
SOLBET_Zbrojenie_Konstrukcja
100
AcDbPolyline
 90
        6
 70
     0
 43
0.0
 10
119.7506867057329
 20
160.6603026392747
 10
71.25068670573296
 20
160.6603026392747
 42
0.4142135623730951
 10
70.75068670573296
 20
160.1603026392729
 10
70.75068670573296
 20
154.0636688591455
 42
0.4142135623730964
 10
71.25068670573296
 20
153.5636688591455
 10
89.75068670573296
 20
153.5636688591455
  0
LINE
  5
2201
330
1F
100
AcDbEntity
  8
SOLBET_Tynki_Posadzki
100
AcDbLine
 10
84.62488451448212
 20
149.5390170765165
 30
0.0
 11
144.6238059903792
 21
149.5390170765165
 31
0.0
  0
LWPOLYLINE
  5
2203
330
1F
100
AcDbEntity
  8
SOLBET_Zbrojenie_Konstrukcja
100
AcDbPolyline
 90
        5
 70
     0
 43
0.0
 10
79.13127325492155
 20
142.9267462145778
 10
79.13127325492155
 20
149.1841563198084
 10
70.99599127655733
 20
149.1841563198084
 10
70.99599127655733
 20
142.9267462145778
 10
79.13127325492155
 20
142.9267462145778
  0
LWPOLYLINE
  5
2204
330
1F
100
AcDbEntity
  8
SOLBET_Zbrojenie_Konstrukcja
100
AcDbPolyline
 90
        2
 70
     1
 43
0.3
 10
71.16528476766894
 20
143.2429676148983
 42
1.0
 10
71.46528476767184
 20
143.2429676148983
 42
1.0
  0
LWPOLYLINE
  5
2205
330
1F
100
AcDbEntity
  8
SOLBET_Zbrojenie_Konstrukcja
100
AcDbPolyline
 90
        2
 70
     1
 43
0.3
 10
71.22931238437946
 20
148.7176938883037
 42
1.0
 10
71.52931238438236
 20
148.7176938883037
 42
1.0
  0
LINE
  5
2206
330
1F
100
AcDbEntity
  8
SOLBET_Zbrojenie_Konstrukcja
100
AcDbLine
 10
73.67423245563464
 20
147.6287273754676
 30
0.0
 11
72.11880351131026
 21
149.1841563198084
 31
0.0
  0
LINE
  5
2207
330
1F
100
AcDbEntity
  8
SOLBET_Zbrojenie_Konstrukcja
100
AcDbLine
 10
72.47423245563755
 20
146.4287273754669
 30
0.0
 11
70.99599127655733
 21
147.9069685545471
 31
0.0
  0
LWPOLYLINE
  5
2208
330
1F
100
AcDbEntity
  8
SOLBET_Zbrojenie_Konstrukcja
100
AcDbPolyline
 90
        2
 70
     1
 43
0.3
 10
78.9619797638245
 20
143.2429676148983
 42
-1.0
 10
78.66197976382159
 20
143.2429676148983
 42
-1.0
  0
LWPOLYLINE
  5
2209
330
1F
100
AcDbEntity
  8
SOLBET_Zbrojenie_Konstrukcja
100
AcDbPolyline
 90
        2
 70
     1
 43
0.3
 10
78.89795214711398
 20
148.7176938883037
 42
-1.0
 10
78.59795214711107
 20
148.7176938883037
 42
-1.0
  0
LINE
  5
220F
330
1F
100
AcDbEntity
  8
SOLBET_Beton
100
AcDbLine
 10
237.9327191084022
 20
150.0390170765165
 30
0.0
 11
296.4327191084022
 21
150.0390170765165
 31
0.0
  0
LINE
  5
2210
330
1F
100
AcDbEntity
  8
SOLBET_Beton
100
AcDbLine
 10
240.2674501191515
 20
162.0390170765165
 30
0.0
 11
296.0979880976676
 21
162.0390170765165
 31
0.0
  0
LINE
  5
2211
330
1F
100
AcDbEntity
  8
SOLBET_Beton
100
AcDbLine
 10
237.4857188612815
 20
150.5362001677383
 30
0.0
 11
237.7525193217308
 21
153.0390170765165
 31
0.0
  0
LINE
  5
2212
330
1F
100
AcDbEntity
  8
SOLBET_Beton
100
AcDbLine
 10
237.7525193217308
 20
153.0390170765165
 30
0.0
 11
238.3080494792094
 21
153.0390170765165
 31
0.0
  0
LINE
  5
2213
330
1F
100
AcDbEntity
  8
SOLBET_Beton
100
AcDbLine
 10
238.3080494792094
 20
153.0390170765165
 30
0.0
 11
239.2674501191515
 21
162.0390170765165
 31
0.0
  0
LINE
  5
2214
330
1F
100
AcDbEntity
  8
SOLBET_Beton
100
AcDbLine
 10
296.879719355523
 20
150.5362001677365
 30
0.0
 11
296.6129188951028
 21
153.0390170765165
 31
0.0
  0
LINE
  5
2215
330
1F
100
AcDbEntity
  8
SOLBET_Beton
100
AcDbLine
 10
296.6129188951028
 20
153.0390170765165
 30
0.0
 11
296.0573887376096
 21
153.0390170765165
 31
0.0
  0
LINE
  5
2216
330
1F
100
AcDbEntity
  8
SOLBET_Beton
100
AcDbLine
 10
296.0573887376096
 20
153.0390170765165
 30
0.0
 11
295.0979880976675
 21
162.0390170765165
 31
0.0
  0
CIRCLE
  5
2217
330
1F
100
AcDbEntity
  8
SOLBET_Beton
100
AcDbCircle
 10
289.4742902847075
 20
156.0390170765165
 30
0.0
 40
4.85
  0
LINE
  5
2218
330
1F
100
AcDbEntity
  8
SOLBET_Beton
100
AcDbLine
 10
237.4857188612815
 20
150.5362001677383
 30
0.0
 11
237.9327191084022
 21
150.0390170765165
 31
0.0
  0
LINE
  5
2219
330
1F
100
AcDbEntity
  8
SOLBET_Beton
100
AcDbLine
 10
296.4327191084022
 20
150.0390170765165
 30
0.0
 11
296.879719355523
 21
150.5362001677365
 31
0.0
  0
CIRCLE
  5
221A
330
1F
100
AcDbEntity
  8
SOLBET_Beton
100
AcDbCircle
 10
244.8911479321115
 20
156.0390170765165
 30
0.0
 40
4.85
  0
CIRCLE
  5
221B
330
1F
100
AcDbEntity
  8
SOLBET_Beton
100
AcDbCircle
 10
267.1827191084022
 20
156.0390170765165
 30
0.0
 40
4.85
  0
CIRCLE
  5
221C
330
1F
100
AcDbEntity
  8
SOLBET_Beton
100
AcDbCircle
 10
256.0369335202569
 20
156.0390170765165
 30
0.0
 40
4.85
  0
CIRCLE
  5
221D
330
1F
100
AcDbEntity
  8
SOLBET_Beton
100
AcDbCircle
 10
278.3285046965476
 20
156.0390170765165
 30
0.0
 40
4.85
  0
LINE
  5
221E
330
1F
100
AcDbEntity
  8
SOLBET_Beton
100
AcDbLine
 10
296.879719355523
 20
150.5362001677365
 30
0.0
 11
297.1465198159723
 21
153.0390170765165
 31
0.0
  0
LINE
  5
221F
330
1F
100
AcDbEntity
  8
SOLBET_Beton
100
AcDbLine
 10
297.1465198159723
 20
153.0390170765165
 30
0.0
 11
297.7020499734509
 21
153.0390170765165
 31
0.0
  0
LINE
  5
2220
330
1F
100
AcDbEntity
  8
SOLBET_Beton
100
AcDbLine
 10
297.7020499734509
 20
153.0390170765165
 30
0.0
 11
298.661450613393
 21
162.0390170765165
 31
0.0
  0
LINE
  5
2221
330
1F
100
AcDbEntity
  8
SOLBET_Beton
100
AcDbLine
 10
296.879719355523
 20
150.5362001677365
 30
0.0
 11
297.3267196026583
 21
150.0390170765165
 31
0.0
  0
LINE
  5
2222
330
1F
100
AcDbEntity
  8
SOLBET_Beton
100
AcDbLine
 10
297.3267196026583
 20
150.0390170765165
 30
0.0
 11
299.4316405843139
 21
150.0390170765165
 31
0.0
  0
LINE
  5
2223
330
1F
100
AcDbEntity
  8
SOLBET_Tynki_Posadzki
100
AcDbLine
 10
84.12488451448211
 20
150.0390170765165
 30
0.0
 11
84.62488451448212
 21
149.5390170765165
 31
0.0
  0
LINE
  5
2224
330
1F
100
AcDbEntity
  8
SOLBET_Tynki_Posadzki
100
AcDbLine
 10
239.4327191084022
 20
149.5390170765165
 30
0.0
 11
299.4316405843139
 21
149.5390170765165
 31
0.0
  0
LINE
  5
2225
330
1F
100
AcDbEntity
  8
SOLBET_Tynki_Posadzki
100
AcDbLine
 10
238.9327191084023
 20
150.0390170765165
 30
0.0
 11
239.4327191084022
 21
149.5390170765165
 31
0.0
  0
LWPOLYLINE
  5
2227
330
1F
100
AcDbEntity
  8
SOLBET_Zbrojenie_Konstrukcja
100
AcDbPolyline
 90
        2
 70
     1
 43
0.3
 10
296.7817446257697
 20
160.9421503518986
 42
1.0
 10
297.0817446257726
 20
160.9421503518986
 42
1.0
  0
LWPOLYLINE
  5
222C
330
1F
100
AcDbEntity
  8
SOLBET_Ramka_05
100
AcDbPolyline
 90
        4
 70
     1
 43
0.0
 10
0.1888598094933513
 20
0.315129994699646
 10
334.5406339015833
 20
0.315129994699646
 10
334.5406339015833
 20
297.3151299946997
 10
0.1888598094933513
 20
297.3151299946997
  0
MTEXT
  5
222D
102
{ACAD_XDICTIONARY
360
222E
102
}
330
1F
100
AcDbEntity
  8
SOLBET_Wymiary_Opisy @ 1
100
AcDbMText
 10
12.20786141651229
 20
290.2118410854775
 30
0.0
 40
5.0
 41
257.4215849542097
 71
     1
 72
     5
  1
{\LDETAL 66\P}Oparcie stropu z p\U+0142yt kana\U+0142owych na \U+015Bcianach zewn\U+0119trznych jednowarstwowych
  7
Solbet_5
 73
     1
 44
1.0
1001
AcadAnnotative
1000
AnnotativeData
1002
{
1070
     1
1070
     0
1002
}
1001
ACAD
1000
MTEXTBEGIN
1070
    73
1070
     1
1070
    44
1040
1.0
1070
    74
1070
     0
1000
MTEXTEND
  0
MTEXT
  5
2252
102
{ACAD_XDICTIONARY
360
2253
102
}
330
1F
100
AcDbEntity
  8
SOLBET_Wymiary_Opisy @ 1
100
AcDbMText
 10
56.03727975516744
 20
229.540299043269
 30
0.0
 40
5.0
 41
124.2624847080697
 71
     1
 72
     5
  1
Na \U+015Bcianie zewn\U+0119trznej\Pprostopad\U+0142ej do kierunku p\U+0142yt
  7
Solbet_5
 73
     1
 44
1.0
1001
AcadAnnotative
1000
AnnotativeData
1002
{
1070
     1
1070
     0
1002
}
1001
ACAD
1000
MTEXTBEGIN
1070
    73
1070
     1
1070
    44
1040
1.0
1070
    74
1070
     0
1000
MTEXTEND
  0
MTEXT
  5
2257
102
{ACAD_XDICTIONARY
360
2258
102
}
330
1F
100
AcDbEntity
  8
SOLBET_Wymiary_Opisy @ 1
100
AcDbMText
 10
209.3683170375826
 20
230.040299043269
 30
0.0
 40
5.0
 41
124.2624847080697
 71
     1
 72
     5
  1
Na \U+015Bcianie zewn\U+0119trznej\Pr\U+00F3wnoleg\U+0142ej do kierunku p\U+0142yt
  7
Solbet_5
 73
     1
 44
1.0
1001
AcadAnnotative
1000
AnnotativeData
1002
{
1070
     1
1070
     0
1002
}
1001
ACAD
1000
MTEXTBEGIN
1070
    73
1070
     1
1070
    44
1040
1.0
1070
    74
1070
     0
1000
MTEXTEND
  0
LWPOLYLINE
  5
22CF
330
1F
100
AcDbEntity
  8
SOLBET_Bloczki
100
AcDbPolyline
 90
        4
 70
     0
 43
0.0
 10
63.12488451448212
 20
132.3155252380891
 10
63.12488451448212
 20
138.0390170765183
 10
84.12488451448211
 20
138.0390170765183
 10
84.12488451448201
 20
132.3155252380891
  0
LWPOLYLINE
  5
22D6
330
1F
100
AcDbEntity
  8
SOLBET_Bloczki
100
AcDbPolyline
 90
        4
 70
     0
 43
0.0
 10
63.12488451448212
 20
191.7546686772018
 10
63.12488465523142
 20
186.0390172806651
 10
84.12488451448211
 20
186.0390172806651
 10
84.12488451448211
 20
191.7546686772018
  0
LWPOLYLINE
  5
22D7
330
1F
100
AcDbEntity
  8
SOLBET_Bloczki
100
AcDbPolyline
 90
        4
 70
     0
 43
0.0
 10
217.9327191084168
 20
191.7546686772018
 10
217.9327191084168
 20
186.0390170765184
 10
238.9327191084168
 20
186.0390170765167
 10
238.9327191084167
 20
191.7546686772018
  0
LWPOLYLINE
  5
22D8
330
1F
100
AcDbEntity
  8
SOLBET_Bloczki
100
AcDbPolyline
 90
        4
 70
     0
 43
0.0
 10
217.9327191084168
 20
132.3155252380891
 10
217.9327191084168
 20
138.0390170765183
 10
238.9327191084168
 20
138.0390170765183
 10
238.9327191084023
 20
132.3155252380891
  0
HATCH
  5
22DA
330
1F
100
AcDbEntity
  8
SOLBET_Tynki_Posadzki
100
AcDbHatch
 10
0.0
 20
0.0
 30
0.0
210
0.0
220
0.0
230
1.0
  2
AR-CONC
 70
     0
 71
     1
 91
        1
 92
        1
 93
        5
 72
     2
 10
85.48970056414381
 20
164.9848563900578
 40
0.2499999999948557
 50
179.9999999925678
 51
196.8657342987096
 73
     1
 72
     1
 10
85.2504537473526
 20
164.9123239100734
 11
144.6238059903792
 21
164.9123239100734
 72
     1
 10
144.6238059903792
 20
164.9123239100734
 11
144.6238059903792
 21
167.4123239100734
 72
     1
 10
144.6238059903792
 20
167.4123239100734
 11
85.23970056414896
 21
167.4123239100734
 72
     1
 10
85.23970056414896
 20
167.4123239100734
 11
85.23970056414896
 21
164.9848563900903
 97
        1
330
2197
 75
     0
 76
     1
 52
0.0
 41
0.05
 77
     0
 78
    13
 53
50.0
 43
964.0095886349412
 44
0.315129994699646
 45
9.1092334498002
 46
-0.7969542769451543
 79
     2
 49
0.9525000000000002
 49
-10.4775
 53
355.0
 43
964.0095886349412
 44
0.315129994699646
 45
-1.762141298783349
 46
9.552832144108998
 79
     2
 49
0.762
 49
-8.381999999999999
 53
100.451
 43
964.7686886349411
 44
0.248717494699646
 45
7.347125083297962
 46
8.755834391014593
 79
     2
 49
0.8095
 49
-8.9045
 53
46.1842
 43
964.0095886349412
 44
2.855129994699646
 45
13.5539520446065
 46
-2.102116396636357
 79
     2
 49
1.428749999999999
 49
-15.71625
 53
96.63559999999998
 43
965.1390836349412
 44
2.679954994699646
 45
11.87021172331186
 46
12.37127779450246
 79
     2
 49
1.214249999999999
 49
-13.35675
 53
351.184
 43
964.0095886349412
 44
2.855129994699646
 45
11.87023029069669
 46
12.37125589302988
 79
     2
 49
1.143
 49
-12.573
 53
21.0
 43
965.279588634941
 44
2.220129994699646
 45
7.580743991769164
 46
-5.113275925838125
 79
     2
 49
0.9525000000000002
 49
-10.4775
 53
326.0
 43
965.279588634941
 44
2.220129994699646
 45
3.090101417382353
 46
9.209398306115962
 79
     2
 49
0.762
 49
-8.381999999999999
 53
71.45140000000001
 43
965.9113136349411
 44
1.794024994699646
 45
10.67082453850622
 46
4.096142885802872
 79
     2
 49
0.8095
 49
-8.9045
 53
37.5
 43
964.0095886349412
 44
0.315129994699646
 45
0.1544301625295909
 46
4.227751943657655
 79
     6
 49
0.0
 49
-8.2804
 49
0.0
 49
-8.509
 49
0.0
 49
-8.41375
 53
7.499999999999999
 43
964.0095886349412
 44
0.315129994699646
 45
3.340983125515287
 46
5.009028740905975
 79
     6
 49
0.0
 49
-4.851399999999999
 49
0.0
 49
-8.0899
 49
0.0
 49
-3.20675
 53
327.5
 43
961.1774886349412
 44
0.315129994699646
 45
6.779529758343568
 46
-0.2864371996336732
 79
     6
 49
0.0
 49
-3.175
 49
0.0
 49
-9.906
 49
0.0
 49
-13.1445
 53
317.5
 43
959.9074886349411
 44
0.315129994699646
 45
7.406459069300902
 46
1.27132455166665
 79
     6
 49
0.0
 49
-4.1275
 49
0.0
 49
-6.5786
 49
0.0
 49
-9.3345
 98
        1
 10
964.0095886349412
 20
0.315129994699646
1001
ACAD
1010
0.0
1020
0.0
1030
0.0
  0
HATCH
  5
22EC
102
{ACAD_XDICTIONARY
360
275A
102
}
330
1F
100
AcDbEntity
  8
SOLBET_Zbrojenie_Konstrukcja
 62
     7
100
AcDbHatch
 10
0.0
 20
0.0
 30
0.0
210
0.0
220
0.0
230
1.0
  2
SOLID
 70
     1
 71
     0
 91
        2
 92
        1
 93
       16
 72
     2
 10
71.05635662140961
 20
162.2261382636298
 40
0.1527030440125176
 50
232.4805170884664
 51
252.3561576054618
 73
     1
 72
     2
 10
71.10954859685756
 20
162.3933765020513
 40
0.3281966753566917
 50
252.3561575996908
 51
262.494778265247
 73
     1
 72
     2
 10
71.14481658269794
 20
162.6610749223545
 40
0.5982082955845276
 50
262.4947782688246
 51
269.9999999999197
 73
     1
 72
     2
 10
71.1448165826889
 20
162.6610749222449
 40
0.5982082954749899
 50
270.0000000007853
 51
277.5052217318629
 73
     1
 72
     2
 10
71.18008456852972
 20
162.3933765021317
 40
0.3281966754354397
 50
277.5052217315981
 51
287.6438423972045
 73
     1
 72
     2
 10
71.23327654398351
 20
162.2261382636319
 40
0.1527030440148529
 50
287.6438423946902
 51
307.5194829113787
 73
     1
 72
     2
 10
71.3121080203274
 20
162.1234753844629
 40
0.0232655362288987
 50
307.5194829213265
 51
360.0000000079793
 73
     1
 72
     2
 10
71.31210802032727
 20
162.1234753844693
 40
0.0232655362290331
 50
359.9999999921607
 51
412.4805170785089
 73
     1
 72
     2
 10
71.23327654398483
 20
162.0208125053028
 40
0.1527030440120185
 50
52.48051708843016
 51
72.35615760549139
 73
     1
 72
     2
 10
71.18008456852829
 20
161.8535742667941
 40
0.3281966754419953
 50
72.35615760289665
 51
82.49477826829995
 73
     1
 72
     2
 10
71.14481658270317
 20
161.5858758466925
 40
0.5982082954679412
 50
82.4947782694265
 51
90.0000000005812
 73
     1
 72
     2
 10
71.14481658268464
 20
161.5858758465683
 40
0.5982082955922011
 50
89.99999999880632
 51
97.50522172979358
 73
     1
 72
     2
 10
71.10954859686707
 20
161.8535742668834
 40
0.3281966753555106
 50
97.50522173645428
 51
107.6438424021164
 73
     1
 72
     2
 10
71.05635662140551
 20
162.0208125052994
 40
0.1527030440124141
 50
107.643842392939
 51
127.5194829096271
 73
     1
 72
     2
 10
70.97752514506645
 20
162.1234753844636
 40
0.0232655362332359
 50
127.5194829120216
 51
174.8627062185139
 73
     1
 72
     2
 10
70.97752514506305
 20
162.1234753844666
 40
0.0232655362295926
 50
174.8627062251545
 51
232.4805170916285
 73
     1
 97
        0
 92
        1
 93
       16
 72
     2
 10
80.39278728972428
 20
162.2261382636298
 40
0.1527030440125176
 50
52.48051708846642
 51
72.35615760546181
 73
     0
 72
     2
 10
80.33959531426905
 20
162.3933765021333
 40
0.3281966754370635
 50
72.35615760282067
 51
82.4947782683767
 73
     0
 72
     2
 10
80.30432732842866
 20
162.6610749222435
 40
0.5982082954735976
 50
82.49477826812775
 51
89.99999999922282
 73
     0
 72
     2
 10
80.30432732844499
 20
162.6610749222449
 40
0.5982082954749899
 50
90.00000000078536
 51
97.50522173186293
 73
     0
 72
     2
 10
80.26905934260417
 20
162.3933765021317
 40
0.3281966754354397
 50
97.50522173159811
 51
107.6438423972044
 73
     0
 72
     2
 10
80.21586736715038
 20
162.2261382636319
 40
0.1527030440148529
 50
107.6438423946903
 51
127.5194829113786
 73
     0
 72
     2
 10
80.13703589080648
 20
162.1234753844629
 40
0.0232655362288987
 50
127.5194829213265
 51
180.0000000079793
 73
     0
 72
     2
 10
80.13703589080661
 20
162.1234753844693
 40
0.0232655362290331
 50
179.9999999921607
 51
232.480517078509
 73
     0
 72
     2
 10
80.21586736714906
 20
162.0208125053028
 40
0.1527030440120185
 50
232.4805170884302
 51
252.3561576054914
 73
     0
 72
     2
 10
80.26905934260559
 20
161.8535742667941
 40
0.3281966754419953
 50
252.3561576028967
 51
262.4947782683
 73
     0
 72
     2
 10
80.30432732843072
 20
161.5858758466925
 40
0.5982082954679412
 50
262.4947782694265
 51
270.0000000005812
 73
     0
 72
     2
 10
80.30432732844197
 20
161.5858758466792
 40
0.5982082954812711
 50
269.9999999995033
 51
277.5052217304904
 73
     0
 72
     2
 10
80.33959531425955
 20
161.8535742668014
 40
0.3281966754358544
 50
277.5052217333252
 51
287.6438423989881
 73
     0
 72
     2
 10
80.39278728972837
 20
162.0208125052994
 40
0.1527030440124141
 50
287.6438423929391
 51
307.5194829096272
 73
     0
 72
     2
 10
80.47161876606743
 20
162.1234753844636
 40
0.0232655362332359
 50
307.5194829120216
 51
354.8627062185139
 73
     0
 72
     2
 10
80.47161876607082
 20
162.1234753844666
 40
0.0232655362295926
 50
354.8627062251546
 51
412.4805170916284
 73
     0
 97
        0
 75
     0
 76
     1
 98
        1
 10
964.0095886349412
 20
0.2027974308385865
1001
ACAD
1010
0.0
1020
0.0
1030
0.0
  0
LINE
  5
22ED
330
1F
100
AcDbEntity
  8
SOLBET_Beton
100
AcDbLine
 10
80.49120863500343
 20
162.0390170765165
 30
0.0
 11
76.12488451448212
 21
154.5390170765165
 31
0.0
  0
LINE
  5
22EE
330
1F
100
AcDbEntity
  8
SOLBET_Beton
100
AcDbLine
 10
76.12488451448212
 20
154.5390170765165
 30
0.0
 11
76.12488451448212
 21
150.0390170765165
 31
0.0
  0
LINE
  5
22EF
330
1F
100
AcDbEntity
  8
SOLBET_Beton
100
AcDbLine
 10
76.12488451448212
 20
150.0390170765165
 30
0.0
 11
144.6238059903792
 21
150.0390170765165
 31
0.0
  0
LINE
  5
22F0
330
1F
100
AcDbEntity
  8
SOLBET_Beton
100
AcDbLine
 10
144.6238059903792
 20
150.0390170765165
 30
0.0
 11
144.6238059903792
 21
160.8890170765169
 31
0.0
  0
LINE
  5
22F1
330
1F
100
AcDbEntity
  8
SOLBET_Beton
100
AcDbLine
 10
144.6238059903792
 20
160.8890170765169
 30
0.0
 11
79.82170560319559
 21
160.8890170765169
 31
0.0
  0
LINE
  5
22F2
330
1F
100
AcDbEntity
  8
SOLBET_Beton
100
AcDbLine
 10
80.49120863500343
 20
162.0390170765165
 30
0.0
 11
144.6238060025356
 21
162.0390170765169
 31
0.0
  0
LINE
  5
22F3
330
1F
100
AcDbEntity
  8
SOLBET_Beton
100
AcDbLine
 10
144.6238060025356
 20
162.0390170765169
 30
0.0
 11
144.6238059903792
 21
160.8890170765169
 31
0.0
  0
LINE
  5
22F4
330
1F
100
AcDbEntity
  8
SOLBET_Beton
100
AcDbLine
 10
76.12488451448212
 20
154.5390170765165
 30
0.0
 11
144.6238059903792
 21
154.5390170765165
 31
0.0
  0
LINE
  5
22F5
330
1F
100
AcDbEntity
  8
SOLBET_Beton
100
AcDbLine
 10
144.6238059903792
 20
151.189017076518
 30
0.0
 11
76.12488451448212
 21
151.189017076518
 31
0.0
  0
LINE
  5
22F6
330
1F
100
AcDbEntity
  8
SOLBET_Izolacja
100
AcDbLine
 10
84.12488465523143
 20
162.0390170765165
 30
0.0
 11
144.6238060025356
 21
162.0390170765169
 31
0.0
  0
LINE
  5
22F7
330
1F
100
AcDbEntity
  8
SOLBET_Izolacja
100
AcDbLine
 10
144.6238060025356
 20
162.0390170765169
 30
0.0
 11
144.6238060025356
 21
164.5390170765183
 31
0.0
  0
LINE
  5
22F8
330
1F
100
AcDbEntity
  8
SOLBET_Izolacja
  6
BATTING
 48
0.12
100
AcDbLine
 10
144.6238060025356
 20
163.2890170765176
 30
0.0
 11
85.12488451448211
 21
163.2890170765176
 31
0.0
  0
LINE
  5
22F9
330
1F
100
AcDbEntity
  8
SOLBET_Izolacja
  6
BATTING
 48
0.049
100
AcDbLine
 10
84.62488451448212
 20
167.4123239100734
 30
0.0
 11
84.62488451448223
 21
162.0390170765165
 31
0.0
  0
LINE
  5
231D
330
1F
100
AcDbEntity
  8
SOLBET_Izolacja
100
AcDbLine
 10
67.12488451448212
 20
162.0390170765167
 30
0.0
 11
70.12488451448223
 21
162.0390170765167
 31
0.0
  0
LINE
  5
231E
330
1F
100
AcDbEntity
  8
SOLBET_Izolacja
100
AcDbLine
 10
67.12488451448212
 20
142.0390170765183
 30
0.0
 11
70.12488451448212
 21
142.0390170765183
 31
0.0
  0
LINE
  5
231F
330
1F
100
AcDbEntity
  8
SOLBET_Izolacja
  6
BATTING
 48
0.145
100
AcDbLine
 10
68.62488451448212
 20
142.0390170765183
 30
0.0
 11
68.62488451448212
 21
162.0390170765165
 31
0.0
  0
LWPOLYLINE
  5
2320
102
{ACAD_REACTORS
330
2322
102
}
330
1F
100
AcDbEntity
  8
SOLBET_Tynki_Posadzki
100
AcDbPolyline
 90
        5
 70
     0
 43
0.0
 10
240.0582883412873
 20
164.9123239100734
 10
299.4316405843139
 20
164.9123239100734
 10
299.4316405843139
 20
167.4123239100734
 10
240.0475351580837
 20
167.4123239100734
 10
240.0475351580837
 20
164.9848563900903
  0
HATCH
  5
2322
330
1F
100
AcDbEntity
  8
SOLBET_Tynki_Posadzki
100
AcDbHatch
 10
0.0
 20
0.0
 30
0.0
210
0.0
220
0.0
230
1.0
  2
AR-CONC
 70
     0
 71
     1
 91
        1
 92
       33
 93
        4
 72
     1
 10
240.0582883412873
 20
164.9123239100734
 11
299.4316405843139
 21
164.9123239100734
 72
     1
 10
299.4316405843139
 20
164.9123239100734
 11
299.4316405843139
 21
167.4123239100734
 72
     1
 10
299.4316405843139
 20
167.4123239100734
 11
240.0475351580837
 21
167.4123239100734
 72
     1
 10
240.0475351580837
 20
167.4123239100734
 11
240.0475351580837
 21
164.9848563900903
 97
        1
330
2320
 75
     0
 76
     1
 52
0.0
 41
0.05
 77
     0
 78
    13
 53
50.0
 43
973.9719868458516
 44
0.315129994699646
 45
9.1092334498002
 46
-0.7969542769451543
 79
     2
 49
0.9525000000000002
 49
-10.4775
 53
355.0
 43
973.9719868458516
 44
0.315129994699646
 45
-1.762141298783349
 46
9.552832144108998
 79
     2
 49
0.762
 49
-8.381999999999999
 53
100.451
 43
974.7310868458516
 44
0.248717494699646
 45
7.347125083297962
 46
8.755834391014593
 79
     2
 49
0.8095
 49
-8.9045
 53
46.1842
 43
973.9719868458516
 44
2.855129994699646
 45
13.5539520446065
 46
-2.102116396636357
 79
     2
 49
1.428749999999999
 49
-15.71625
 53
96.63559999999998
 43
975.1014818458516
 44
2.679954994699646
 45
11.87021172331186
 46
12.37127779450246
 79
     2
 49
1.214249999999999
 49
-13.35674999999999
 53
351.184
 43
973.9719868458516
 44
2.855129994699646
 45
11.87023029069669
 46
12.37125589302988
 79
     2
 49
1.143
 49
-12.573
 53
21.0
 43
975.2419868458515
 44
2.220129994699646
 45
7.580743991769164
 46
-5.113275925838125
 79
     2
 49
0.9525000000000002
 49
-10.4775
 53
326.0
 43
975.2419868458515
 44
2.220129994699646
 45
3.090101417382353
 46
9.209398306115962
 79
     2
 49
0.762
 49
-8.381999999999999
 53
71.45140000000001
 43
975.8737118458515
 44
1.794024994699646
 45
10.67082453850622
 46
4.096142885802872
 79
     2
 49
0.8095
 49
-8.9045
 53
37.5
 43
973.9719868458516
 44
0.315129994699646
 45
0.1544301625295909
 46
4.227751943657655
 79
     6
 49
0.0
 49
-8.2804
 49
0.0
 49
-8.509
 49
0.0
 49
-8.41375
 53
7.499999999999999
 43
973.9719868458516
 44
0.315129994699646
 45
3.340983125515287
 46
5.009028740905975
 79
     6
 49
0.0
 49
-4.851399999999999
 49
0.0
 49
-8.0899
 49
0.0
 49
-3.20675
 53
327.5
 43
971.1398868458516
 44
0.315129994699646
 45
6.779529758343568
 46
-0.2864371996336732
 79
     6
 49
0.0
 49
-3.175
 49
0.0
 49
-9.906
 49
0.0
 49
-13.1445
 53
317.5
 43
969.8698868458516
 44
0.315129994699646
 45
7.406459069300902
 46
1.27132455166665
 79
     6
 49
0.0
 49
-4.1275
 49
0.0
 49
-6.5786
 49
0.0
 49
-9.3345
 98
        1
 10
973.9719868458516
 20
0.315129994699646
1001
ACAD
1010
0.0
1020
0.0
1030
0.0
  0
LINE
  5
2333
330
1F
100
AcDbEntity
  8
SOLBET_Izolacja
100
AcDbLine
 10
299.4316405843139
 20
164.5390170765183
 30
0.0
 11
299.4316405843139
 21
162.0390170765165
 31
0.0
  0
LINE
  5
2334
330
1F
100
AcDbEntity
  8
SOLBET_Izolacja
100
AcDbLine
 10
299.4316405843139
 20
162.0390170765165
 30
0.0
 11
238.9327191084168
 21
162.0390170765165
 31
0.0
  0
LINE
  5
2335
330
1F
100
AcDbEntity
  8
SOLBET_Izolacja
100
AcDbLine
 10
238.9327191084168
 20
162.0390170765165
 30
0.0
 11
238.9327191084168
 21
167.4123239100734
 31
0.0
  0
LINE
  5
2336
330
1F
100
AcDbEntity
  8
SOLBET_Izolacja
  6
BATTING
 48
0.049
100
AcDbLine
 10
239.4327191084022
 20
167.4123239100734
 30
0.0
 11
239.4327191084022
 21
162.0390170765165
 31
0.0
  0
LINE
  5
2337
330
1F
100
AcDbEntity
  8
SOLBET_Izolacja
  6
BATTING
 48
0.12
100
AcDbLine
 10
299.4316405843139
 20
163.2890170765174
 30
0.0
 11
239.9327191084022
 21
163.2890170765174
 31
0.0
  0
LINE
  5
2338
330
1F
100
AcDbEntity
  8
SOLBET_Izolacja
100
AcDbLine
 10
221.9327189386091
 20
162.0390170765165
 30
0.0
 11
224.9327191084022
 21
162.0390170765165
 31
0.0
  0
LINE
  5
2339
330
1F
100
AcDbEntity
  8
SOLBET_Izolacja
100
AcDbLine
 10
221.9327189386091
 20
150.0390172811534
 30
0.0
 11
224.9327191084022
 21
150.0390172811534
 31
0.0
  0
LINE
  5
233A
330
1F
100
AcDbEntity
  8
SOLBET_Izolacja
  6
BATTING
 48
0.148
100
AcDbLine
 10
223.4406772551113
 20
162.0390170765165
 30
0.0
 11
223.4327190235057
 21
150.0390170765165
 31
0.0
  0
LEADER
  5
233D
330
1F
100
AcDbEntity
  8
SOLBET_Wymiary_Opisy
100
AcDbLeader
  3
Solbet$7
 73
     0
 75
     1
 40
3.25
 41
27.25
 76
     3
 10
75.56056712693771
 20
162.406444092934
 30
0.0
 10
49.20715643148355
 20
174.1337037544265
 30
0.0
 10
46.70715643148355
 20
174.1337037544265
 30
0.0
340
233E
213
1.177601578005123
223
-0.1753245211093599
233
0.0
1001
ACAD
1000
DSTYLE
1002
{
1070
   147
1040
0.625
1070
    77
1070
     1
1002
}
  0
MTEXT
  5
233E
102
{ACAD_REACTORS
330
233D
102
}
330
1F
100
AcDbEntity
  8
SOLBET_Wymiary_Opisy
100
AcDbMText
 10
44.90455485347843
 20
178.1840282755358
 30
0.0
 40
2.5
 41
0.0
 71
     3
 72
     1
  1
Zbrojenie MURFOR
  7
Solbet_2_5
 73
     1
 44
1.0
1001
ACAD
1000
MTEXTBEGIN
1070
    73
1070
     1
1070
    44
1040
1.0
1070
    74
1070
     0
1000
MTEXTEND
  0
LEADER
  5
233F
330
1F
100
AcDbEntity
  8
SOLBET_Wymiary_Opisy
100
AcDbLeader
  3
Solbet$7
 73
     0
 75
     1
 40
3.25
 41
31.0
 76
     3
 10
68.28967843033137
 20
158.9357943414659
 30
0.0
 10
50.370621621287
 20
166.4459696566089
 30
0.0
 10
47.870621621287
 20
166.4459696566089
 30
0.0
340
2340
213
1.177601578005123
223
-0.1753245211093599
233
0.0
1001
ACAD
1000
DSTYLE
1002
{
1070
   147
1040
0.625
1070
    77
1070
     1
1002
}
  0
MTEXT
  5
2340
102
{ACAD_REACTORS
330
233F
102
}
330
1F
100
AcDbEntity
  8
SOLBET_Wymiary_Opisy
100
AcDbMText
 10
46.06802004328187
 20
170.4962941777182
 30
0.0
 40
2.5
 41
0.0
 71
     3
 72
     1
  1
Warstwa docieplenia
  7
Solbet_2_5
 73
     1
 44
1.0
1001
ACAD
1000
MTEXTBEGIN
1070
    73
1070
     1
1070
    44
1040
1.0
1070
    74
1070
     0
1000
MTEXTEND
  0
LEADER
  5
2341
330
1F
100
AcDbEntity
  8
SOLBET_Wymiary_Opisy
100
AcDbLeader
  3
Solbet$7
 73
     0
 75
     1
 40
3.25
 41
23.25
 76
     3
 10
64.84611119658097
 20
152.6112042239103
 30
0.0
 10
50.15794283435048
 20
158.8203686160793
 30
0.0
 10
47.65794283435048
 20
158.8203686160793
 30
0.0
340
2342
213
1.177601578005123
223
-0.1753245211093599
233
0.0
1001
ACAD
1000
DSTYLE
1002
{
1070
   147
1040
0.625
1070
    77
1070
     1
1002
}
  0
MTEXT
  5
2342
102
{ACAD_XDICTIONARY
360
275C
102
}
102
{ACAD_REACTORS
330
2341
102
}
330
1F
100
AcDbEntity
  8
SOLBET_Wymiary_Opisy
100
AcDbMText
 10
45.85534125634535
 20
162.8706931371887
 30
0.0
 40
2.5
 41
0.0
 71
     3
 72
     1
  1
P\U+0142ytka SOLBET
  7
Solbet_2_5
 73
     1
 44
1.0
1001
ACAD
1000
MTEXTBEGIN
1070
    73
1070
     1
1070
    44
1040
1.0
1070
    74
1070
     0
1000
MTEXTEND
  0
LEADER
  5
2343
330
1F
100
AcDbEntity
  8
SOLBET_Wymiary_Opisy
100
AcDbLeader
  3
Solbet$7
 73
     0
 75
     1
 40
3.25
 41
27.75
 76
     3
 10
73.6089787090516
 20
155.5641806381024
 30
0.0
 10
50.46417426560515
 20
137.1280301795934
 30
0.0
 10
47.96417426560515
 20
137.1280301795934
 30
0.0
340
2344
213
1.177601578005123
223
-0.1753245211093599
233
0.0
1001
ACAD
1000
DSTYLE
1002
{
1070
   147
1040
0.625
1070
    77
1070
     1
1002
}
  0
MTEXT
  5
2344
102
{ACAD_XDICTIONARY
360
275E
102
}
102
{ACAD_REACTORS
330
2343
102
}
330
1F
100
AcDbEntity
  8
SOLBET_Wymiary_Opisy
100
AcDbMText
 10
46.16157268760002
 20
141.1783547007028
 30
0.0
 40
2.5
 41
0.0
 71
     3
 72
     1
  1
Wieniec \U+017Celbetowy
  7
Solbet_2_5
 73
     1
 44
1.0
1001
ACAD
1000
MTEXTBEGIN
1070
    73
1070
     1
1070
    44
1040
1.0
1070
    74
1070
     0
1000
MTEXTEND
  0
LEADER
  5
2358
330
1F
100
AcDbEntity
  8
SOLBET_Wymiary_Opisy
100
AcDbLeader
  3
Solbet$7
 73
     0
 75
     1
 40
6.668560606060606
 41
34.5
 76
     3
 10
73.62488451448212
 20
139.6415792481236
 30
0.0
 10
50.48008007103567
 20
117.786868183554
 30
0.0
 10
47.98008007103567
 20
117.786868183554
 30
0.0
340
2359
213
1.177601578005123
223
-0.1753245211093599
233
0.0
1001
ACAD
1000
DSTYLE
1002
{
1070
   147
1040
0.625
1070
    77
1070
     1
1002
}
  0
MTEXT
  5
2359
102
{ACAD_XDICTIONARY
360
2760
102
}
102
{ACAD_REACTORS
330
2358
102
}
330
1F
100
AcDbEntity
  8
SOLBET_Wymiary_Opisy
100
AcDbMText
 10
46.17747849303055
 20
125.255753310724
 30
0.0
 40
2.5
 41
0.0
 71
     3
 72
     1
  1
Poduszka betonowa \Pw kszta\U+0142tce U SOLBET
  7
Solbet_2_5
 73
     1
 44
1.0
1001
ACAD
1000
MTEXTBEGIN
1070
    73
1070
     1
1070
    44
1040
1.0
1070
    74
1070
     0
1000
MTEXTEND
  0
LEADER
  5
2362
330
1F
100
AcDbEntity
  8
SOLBET_Wymiary_Opisy
100
AcDbLeader
  3
Solbet$7
 73
     0
 74
     0
 75
     1
 40
7.666666666666666
 41
34.75
 76
     3
 10
90.62093211067008
 20
160.6603026392747
 30
0.0
 10
103.022672633165
 20
174.2948153934186
 30
0.0
 10
105.522672633165
 20
174.2948153934186
 30
0.0
340
2363
213
1.177601578005123
223
-0.1753245211093599
233
0.0
1001
ACAD
1000
DSTYLE
1002
{
1070
   147
1040
0.625
1070
    77
1070
     1
1002
}
  0
MTEXT
  5
2363
102
{ACAD_XDICTIONARY
360
2762
102
}
102
{ACAD_REACTORS
330
2362
102
}
330
1F
100
AcDbEntity
  8
SOLBET_Wymiary_Opisy
100
AcDbMText
 10
104.9700710551599
 20
182.7618065811946
 30
0.0
 40
2.5
 41
0.0
 71
     1
 72
     1
  1
Zbrojenie g\U+00F3rne\Pstrefy przypodporowej
  7
Solbet_2_5
 73
     1
 44
1.0
1001
ACAD
1000
MTEXTBEGIN
1070
    73
1070
     1
1070
    44
1040
1.0
1070
    74
1070
     0
1000
MTEXTEND
  0
LEADER
  5
2365
330
1F
100
AcDbEntity
  8
SOLBET_Wymiary_Opisy
100
AcDbLeader
  3
Solbet$7
 73
     0
 75
     1
 40
3.25
 41
27.25
 76
     3
 10
230.4551778989776
 20
162.4885993537378
 30
0.0
 10
205.3110181615707
 20
172.1893936612144
 30
0.0
 10
202.8110181615707
 20
172.1893936612144
 30
0.0
340
2366
213
1.177601578005123
223
-0.1753245211093599
233
0.0
1001
ACAD
1000
DSTYLE
1002
{
1070
   147
1040
0.625
1070
    77
1070
     1
1002
}
  0
MTEXT
  5
2366
102
{ACAD_REACTORS
330
2365
102
}
330
1F
100
AcDbEntity
  8
SOLBET_Wymiary_Opisy
100
AcDbMText
 10
201.0084165835656
 20
176.2397181823238
 30
0.0
 40
2.5
 41
0.0
 71
     3
 72
     1
  1
Zbrojenie MURFOR
  7
Solbet_2_5
 73
     1
 44
1.0
1001
ACAD
1000
MTEXTBEGIN
1070
    73
1070
     1
1070
    44
1040
1.0
1070
    74
1070
     0
1000
MTEXTEND
  0
LEADER
  5
2367
330
1F
100
AcDbEntity
  8
SOLBET_Wymiary_Opisy
100
AcDbLeader
  3
Solbet$7
 73
     0
 75
     1
 40
3.25
 41
31.0
 76
     3
 10
223.1320505957961
 20
158.8996820581433
 30
0.0
 10
205.2129937867517
 20
166.4098573732863
 30
0.0
 10
202.7129937867516
 20
166.4098573732863
 30
0.0
340
2368
213
1.177601578005123
223
-0.1753245211093599
233
0.0
1001
ACAD
1000
DSTYLE
1002
{
1070
   147
1040
0.625
1070
    77
1070
     1
1002
}
  0
MTEXT
  5
2368
102
{ACAD_REACTORS
330
2367
102
}
330
1F
100
AcDbEntity
  8
SOLBET_Wymiary_Opisy
100
AcDbMText
 10
200.9103922087466
 20
170.4601818943956
 30
0.0
 40
2.5
 41
0.0
 71
     3
 72
     1
  1
Warstwa docieplenia
  7
Solbet_2_5
 73
     1
 44
1.0
1001
ACAD
1000
MTEXTBEGIN
1070
    73
1070
     1
1070
    44
1040
1.0
1070
    74
1070
     0
1000
MTEXTEND
  0
LEADER
  5
2369
330
1F
100
AcDbEntity
  8
SOLBET_Wymiary_Opisy
100
AcDbLeader
  3
Solbet$7
 73
     0
 75
     1
 40
3.25
 41
23.25
 76
     3
 10
219.6884833620456
 20
152.5750919405877
 30
0.0
 10
205.0003149998151
 20
158.7842563327567
 30
0.0
 10
202.5003149998152
 20
158.7842563327567
 30
0.0
340
236A
213
1.177601578005123
223
-0.1753245211093599
233
0.0
1001
ACAD
1000
DSTYLE
1002
{
1070
   147
1040
0.625
1070
    77
1070
     1
1002
}
  0
MTEXT
  5
236A
102
{ACAD_XDICTIONARY
360
2764
102
}
102
{ACAD_REACTORS
330
2369
102
}
330
1F
100
AcDbEntity
  8
SOLBET_Wymiary_Opisy
100
AcDbMText
 10
200.69771342181
 20
162.8345808538661
 30
0.0
 40
2.5
 41
0.0
 71
     3
 72
     1
  1
P\U+0142ytka SOLBET
  7
Solbet_2_5
 73
     1
 44
1.0
1001
ACAD
1000
MTEXTBEGIN
1070
    73
1070
     1
1070
    44
1040
1.0
1070
    74
1070
     0
1000
MTEXTEND
  0
LEADER
  5
236B
330
1F
100
AcDbEntity
  8
SOLBET_Wymiary_Opisy
100
AcDbLeader
  3
Solbet$7
 73
     0
 75
     1
 40
3.25
 41
27.75
 76
     3
 10
228.4513508745163
 20
155.5280683547798
 30
0.0
 10
205.3065464310698
 20
137.0919178962708
 30
0.0
 10
202.8065464310698
 20
137.0919178962708
 30
0.0
340
236C
213
1.177601578005123
223
-0.1753245211093599
233
0.0
1001
ACAD
1000
DSTYLE
1002
{
1070
   147
1040
0.625
1070
    77
1070
     1
1002
}
  0
MTEXT
  5
236C
102
{ACAD_XDICTIONARY
360
2766
102
}
102
{ACAD_REACTORS
330
236B
102
}
330
1F
100
AcDbEntity
  8
SOLBET_Wymiary_Opisy
100
AcDbMText
 10
201.0039448530647
 20
141.1422424173802
 30
0.0
 40
2.5
 41
0.0
 71
     3
 72
     1
  1
Wieniec \U+017Celbetowy
  7
Solbet_2_5
 73
     1
 44
1.0
1001
ACAD
1000
MTEXTBEGIN
1070
    73
1070
     1
1070
    44
1040
1.0
1070
    74
1070
     0
1000
MTEXTEND
  0
LEADER
  5
236D
330
1F
100
AcDbEntity
  8
SOLBET_Wymiary_Opisy
100
AcDbLeader
  3
Solbet$7
 73
     0
 75
     1
 40
7.666666666666666
 41
34.75
 76
     3
 10
296.715489100845
 20
161.5624822549064
 30
0.0
 10
288.7367030334209
 20
174.2948153934186
 30
0.0
 10
286.2367030334209
 20
174.2948153934186
 30
0.0
340
236E
213
1.177601578005123
223
-0.1753245211093599
233
0.0
1001
ACAD
1000
DSTYLE
1002
{
1070
   147
1040
0.625
1070
    77
1070
     1
1002
}
  0
MTEXT
  5
236E
102
{ACAD_XDICTIONARY
360
2768
102
}
102
{ACAD_REACTORS
330
236D
102
}
330
1F
100
AcDbEntity
  8
SOLBET_Wymiary_Opisy
100
AcDbMText
 10
249.6841014554158
 20
182.7618065811946
 30
0.0
 40
2.5
 41
0.0
 71
     1
 72
     1
  1
Zbrojenie g\U+00F3rne\Pstrefy przypodporowej
  7
Solbet_2_5
 73
     1
 44
1.0
1001
ACAD
1000
MTEXTBEGIN
1070
    73
1070
     1
1070
    44
1040
1.0
1070
    74
1070
     0
1000
MTEXTEND
  0
CIRCLE
  5
238F
330
1F
100
AcDbEntity
  8
SOLBET_Wymiary_Opisy
100
AcDbCircle
 10
141.5722616047602
 20
163.885590735973
 30
0.0
 40
6.72794034480946
  0
LEADER
  5
2390
330
1F
100
AcDbEntity
  8
SOLBET_Wymiary_Opisy
100
AcDbLeader
  3
Solbet$7
 73
     0
 74
     0
 75
     1
 40
5.0
 41
4.0
 76
     3
 10
145.1938352748772
 20
169.5556335431509
 30
0.0
 10
148.1649854756937
 20
173.5541202821948
 30
0.0
 10
150.6649854756937
 20
173.5541202821948
 30
0.0
213
0.8103787685154202
223
-0.1753245211093599
233
0.0
1001
ACAD
1000
DSTYLE
1002
{
1070
   341
1005
1EF2
1070
   147
1040
0.625
1070
    77
1070
     1
1002
}
  0
MTEXT
  5
2391
102
{ACAD_REACTORS
330
2390
102
}
330
1F
100
AcDbEntity
  8
SOLBET_Wymiary_Opisy
100
AcDbMText
 10
154.4796067071783
 20
179.3544448033042
 30
0.0
 40
5.0
 41
0.0
 71
     3
 72
     1
  1
A
  7
Solbet_5
 73
     1
 44
1.0
1001
ACAD
1000
MTEXTBEGIN
1070
    73
1070
     1
1070
    44
1040
1.0
1070
    74
1070
     0
1000
MTEXTEND
  0
LEADER
  5
2392
330
1F
100
AcDbEntity
  8
SOLBET_Wymiary_Opisy
100
AcDbLeader
  3
Solbet$7
 73
     0
 74
     0
 75
     1
 40
3.5
 41
37.25
 76
     3
 10
127.8052293364098
 20
74.92141896051292
 30
0.0
 10
149.842612018122
 20
84.0410236811874
 30
0.0
 10
152.342612018122
 20
84.0410236811874
 30
0.0
213
1.177601578005123
223
-0.1753245211093599
233
0.0
1001
ACAD
1000
DSTYLE
1002
{
1070
   147
1040
0.625
1070
    77
1070
     1
1002
}
  0
MTEXT
  5
2393
102
{ACAD_XDICTIONARY
360
276A
102
}
102
{ACAD_REACTORS
330
2392
102
}
330
1F
100
AcDbEntity
  8
SOLBET_Wymiary_Opisy
100
AcDbMText
 10
151.7900104401169
 20
88.34134820229676
 30
0.0
 40
2.5
 41
0.0
 71
     1
 72
     1
  1
Warstwa wyko\U+0144czeniowa
  7
Solbet_2_5
 73
     1
 44
1.0
1001
ACAD
1000
MTEXTBEGIN
1070
    73
1070
     1
1070
    44
1040
1.0
1070
    74
1070
     0
1000
MTEXTEND
  0
LEADER
  5
2394
330
1F
100
AcDbEntity
  8
SOLBET_Wymiary_Opisy
100
AcDbLeader
  3
Solbet$7
 73
     0
 74
     0
 75
     1
 40
3.25
 41
32.5
 76
     3
 10
125.6992969070875
 20
67.15530014409408
 30
0.0
 10
149.7029226570644
 20
77.79981715059669
 30
0.0
 10
152.2029226570644
 20
77.79981715059669
 30
0.0
213
0.0
223
-0.2322806831707567
233
0.0
1001
ACAD
1000
DSTYLE
1002
{
1070
   147
1040
0.625
1070
    77
1070
     1
1002
}
  0
MTEXT
  5
2395
102
{ACAD_REACTORS
330
2394
102
}
330
1F
100
AcDbEntity
  8
SOLBET_Wymiary_Opisy
100
AcDbMText
 10
151.5912233886322
 20
81.90709783376744
 30
0.0
 40
2.5
 41
0.0
 71
     1
 72
     1
  1
Wylewka jastrychowa
  7
Solbet_2_5
 73
     1
 44
1.0
1001
ACAD
1000
MTEXTBEGIN
1070
    73
1070
     1
1070
    44
1040
1.0
1070
    74
1070
     0
1000
MTEXTEND
  0
LEADER
  5
2396
330
1F
100
AcDbEntity
  8
SOLBET_Wymiary_Opisy
100
AcDbLeader
  3
Solbet$7
 73
     0
 74
     0
 75
     1
 40
3.25
 41
19.75
 76
     3
 10
127.7378457407867
 20
60.26164044440422
 30
0.0
 10
149.7489650576349
 20
71.56466007181892
 30
0.0
 10
152.2489650576349
 20
71.56466007181892
 30
0.0
213
0.0
223
-0.2322806831707567
233
0.0
1001
ACAD
1000
DSTYLE
1002
{
1070
   147
1040
0.625
1070
    77
1070
     1
1002
}
  0
MTEXT
  5
2397
102
{ACAD_REACTORS
330
2396
102
}
330
1F
100
AcDbEntity
  8
SOLBET_Wymiary_Opisy
100
AcDbMText
 10
151.7900104401169
 20
75.67194075498967
 30
0.0
 40
2.5
 41
0.0
 71
     1
 72
     1
  1
Hydroizolacja
  7
Solbet_2_5
 73
     1
 44
1.0
1001
ACAD
1000
MTEXTBEGIN
1070
    73
1070
     1
1070
    44
1040
1.0
1070
    74
1070
     0
1000
MTEXTEND
  0
LEADER
  5
2398
330
1F
100
AcDbEntity
  8
SOLBET_Wymiary_Opisy
100
AcDbLeader
  3
Solbet$7
 73
     0
 74
     0
 75
     1
 40
3.25
 41
36.5
 76
     3
 10
131.0308431271788
 20
51.2145887674278
 30
0.0
 10
149.8406573380853
 20
61.63073804558415
 30
0.0
 10
152.3406573380853
 20
61.63073804558415
 30
0.0
213
0.0
223
-0.2322806831707567
233
0.0
1001
ACAD
1000
DSTYLE
1002
{
1070
   147
1040
0.625
1070
    77
1070
     1
1002
}
  0
MTEXT
  5
2399
102
{ACAD_XDICTIONARY
360
276C
102
}
102
{ACAD_REACTORS
330
2398
102
}
330
1F
100
AcDbEntity
  8
SOLBET_Wymiary_Opisy
100
AcDbMText
 10
151.7900104401169
 20
65.94999763605277
 30
0.0
 40
2.5
 41
0.0
 71
     1
 72
     1
  1
P\U+0142yty izolacyjne twarde
  7
Solbet_2_5
 73
     1
 44
1.0
1001
ACAD
1000
MTEXTBEGIN
1070
    73
1070
     1
1070
    44
1040
1.0
1070
    74
1070
     0
1000
MTEXTEND
  0
LINE
  5
239A
330
1F
100
AcDbEntity
  8
SOLBET_Izolacja
100
AcDbLine
 10
93.8732411043893
 20
46.78244387654375
 30
0.0
 11
137.7595870439954
 21
46.78244387654375
 31
0.0
  0
LINE
  5
239B
330
1F
100
AcDbEntity
  8
SOLBET_Izolacja
100
AcDbLine
 10
93.8732411043893
 20
59.2824438765437
 30
0.0
 11
137.7595870439954
 21
59.28244387654375
 31
0.0
  0
LINE
  5
239C
330
1F
100
AcDbEntity
  8
SOLBET_Tynki_Posadzki
100
AcDbLine
 10
102.4884339664404
 20
76.14897804431977
 30
0.0
 11
137.7595870439954
 21
76.14897804431977
 31
0.0
  0
LINE
  5
239D
330
1F
100
AcDbEntity
  8
SOLBET_Emulsje_Folie
100
AcDbLine
 10
94.0735026004304
 20
60.26164044440422
 30
0.0
 11
137.7595870439954
 21
60.26164044440422
 31
0.0
  0
HATCH
  5
239E
330
1F
100
AcDbEntity
  8
SOLBET_Tynki_Posadzki
100
AcDbHatch
 10
0.0
 20
0.0
 30
0.0
210
0.0
220
0.0
230
1.0
  2
AR-CONC
 70
     0
 71
     0
 91
        1
 92
        5
 93
        4
 72
     2
 10
126.9272428603472
 20
53.03244387654387
 40
33.63970172404727
 50
142.2031821742316
 51
166.0379938227853
 73
     1
 72
     1
 10
94.28139465286177
 20
61.14897804432074
 11
137.7595870439951
 21
61.14897804432074
 72
     1
 10
137.7595870439954
 20
61.14897804432074
 11
137.759587043996
 21
73.64897804431961
 72
     1
 10
137.7595870439959
 20
73.64897804431961
 11
100.3455188569686
 21
73.64897804431961
 97
        0
 75
     0
 76
     1
 52
0.0
 41
0.03
 77
     0
 78
    13
 53
50.0
 43
763.855437980751
 44
-24.09957490219383
 45
5.46554006988012
 46
-0.4781725661670926
 79
     2
 49
0.5715
 49
-6.2865
 53
355.0
 43
763.855437980751
 44
-24.09957490219383
 45
-1.057284779270009
 46
5.731699286465398
 79
     2
 49
0.4572
 49
-5.029199999999999
 53
100.451
 43
764.3108979807509
 44
-24.13942240219384
 45
4.408275049978777
 46
5.253500634608755
 79
     2
 49
0.4857000000000001
 49
-5.342699999999999
 53
46.1842
 43
763.855437980751
 44
-22.57557490219383
 45
8.132371226763897
 46
-1.261269837981814
 79
     2
 49
0.8572499999999999
 49
-9.429749999999998
 53
96.63559999999998
 43
764.5331349807508
 44
-22.68067990219384
 45
7.122127033987114
 46
7.422766676701476
 79
     2
 49
0.7285499999999998
 49
-8.014049999999995
 53
351.184
 43
763.855437980751
 44
-22.57557490219383
 45
7.122138174418017
 46
7.422753535817929
 79
     2
 49
0.6858
 49
-7.5438
 53
21.0
 43
764.617437980751
 44
-22.95657490219383
 45
4.548446395061498
 46
-3.067965555502874
 79
     2
 49
0.5715
 49
-6.2865
 53
326.0
 43
764.617437980751
 44
-22.95657490219383
 45
1.854060850429411
 46
5.525638983669577
 79
     2
 49
0.4572
 49
-5.029199999999999
 53
71.45140000000001
 43
764.9964729807509
 44
-23.21223790219383
 45
6.402494723103733
 46
2.457685731481723
 79
     2
 49
0.4857000000000001
 49
-5.342699999999999
 53
37.5
 43
763.855437980751
 44
-24.09957490219383
 45
0.0926580975177545
 46
2.536651166194593
 79
     6
 49
0.0
 49
-4.968239999999999
 49
0.0
 49
-5.1054
 49
0.0
 49
-5.04825
 53
7.499999999999999
 43
763.855437980751
 44
-24.09957490219383
 45
2.004589875309172
 46
3.005417244543585
 79
     6
 49
0.0
 49
-2.910839999999999
 49
0.0
 49
-4.853939999999999
 49
0.0
 49
-1.92405
 53
327.5
 43
762.1561779807509
 44
-24.09957490219383
 45
4.067717855006141
 46
-0.1718623197802037
 79
     6
 49
0.0
 49
-1.905
 49
0.0
 49
-5.943599999999999
 49
0.0
 49
-7.886699999999999
 53
317.5
 43
761.394177980751
 44
-24.09957490219383
 45
4.443875441580541
 46
0.7627947309999904
 79
     6
 49
0.0
 49
-2.476499999999999
 49
0.0
 49
-3.947159999999999
 49
0.0
 49
-5.600699999999999
 47
0.0387476598051738
 98
        1
 10
117.2300314045392
 20
67.24651634193456
1001
ACAD
1010
0.0
1020
0.0
1030
0.0
  0
LWPOLYLINE
  5
239F
330
1F
100
AcDbEntity
  8
SOLBET_Tynki_Posadzki
100
AcDbPolyline
 90
        4
 70
     0
 43
0.0
 10
94.28139465286177
 20
61.14897804432074
 10
137.7595870439954
 20
61.14897804432074
 10
137.7595870439959
 20
73.64897804431977
 10
100.3455188569692
 20
73.64897804431977
1001
ASO_SCHRAFF
1005
0
1070
     1
1002
{
1070
     1
1005
0
1002
}
1002
{
1070
     2
1005
0
1002
}
1002
{
1070
     4
1000
AR-CONC
1040
0.01
1040
0.0
1070
     0
1000
T__SCHR
1070
   256
1000
_bylayer
1040
50.0
1070
     1
1002
}
  0
LWPOLYLINE
  5
23A0
330
1F
100
AcDbEntity
  8
SOLBET_Beton
100
AcDbPolyline
 90
        3
 70
     0
 43
0.0
 10
94.69246946286512
 20
43.4122091550917
 10
137.7595870439954
 20
43.4122091550917
 10
137.7595870439954
 20
21.1845263375607
  0
LINE
  5
23A1
330
1F
100
AcDbEntity
  8
SOLBET_Izolacja
  6
BATTING
 48
0.6
100
AcDbLine
 10
93.2875411363002
 20
53.03244387654375
 30
0.0
 11
137.7595870439954
 21
53.03244387654375
 31
0.0
  0
ARC
  5
23A2
330
1F
100
AcDbEntity
  8
SOLBET_Wymiary_Opisy
100
AcDbCircle
 10
126.9272428603472
 20
53.03244387654375
 30
0.0
 40
33.6397017240473
100
AcDbArc
 50
136.5926968744823
 51
288.7845676764008
  0
MTEXT
  5
23A3
102
{ACAD_XDICTIONARY
360
2613
102
}
330
1F
100
AcDbEntity
  8
SOLBET_Wymiary_Opisy
100
AcDbMText
 10
103.1562414941277
 20
104.8152923744139
 30
0.0
 40
5.0
 41
30.77919768571883
 71
     1
 72
     5
  1
\pxqc;A\P(5 : 1)
  7
Solbet_5
 73
     1
 44
1.0
1001
ACAD
1000
MTEXTBEGIN
1070
    73
1070
     1
1070
    44
1040
1.0
1070
    74
1070
     0
1000
MTEXTEND
1000
ACAD_MTEXT_DEFINED_HEIGHT_BEGIN
1070
    46
1040
23.42535011036716
1000
ACAD_MTEXT_DEFINED_HEIGHT_END
  0
LINE
  5
23A8
330
1F
100
AcDbEntity
  8
SOLBET_Wymiary_Opisy
100
AcDbLine
 10
137.7595870439954
 20
76.14897804431979
 30
0.0
 11
137.7595870439954
 21
21.18452633756087
 31
0.0
  0
HATCH
  5
23F7
102
{ACAD_XDICTIONARY
360
276E
102
}
330
1F
100
AcDbEntity
  8
SOLBET_Zbrojenie_Konstrukcja
 62
     7
100
AcDbHatch
 10
0.0
 20
0.0
 30
0.0
210
0.0
220
0.0
230
1.0
  2
SOLID
 70
     1
 71
     1
 91
        2
 92
        1
 93
       16
 72
     2
 10
235.200621883659
 20
162.3384708274909
 40
0.1527030440125176
 50
52.48051708846642
 51
72.35615760546181
 73
     0
 72
     2
 10
235.1474299082037
 20
162.5057090659943
 40
0.3281966754370635
 50
72.35615760282067
 51
82.4947782683767
 73
     0
 72
     2
 10
235.1121619223634
 20
162.7734074861046
 40
0.5982082954735958
 50
82.49477826812908
 51
89.99999999922414
 73
     0
 72
     2
 10
235.1121619223797
 20
162.773407486106
 40
0.5982082954749899
 50
90.00000000078674
 51
97.50522173186425
 73
     0
 72
     2
 10
235.0768939365388
 20
162.5057090659928
 40
0.3281966754354416
 50
97.50522173160057
 51
107.6438423972068
 73
     0
 72
     2
 10
235.0237019610851
 20
162.338470827493
 40
0.1527030440148486
 50
107.6438423946851
 51
127.5194829113744
 73
     0
 72
     2
 10
234.9448704847412
 20
162.2358079483239
 40
0.0232655362288987
 50
127.5194829213265
 51
180.0000000079793
 73
     0
 72
     2
 10
234.9448704847413
 20
162.2358079483303
 40
0.0232655362290188
 50
179.9999999921607
 51
232.4805170785367
 73
     0
 72
     2
 10
235.0237019610837
 20
162.1331450691639
 40
0.1527030440120185
 50
232.4805170884302
 51
252.3561576054914
 73
     0
 72
     2
 10
235.0768939365403
 20
161.9659068306551
 40
0.3281966754419953
 50
252.3561576028967
 51
262.4947782683
 73
     0
 72
     2
 10
235.1121619223654
 20
161.6982084105536
 40
0.598208295467943
 50
262.4947782694251
 51
270.0000000005798
 73
     0
 72
     2
 10
235.1121619223766
 20
161.6982084105402
 40
0.5982082954812711
 50
269.9999999995018
 51
277.5052217304891
 73
     0
 72
     2
 10
235.1474299081942
 20
161.9659068306624
 40
0.3281966754358526
 50
277.5052217333227
 51
287.6438423989857
 73
     0
 72
     2
 10
235.200621883663
 20
162.1331450691604
 40
0.1527030440124141
 50
287.6438423929391
 51
307.5194829096272
 73
     0
 72
     2
 10
235.2794533599948
 20
162.2358079483413
 40
0.0232655362244937
 50
307.5194829511008
 51
354.8627062576185
 73
     0
 72
     2
 10
235.2794533599982
 20
162.2358079483145
 40
0.0232655362235293
 50
354.8627061911337
 51
412.4805170575943
 73
     0
 97
        1
330
21DD
 92
        1
 93
       16
 72
     2
 10
225.864191215337
 20
162.3384708274494
 40
0.1527030439751516
 50
232.4805170811428
 51
252.3561575981378
 73
     1
 72
     2
 10
225.917383190785
 20
162.5057090659943
 40
0.3281966754370635
 50
252.3561576028207
 51
262.4947782683767
 73
     1
 72
     2
 10
225.9526511766326
 20
162.7734074862155
 40
0.5982082955845258
 50
262.4947782688259
 51
269.9999999999211
 73
     1
 72
     2
 10
225.9526511766236
 20
162.773407486106
 40
0.5982082954749899
 50
270.0000000007867
 51
277.5052217318643
 73
     1
 72
     2
 10
225.9879191624644
 20
162.5057090659928
 40
0.3281966754354416
 50
277.5052217316006
 51
287.6438423972068
 73
     1
 72
     2
 10
226.0411111379109
 20
162.3384708274514
 40
0.1527030439774561
 50
287.6438424020124
 51
307.5194829187045
 73
     1
 72
     2
 10
226.1199426142548
 20
162.2358079483387
 40
0.0232655362361895
 50
307.5194828849478
 51
359.9999999715825
 73
     1
 72
     2
 10
226.1199426142547
 20
162.2358079483156
 40
0.0232655362362948
 50
0.0000000285574828
 51
52.48051711491542
 73
     1
 72
     2
 10
226.0411111379122
 20
162.1331450692054
 40
0.1527030439746525
 50
52.48051708110658
 51
72.35615759816742
 73
     1
 72
     2
 10
225.987919162463
 20
161.9659068306551
 40
0.3281966754419953
 50
72.35615760289665
 51
82.49477826829995
 73
     1
 72
     2
 10
225.9526511766378
 20
161.6982084105536
 40
0.598208295467943
 50
82.49477826942513
 51
90.00000000057985
 73
     1
 72
     2
 10
225.9526511766193
 20
161.6982084104293
 40
0.5982082955922011
 50
89.99999999880495
 51
97.50522172979222
 73
     1
 72
     2
 10
225.9173831907944
 20
161.9659068306624
 40
0.3281966754358526
 50
97.50522173332273
 51
107.6438423989857
 73
     1
 72
     2
 10
225.8641912153329
 20
162.133145069202
 40
0.1527030439750486
 50
107.643842400263
 51
127.5194829169507
 73
     1
 72
     2
 10
225.7853597389938
 20
162.2358079483081
 40
0.0232655362419608
 50
127.5194828728869
 51
174.8627061794031
 73
     1
 72
     2
 10
225.7853597389904
 20
162.2358079483409
 40
0.0232655362356534
 50
174.8627062592451
 51
232.4805171257052
 73
     1
 97
        1
330
21DF
 75
     0
 76
     1
 98
        1
 10
0.0
 20
0.0
1001
ACAD
1010
0.0
1020
0.0
1030
0.0
  0
LINE
  5
2554
330
1F
100
AcDbEntity
  8
SOLBET_Zbrojenie_Konstrukcja
100
AcDbLine
 10
71.3353735565563
 20
162.1234753844629
 30
0.0
 11
80.11377035457758
 21
162.1234753844629
 31
0.0
  0
LINE
  5
256B
330
1F
100
AcDbEntity
  8
SOLBET_Zbrojenie_Konstrukcja
100
AcDbLine
 10
226.143208150491
 20
162.2358079483156
 30
0.0
 11
234.9216049485122
 21
162.2358079483303
 31
0.0
  0
INSERT
  5
2666
330
1F
100
AcDbEntity
  8
SOLBET_Bloczki
100
AcDbBlockReference
  2
SOLBET_Ksztaltka_U_420x240x500_KG400_PRA
 10
63.12488459398128
 20
150.0390182470926
 30
0.0
 50
270.0
  0
INSERT
  5
26AD
330
1F
100
AcDbEntity
  8
SOLBET_Bloczki
100
AcDbBlockReference
  2
SOLBET_Plytka_80x240x590_KG600_PRA
 10
63.12488451448212
 20
150.0390170765165
 30
0.0
  0
INSERT
  5
26AE
330
1F
100
AcDbEntity
  8
SOLBET_Bloczki
100
AcDbBlockReference
  2
SOLBET_Plytka_80x240x590_KG600_PRA
 10
217.9327191084168
 20
150.0390170765165
 30
0.0
  0
INSERT
  5
26BF
330
1F
100
AcDbEntity
  8
SOLBET_Bloczki
100
AcDbBlockReference
  2
SOLBET_Bloczek_Ideal_420x240x590_P+W_KG400_PRA
 10
63.12488451448212
 20
162.0390172811517
 30
0.0
  0
INSERT
  5
26C0
330
1F
100
AcDbEntity
  8
SOLBET_Bloczki
100
AcDbBlockReference
  2
SOLBET_Bloczek_Ideal_420x240x590_P+W_KG400_PRA
 10
63.12488465523142
 20
174.0390174853001
 30
0.0
  0
INSERT
  5
26C1
330
1F
100
AcDbEntity
  8
SOLBET_Bloczki
100
AcDbBlockReference
  2
SOLBET_Bloczek_Ideal_420x240x590_P+W_KG400_PRA
 10
217.9327191084168
 20
138.0390170765183
 30
0.0
  0
INSERT
  5
26C2
330
1F
100
AcDbEntity
  8
SOLBET_Bloczki
100
AcDbBlockReference
  2
SOLBET_Bloczek_Ideal_420x240x590_P+W_KG400_PRA
 10
217.9327191084168
 20
162.0390172811517
 30
0.0
  0
INSERT
  5
26C3
330
1F
100
AcDbEntity
  8
SOLBET_Bloczki
100
AcDbBlockReference
  2
SOLBET_Bloczek_Ideal_420x240x590_P+W_KG400_PRA
 10
217.9327191084168
 20
174.0390174853001
 30
0.0
  0
MTEXT
  5
270C
102
{ACAD_XDICTIONARY
360
270D
102
}
330
1F
100
AcDbEntity
  8
SOLBET_Wymiary_Opisy
100
AcDbMText
 10
301.443123135075
 20
7.588280530115184
 30
0.0
 40
5.0
 41
0.0
 71
     1
 72
     5
  1
Skala 1:20
  7
Solbet_5
 73
     1
 44
1.0
1001
ACAD
1000
MTEXTBEGIN
1070
    73
1070
     1
1070
    44
1040
1.0
1070
    74
1070
     0
1000
MTEXTEND
1000
ACAD_MTEXT_DEFINED_HEIGHT_BEGIN
1070
    46
1040
5.395147572682731
1000
ACAD_MTEXT_DEFINED_HEIGHT_END
  0
LWPOLYLINE
  5
270F
330
1F
100
AcDbEntity
  8
SOLBET_Ramka_05
100
AcDbPolyline
 90
        4
 70
     1
 43
0.0
 10
298.4244570141612
 20
10.11935119363511
 10
334.5406339015833
 20
10.11935119363511
 10
334.5406339015833
 20
0.315129994699646
 10
298.4244570141612
 20
0.315129994699646
  0
ENDSEC
  0
SECTION
  2
OBJECTS
  0
DICTIONARY
  5
C
330
0
100
AcDbDictionary
281
     1
  3
ACAD_COLOR
350
6B
  3
ACAD_GROUP
350
D
  3
ACAD_LAYOUT
350
1A
  3
ACAD_MATERIAL
350
6A
  3
ACAD_MLEADERSTYLE
350
12D
  3
ACAD_MLINESTYLE
350
17
  3
ACAD_PLOTSETTINGS
350
19
  3
ACAD_PLOTSTYLENAME
350
E
  3
ACAD_SCALELIST
350
10C
  3
ACAD_TABLESTYLE
350
7E
  3
ACAD_VISUALSTYLE
350
EF
  3
ACDB_RECOMPOSE_DATA
350
15D
  3
AcDbVariableDictionary
350
5E
  3
DWGPROPS
350
274A
  0
DICTIONARY
  5
443
330
8
100
AcDbDictionary
280
     1
281
     1
  0
DICTIONARY
  5
3E5
330
2
100
AcDbDictionary
280
     1
281
     1
  3
ACAD_LAYERFILTERS
360
1883
  3
ACLYDICTIONARY
360
1882
  0
DICTIONARY
  5
13C
330
10
100
AcDbDictionary
280
     1
281
     1
  3
ADSK_XREC_LAYER_RECONCILED
360
3F4
  0
DICTIONARY
  5
403
330
3DD
100
AcDbDictionary
280
     1
281
     1
  3
ADSK_XREC_LAYER_RECONCILED
360
404
  0
DICTIONARY
  5
405
330
3DF
100
AcDbDictionary
280
     1
281
     1
  3
ADSK_XREC_LAYER_RECONCILED
360
406
  0
DICTIONARY
  5
407
330
3E0
100
AcDbDictionary
280
     1
281
     1
  3
ADSK_XREC_LAYER_RECONCILED
360
408
  0
DICTIONARY
  5
409
330
3E1
100
AcDbDictionary
280
     1
281
     1
  3
ADSK_XREC_LAYER_RECONCILED
360
40A
  0
DICTIONARY
  5
40B
330
3E2
100
AcDbDictionary
280
     1
281
     1
  3
ADSK_XREC_LAYER_RECONCILED
360
40C
  0
DICTIONARY
  5
40F
330
3E4
100
AcDbDictionary
280
     1
281
     1
  3
ADSK_XREC_LAYER_RECONCILED
360
410
  0
DICTIONARY
  5
411
330
3E8
100
AcDbDictionary
280
     1
281
     1
  3
ADSK_XREC_LAYER_RECONCILED
360
412
  0
DICTIONARY
  5
2611
330
2610
100
AcDbDictionary
280
     1
281
     1
  3
ASDK_XREC_ANNO_SCALE_INFO
360
2612
  0
DICTIONARY
  5
4A3
330
1F
100
AcDbDictionary
280
     1
281
     1
  3
ACAD_SORTENTS
360
4A4
  0
DICTIONARY
  5
229A
330
228E
100
AcDbDictionary
280
     1
281
     1
  3
ACAD_SORTENTS
360
229B
  0
DICTIONARY
  5
22B7
330
22AD
100
AcDbDictionary
280
     1
281
     1
  3
ACAD_SORTENTS
360
22B8
  0
DICTIONARY
  5
22CA
330
22BC
100
AcDbDictionary
280
     1
281
     1
  3
ACAD_SORTENTS
360
22CB
  0
DICTIONARY
  5
24A1
330
2495
100
AcDbDictionary
280
     1
281
     1
  3
ACAD_SORTENTS
360
24A2
  0
DICTIONARY
  5
2662
330
2654
100
AcDbDictionary
280
     1
281
     1
  3
ACAD_SORTENTS
360
2663
  0
DICTIONARY
  5
26A9
330
269F
100
AcDbDictionary
280
     1
281
     1
  3
ACAD_SORTENTS
360
26AA
  0
DICTIONARY
  5
26BB
330
26AF
100
AcDbDictionary
280
     1
281
     1
  3
ACAD_SORTENTS
360
26BC
  0
DICTIONARY
  5
222E
330
222D
100
AcDbDictionary
280
     1
281
     1
  3
ACAD_MTEXT_RT
360
2757
  3
AcDbContextDataManager
360
222F
  0
DICTIONARY
  5
2253
330
2252
100
AcDbDictionary
280
     1
281
     1
  3
ACAD_MTEXT_RT
360
2758
  3
AcDbContextDataManager
360
2254
  0
DICTIONARY
  5
2258
330
2257
100
AcDbDictionary
280
     1
281
     1
  3
ACAD_MTEXT_RT
360
2759
  3
AcDbContextDataManager
360
2259
  0
DICTIONARY
  5
275A
330
22EC
100
AcDbDictionary
280
     1
281
     1
  3
ACAD_XREC_ROUNDTRIP
360
275B
  0
DICTIONARY
  5
275C
330
2342
100
AcDbDictionary
280
     1
281
     1
  3
ACAD_MTEXT_RT
360
275D
  0
DICTIONARY
  5
275E
330
2344
100
AcDbDictionary
280
     1
281
     1
  3
ACAD_MTEXT_RT
360
275F
  0
DICTIONARY
  5
2760
330
2359
100
AcDbDictionary
280
     1
281
     1
  3
ACAD_MTEXT_RT
360
2761
  0
DICTIONARY
  5
2762
330
2363
100
AcDbDictionary
280
     1
281
     1
  3
ACAD_MTEXT_RT
360
2763
  0
DICTIONARY
  5
2764
330
236A
100
AcDbDictionary
280
     1
281
     1
  3
ACAD_MTEXT_RT
360
2765
  0
DICTIONARY
  5
2766
330
236C
100
AcDbDictionary
280
     1
281
     1
  3
ACAD_MTEXT_RT
360
2767
  0
DICTIONARY
  5
2768
330
236E
100
AcDbDictionary
280
     1
281
     1
  3
ACAD_MTEXT_RT
360
2769
  0
DICTIONARY
  5
276A
330
2393
100
AcDbDictionary
280
     1
281
     1
  3
ACAD_MTEXT_RT
360
276B
  0
DICTIONARY
  5
276C
330
2399
100
AcDbDictionary
280
     1
281
     1
  3
ACAD_MTEXT_RT
360
276D
  0
DICTIONARY
  5
2613
330
23A3
100
AcDbDictionary
280
     1
281
     1
  3
ACAD_MTEXT_2008_RT
360
2614
  0
DICTIONARY
  5
276E
330
23F7
100
AcDbDictionary
280
     1
281
     1
  3
ACAD_XREC_ROUNDTRIP
360
276F
  0
DICTIONARY
  5
270D
330
270C
100
AcDbDictionary
280
     1
281
     1
  3
ACAD_MTEXT_2008_RT
360
270E
  0
DICTIONARY
  5
6B
102
{ACAD_REACTORS
330
C
102
}
330
C
100
AcDbDictionary
281
     1
  0
DICTIONARY
  5
D
102
{ACAD_REACTORS
330
C
102
}
330
C
100
AcDbDictionary
281
     1
  0
DICTIONARY
  5
1A
102
{ACAD_REACTORS
330
C
102
}
330
C
100
AcDbDictionary
281
     1
  3
Arkusz1
350
D3
  3
Arkusz2
350
D7
  3
Model
350
22
  0
DICTIONARY
  5
6A
102
{ACAD_REACTORS
330
C
102
}
330
C
100
AcDbDictionary
281
     1
  3
ByBlock
350
ED
  3
ByLayer
350
EC
  3
Global
350
EE
  0
DICTIONARY
  5
12D
102
{ACAD_REACTORS
330
C
102
}
330
C
100
AcDbDictionary
281
     1
  3
Standard
350
12E
  0
DICTIONARY
  5
17
102
{ACAD_REACTORS
330
C
102
}
330
C
100
AcDbDictionary
281
     1
  3
SOLBET_IZOLACJA
350
7E9
  3
Standard
350
18
  0
DICTIONARY
  5
19
102
{ACAD_REACTORS
330
C
102
}
330
C
100
AcDbDictionary
281
     1
  0
ACDBDICTIONARYWDFLT
  5
E
102
{ACAD_REACTORS
330
C
102
}
330
C
100
AcDbDictionary
281
     1
  3
Normal
350
F
100
AcDbDictionaryWithDefault
340
F
  0
DICTIONARY
  5
10C
102
{ACAD_REACTORS
330
C
102
}
330
C
100
AcDbDictionary
281
     1
  3
A0
350
10D
  3
A1
350
188
  3
A2
350
189
  3
A3
350
18A
  3
A4
350
18B
  3
A5
350
18C
  3
A6
350
18D
  3
A7
350
18E
  3
A8
350
18F
  3
A9
350
190
  3
B0
350
191
  3
B1
350
192
  3
B2
350
193
  3
B3
350
194
  3
B4
350
195
  3
B5
350
196
  3
B6
350
197
  3
B7
350
198
  3
B8
350
199
  3
B9
350
19A
  3
C0
350
19B
  3
C1
350
19C
  3
C2
350
19D
  3
C3
350
19E
  3
C4
350
19F
  3
C5
350
1A0
  3
C6
350
1A1
  3
C7
350
1A2
  3
C8
350
1A3
  3
C9
350
1A4
  3
D0
350
1A5
  3
D1
350
1A6
  3
D2
350
1A7
  0
DICTIONARY
  5
7E
102
{ACAD_REACTORS
330
C
102
}
330
C
100
AcDbDictionary
281
     1
  3
Standard
350
7F
  0
DICTIONARY
  5
EF
102
{ACAD_REACTORS
330
C
102
}
330
C
100
AcDbDictionary
281
     1
  3
2dWireframe
350
F5
  3
3D Hidden
350
F7
  3
3dWireframe
350
F6
  3
Basic
350
F4
  3
Brighten
350
FB
  3
ColorChange
350
FF
  3
Conceptual
350
F8
  3
Dim
350
FA
  3
Facepattern
350
FE
  3
Flat
350
F0
  3
FlatWithEdges
350
F1
  3
Gouraud
350
F2
  3
GouraudWithEdges
350
F3
  3
Linepattern
350
FD
  3
Realistic
350
F9
  3
Thicken
350
FC
  0
XRECORD
  5
15D
102
{ACAD_REACTORS
330
C
102
}
330
C
100
AcDbXrecord
280
     1
 90
        1
330
7F
330
222D
330
2252
330
2257
330
23A3
  0
DICTIONARY
  5
5E
102
{ACAD_REACTORS
330
C
102
}
330
C
100
AcDbDictionary
281
     1
  3
CANNOSCALE
350
146
  3
CMLEADERSTYLE
350
145
  3
CTABLESTYLE
350
84
  3
DIMASSOC
350
5F
  3
HIDETEXT
350
63
  3
INDEXCTL
350
466
  3
LIGHTINGUNITS
350
464
  3
MSLTSCALE
350
463
  3
PSOLHEIGHT
350
2749
  3
PSOLWIDTH
350
2748
  3
SORTENTS
350
465
  0
XRECORD
  5
274A
102
{ACAD_REACTORS
330
C
102
}
330
C
100
AcDbXrecord
280
     1
  1
DWGPROPS COOKIE
  2

  3

  4

  6

  7

  8
Olus
  9

300
=
301
=
302
=
303
=
304
=
305
=
306
=
307
=
308
=
309
=
 40
0.4542117708333333
 41
2454690.075573148
 42
2454848.878725127
  1

 90
        0
  0
DICTIONARY
  5
1883
102
{ACAD_REACTORS
330
3E5
102
}
330
3E5
100
AcDbDictionary
281
     1
  0
DICTIONARY
  5
1882
102
{ACAD_REACTORS
330
3E5
102
}
330
3E5
100
AcDbDictionary
281
     1
1001
ACAD
1000
<All
  0
XRECORD
  5
3F4
102
{ACAD_REACTORS
330
13C
102
}
330
13C
100
AcDbXrecord
280
     1
290
     1
  0
XRECORD
  5
404
102
{ACAD_REACTORS
330
403
102
}
330
403
100
AcDbXrecord
280
     1
290
     1
  0
XRECORD
  5
406
102
{ACAD_REACTORS
330
405
102
}
330
405
100
AcDbXrecord
280
     1
290
     1
  0
XRECORD
  5
408
102
{ACAD_REACTORS
330
407
102
}
330
407
100
AcDbXrecord
280
     1
290
     1
  0
XRECORD
  5
40A
102
{ACAD_REACTORS
330
409
102
}
330
409
100
AcDbXrecord
280
     1
290
     1
  0
XRECORD
  5
40C
102
{ACAD_REACTORS
330
40B
102
}
330
40B
100
AcDbXrecord
280
     1
290
     1
  0
XRECORD
  5
410
102
{ACAD_REACTORS
330
40F
102
}
330
40F
100
AcDbXrecord
280
     1
290
     1
  0
XRECORD
  5
412
102
{ACAD_REACTORS
330
411
102
}
330
411
100
AcDbXrecord
280
     1
290
     1
  0
XRECORD
  5
2612
102
{ACAD_REACTORS
330
2611
102
}
330
2611
100
AcDbXrecord
280
     1
 70
     1
340
10D
340
3DF
 70
    -1
  0
SORTENTSTABLE
  5
4A4
102
{ACAD_REACTORS
330
4A3
102
}
330
4A3
100
AcDbSortentsTable
330
1F
331
21D0
  5
21D1
331
221F
  5
2224
331
2227
  5
229E
331
21E8
  5
21EC
331
22F3
  5
22EF
331
2362
  5
2364
331
236A
  5
236C
331
2392
  5
2394
331
21F0
  5
2206
331
217A
  5
2179
331
21B9
  5
21BB
331
218A
  5
2188
331
2208
  5
2212
331
21C9
  5
21CA
331
2192
  5
2191
331
2210
  5
2215
331
2333
  5
231E
331
239A
  5
239C
331
23A2
  5
23A8
331
2343
  5
2358
331
22EC
  5
21A5
331
21D1
  5
21D2
331
219A
  5
219A
331
2218
  5
221D
331
2220
  5
2225
331
21E9
  5
21ED
331
22F4
  5
22F0
331
2363
  5
2365
331
236B
  5
236D
331
2393
  5
2395
331
217B
  5
217A
331
21BA
  5
21BC
331
2201
  5
2207
331
2209
  5
2213
331
2211
  5
2216
331
2334
  5
231F
331
239B
  5
239D
331
23A3
  5
23F6
331
2344
  5
2359
331
22ED
  5
22D9
331
21D2
  5
21D3
331
2219
  5
221E
331
2221
  5
2226
331
22F5
  5
22F1
331
2257
  5
22AA
331
236C
  5
236E
331
231D
  5
22F7
331
2394
  5
2396
331
21B3
  5
233A
331
217C
  5
217B
331
2184
  5
2183
331
21C3
  5
21C4
331
2194
  5
2193
331
2212
  5
2217
331
22D6
  5
22D7
331
2335
  5
2320
331
239C
  5
239E
331
233D
  5
233F
331
22EE
  5
22DA
331
221A
  5
221F
331
2222
  5
2227
331
22F6
  5
22F2
331
2365
  5
2367
331
236D
  5
238F
331
231E
  5
22F8
331
2395
  5
2397
331
21B4
  5
21B6
331
217D
  5
217C
331
2203
  5
2208
331
21BC
  5
21BE
331
21C4
  5
21C5
331
218D
  5
218C
331
21CC
  5
21CD
331
2195
  5
2194
331
2213
  5
2218
331
239D
  5
239F
331
22D7
  5
22D8
331
2336
  5
2321
331
233E
  5
2340
331
22EF
  5
22EB
331
221B
  5
2220
331
2223
  5
2228
331
2366
  5
2368
331
22F7
  5
22F3
331
236E
  5
2390
331
231F
  5
22F9
331
2396
  5
2398
331
21B5
  5
21B7
331
217E
  5
217D
331
2204
  5
2209
331
2214
  5
2219
331
21CD
  5
21CE
331
2196
  5
2195
331
2337
  5
2322
331
22D8
  5
2338
331
239E
  5
23A0
331
233F
  5
2341
331
21D5
  5
21D4
331
221C
  5
2221
331
2224
  5
222A
331
21DD
  5
21E0
331
21A6
  5
21A9
331
21AE
  5
21B1
331
222C
  5
22A1
331
22F0
  5
22EC
331
2367
  5
2369
331
2252
  5
22A7
331
22F8
  5
22F4
331
238F
  5
2391
331
2320
  5
2204
331
2397
  5
2399
331
21B6
  5
21B8
331
217F
  5
217E
331
2205
  5
220A
331
2187
  5
2186
331
21C6
  5
21C6
331
2215
  5
221A
331
21CE
  5
21CF
331
2197
  5
2199
331
239F
  5
23A1
331
2338
  5
2333
331
2340
  5
2342
331
2358
  5
2362
331
221D
  5
2222
331
2225
  5
2257
331
21DE
  5
21E8
331
21AF
  5
21B2
331
222D
  5
22A4
331
22F1
  5
22ED
331
2368
  5
236A
331
22F9
  5
22F5
331
23F7
  5
21DF
331
2390
  5
2392
331
2178
  5
22FA
331
21B7
  5
21B9
331
2188
  5
2187
331
2206
  5
220B
331
2190
  5
218F
331
21CF
  5
21D0
331
2216
  5
221B
331
2398
  5
239A
331
2339
  5
2334
331
22DA
  5
2196
331
23A0
  5
23A2
331
2341
  5
2343
331
23A8
  5
23F7
331
2359
  5
2363
331
221E
  5
2223
331
21DF
  5
21E9
331
21E7
  5
233D
331
22F2
  5
22EE
331
2369
  5
236B
331
2391
  5
2393
331
2322
  5
21EE
331
21B0
  5
21B3
331
2179
  5
2178
331
21B8
  5
21BA
331
2181
  5
2180
331
21C0
  5
233B
331
2207
  5
220C
331
220F
  5
2214
331
2191
  5
2190
331
2217
  5
221C
331
2399
  5
239B
331
233A
  5
2335
331
23A1
  5
23A3
331
2342
  5
2344
  0
SORTENTSTABLE
  5
229B
102
{ACAD_REACTORS
330
229A
102
}
330
229A
100
AcDbSortentsTable
330
228E
  0
SORTENTSTABLE
  5
22B8
102
{ACAD_REACTORS
330
22B7
102
}
330
22B7
100
AcDbSortentsTable
330
22AD
  0
SORTENTSTABLE
  5
22CB
102
{ACAD_REACTORS
330
22CA
102
}
330
22CA
100
AcDbSortentsTable
330
22BC
  0
SORTENTSTABLE
  5
24A2
102
{ACAD_REACTORS
330
24A1
102
}
330
24A1
100
AcDbSortentsTable
330
2495
  0
SORTENTSTABLE
  5
2663
102
{ACAD_REACTORS
330
2662
102
}
330
2662
100
AcDbSortentsTable
330
2654
  0
SORTENTSTABLE
  5
26AA
102
{ACAD_REACTORS
330
26A9
102
}
330
26A9
100
AcDbSortentsTable
330
269F
  0
SORTENTSTABLE
  5
26BC
102
{ACAD_REACTORS
330
26BB
102
}
330
26BB
100
AcDbSortentsTable
330
26AF
  0
XRECORD
  5
2757
102
{ACAD_REACTORS
330
222E
102
}
330
222E
100
AcDbXrecord
280
     1
 40
574732.0
  1
{\LDETAL 66\P}Oparcie stropu z płyt kanałowych na ścianach zewnętrznych jednowarstwowych
  0
DICTIONARY
  5
222F
102
{ACAD_REACTORS
330
222E
102
}
330
222E
100
AcDbDictionary
281
     1
  3
ACDB_ANNOTATIONSCALES
350
2230
  0
XRECORD
  5
2758
102
{ACAD_REACTORS
330
2253
102
}
330
2253
100
AcDbXrecord
280
     1
 40
258673.0
  1
Na ścianie zewnętrznej\Pprostopadłej do kierunku płyt
  0
DICTIONARY
  5
2254
102
{ACAD_REACTORS
330
2253
102
}
330
2253
100
AcDbDictionary
281
     1
  3
ACDB_ANNOTATIONSCALES
350
2255
  0
XRECORD
  5
2759
102
{ACAD_REACTORS
330
2258
102
}
330
2258
100
AcDbXrecord
280
     1
 40
284063.0
  1
Na ścianie zewnętrznej\Prównoległej do kierunku płyt
  0
DICTIONARY
  5
2259
102
{ACAD_REACTORS
330
2258
102
}
330
2258
100
AcDbDictionary
281
     1
  3
ACDB_ANNOTATIONSCALES
350
225A
  0
XRECORD
  5
275B
102
{ACAD_REACTORS
330
275A
102
}
330
275A
100
AcDbXrecord
280
     1
102
Gradient1
1004
7B0000000200000001000000000000000000000000000000000000000000000001000000000000000000F03F0200000000000000000000001800000001000000FFFFFFC2000000000000000000000000000000000000F03F1800000001000000FFFFFFC2000000000000000000000000070000004C494E45415200
  0
XRECORD
  5
275D
102
{ACAD_REACTORS
330
275C
102
}
330
275C
100
AcDbXrecord
280
     1
 40
14518.0
  1
Płytka SOLBET
  0
XRECORD
  5
275F
102
{ACAD_REACTORS
330
275E
102
}
330
275E
100
AcDbXrecord
280
     1
 40
25446.0
  1
Wieniec żelbetowy
  0
XRECORD
  5
2761
102
{ACAD_REACTORS
330
2760
102
}
330
2760
100
AcDbXrecord
280
     1
 40
86744.0
  1
Poduszka betonowa \Pw kształtce U SOLBET
  0
XRECORD
  5
2763
102
{ACAD_REACTORS
330
2762
102
}
330
2762
100
AcDbXrecord
280
     1
 40
100191.0
  1
Zbrojenie górne\Pstrefy przypodporowej
  0
XRECORD
  5
2765
102
{ACAD_REACTORS
330
2764
102
}
330
2764
100
AcDbXrecord
280
     1
 40
14518.0
  1
Płytka SOLBET
  0
XRECORD
  5
2767
102
{ACAD_REACTORS
330
2766
102
}
330
2766
100
AcDbXrecord
280
     1
 40
25446.0
  1
Wieniec żelbetowy
  0
XRECORD
  5
2769
102
{ACAD_REACTORS
330
2768
102
}
330
2768
100
AcDbXrecord
280
     1
 40
100191.0
  1
Zbrojenie górne\Pstrefy przypodporowej
  0
XRECORD
  5
276B
102
{ACAD_REACTORS
330
276A
102
}
330
276A
100
AcDbXrecord
280
     1
 40
34960.0
  1
Warstwa wykończeniowa
  0
XRECORD
  5
276D
102
{ACAD_REACTORS
330
276C
102
}
330
276C
100
AcDbXrecord
280
     1
 40
42625.0
  1
Płyty izolacyjne twarde
  0
XRECORD
  5
2614
102
{ACAD_REACTORS
330
2613
102
}
330
2613
100
AcDbXrecord
280
     1
 40
24693.0
  1
\pxqc;A\P(5 : 1)
  0
XRECORD
  5
276F
102
{ACAD_REACTORS
330
276E
102
}
330
276E
100
AcDbXrecord
280
     1
102
Gradient1
1004
7B0000000200000001000000000000000000000000000000000000000000000001000000000000000000F03F0200000000000000000000001800000001000000FFFFFFC2000000000000000000000000000000000000F03F1800000001000000FFFFFFC2000000000000000000000000070000004C494E45415200
  0
XRECORD
  5
270E
102
{ACAD_REACTORS
330
270D
102
}
330
270D
100
AcDbXrecord
280
     1
 40
24748.0
  1
\pxqc;C\P(5 : 1)
  0
LAYOUT
  5
D3
102
{ACAD_XDICTIONARY
360
274E
102
}
102
{ACAD_REACTORS
330
1A
102
}
330
1A
100
AcDbPlotSettings
  1

  2
C:\Documents and Settings\basas\Application Data\Autodesk\AutoCAD 2005\R16.1\enu\plotters\Default Windows System Printer.pc3
  4

  6

 40
0.0
 41
0.0
 42
0.0
 43
0.0
 44
0.0
 45
0.0
 46
0.0
 47
0.0
 48
0.0
 49
0.0
140
0.0
141
0.0
142
1.0
143
1.0
 70
   688
 72
     0
 73
     0
 74
     5
  7

 75
    16
147
1.0
148
0.0
149
0.0
100
AcDbLayout
  1
Arkusz1
 70
     1
 71
     1
 10
0.0
 20
0.0
 11
12.0
 21
9.0
 12
0.0
 22
0.0
 32
0.0
 14
0.0
 24
0.0
 34
0.0
 15
0.0
 25
0.0
 35
0.0
146
0.0
 13
0.0
 23
0.0
 33
0.0
 16
1.0
 26
0.0
 36
0.0
 17
0.0
 27
1.0
 37
0.0
 76
     0
330
D2
  0
LAYOUT
  5
D7
102
{ACAD_XDICTIONARY
360
2750
102
}
102
{ACAD_REACTORS
330
1A
102
}
330
1A
100
AcDbPlotSettings
  1

  2
C:\Documents and Settings\basas\Application Data\Autodesk\AutoCAD 2005\R16.1\enu\plotters\Default Windows System Printer.pc3
  4

  6

 40
0.0
 41
0.0
 42
0.0
 43
0.0
 44
0.0
 45
0.0
 46
0.0
 47
0.0
 48
0.0
 49
0.0
140
0.0
141
0.0
142
1.0
143
1.0
 70
   688
 72
     0
 73
     0
 74
     5
  7

 75
    16
147
1.0
148
0.0
149
0.0
100
AcDbLayout
  1
Arkusz2
 70
     1
 71
     2
 10
0.0
 20
0.0
 11
12.0
 21
9.0
 12
0.0
 22
0.0
 32
0.0
 14
0.0
 24
0.0
 34
0.0
 15
0.0
 25
0.0
 35
0.0
146
0.0
 13
0.0
 23
0.0
 33
0.0
 16
1.0
 26
0.0
 36
0.0
 17
0.0
 27
1.0
 37
0.0
 76
     0
330
D6
  0
LAYOUT
  5
22
102
{ACAD_XDICTIONARY
360
274B
102
}
102
{ACAD_REACTORS
330
1A
102
}
330
1A
100
AcDbPlotSettings
  1

  2
none_device
  4
Letter_(8.50_x_11.00_Inches)
  6

 40
6.349999904632568
 41
6.349999904632568
 42
6.350006103515625
 43
6.350006103515625
 44
215.8999938964844
 45
279.3999938964844
 46
11.54999923706054
 47
-13.65000009536743
 48
0.0
 49
0.0
140
210.0
141
297.0
142
1.0
143
1.0
 70
 11936
 72
     1
 73
     0
 74
     4
  7

 75
     0
147
0.9999999999999998
148
0.0
149
0.0
100
AcDbLayout
  1
Model
 70
     1
 71
     0
 10
0.0
 20
0.0
 11
12.0
 21
9.0
 12
0.0
 22
0.0
 32
0.0
 14
0.0
 24
0.0
 34
0.0
 15
0.0
 25
0.0
 35
0.0
146
0.0
 13
0.0
 23
0.0
 33
0.0
 16
1.0
 26
0.0
 36
0.0
 17
0.0
 27
1.0
 37
0.0
 76
     0
330
1F
331
EA
1001
ACAD_PSEXT
1000
Brak
1000
Brak
1000
Nie można zastosować.
1000
Arkusz nie zostanie wydrukowany dopóki nie wybrano konfiguracji plotera.
1070
     0
  0
MATERIAL
  5
ED
102
{ACAD_XDICTIONARY
360
2754
102
}
102
{ACAD_REACTORS
330
6A
102
}
330
6A
100
AcDbMaterial
  1
ByBlock
 73
     2
 78
     2
172
     2
176
     2
270
     2
274
     2
  0
MATERIAL
  5
EC
102
{ACAD_XDICTIONARY
360
2752
102
}
102
{ACAD_REACTORS
330
6A
102
}
330
6A
100
AcDbMaterial
  1
ByLayer
 73
     2
 78
     2
172
     2
176
     2
270
     2
274
     2
  0
MATERIAL
  5
EE
102
{ACAD_XDICTIONARY
360
173
102
}
102
{ACAD_REACTORS
330
6A
102
}
330
6A
100
AcDbMaterial
  1
Global
 73
     2
 43
0.0007999999797903
 43
0.0
 43
0.0
 43
0.0
 43
0.0
 43
0.0007999999797903
 43
0.0
 43
0.0
 43
0.0
 43
0.0
 43
1.0
 43
0.0
 43
0.0
 43
0.0
 43
0.0
 43
1.0
 78
     2
172
     2
 49
0.0007999999797903
 49
0.0
 49
0.0
 49
0.0
 49
0.0
 49
0.0007999999797903
 49
0.0
 49
0.0
 49
0.0
 49
0.0
 49
1.0
 49
0.0
 49
0.0
 49
0.0
 49
0.0
 49
1.0
176
     2
142
0.0007999999797903
142
0.0
142
0.0
142
0.0
142
0.0
142
0.0007999999797903
142
0.0
142
0.0
142
0.0
142
0.0
142
1.0
142
0.0
142
0.0
142
0.0
142
0.0
142
1.0
270
     2
144
0.0007999999797903
144
0.0
144
0.0
144
0.0
144
0.0
144
0.0007999999797903
144
0.0
144
0.0
144
0.0
144
0.0
144
1.0
144
0.0
144
0.0
144
0.0
144
0.0
144
1.0
274
     2
1001
ACAD
1070
    -1
1070
     3
1070
     0
1000

1071
        0
1070
     0
  0
ACAD_PROXY_OBJECT
  5
12E
102
{ACAD_REACTORS
330
12D
102
}
330
12D
100
AcDbProxyObject
 90
      499
 91
      508
 95
       23
 70
     0
 93
      618
310
40901902A4063FBFFFFFE0000000000000020400000000000020404254DD185B99185C99000000000000000104090140501A0000000000000410000000000000004102576400000000000003903F
340
14
340
0
340
11
340
0
 94
        0
1001
ACAD_MLEADERVER
1070
     2
1001
ACAD
1000
AcRTDxfName
1000
MLEADERSTYLE
1000
AcRTDxfName
1000
MLEADERSTYLE
  0
MLINESTYLE
  5
7E9
102
{ACAD_REACTORS
330
17
102
}
330
17
100
AcDbMlineStyle
  2
SOLBET_IZOLACJA
 70
   272
  3

 62
   256
 51
90.0
 52
90.0
 71
     2
 49
0.008
 62
   256
  6
BYLAYER
 49
-0.008
 62
   256
  6
BYLAYER
  0
MLINESTYLE
  5
18
102
{ACAD_REACTORS
330
17
102
}
330
17
100
AcDbMlineStyle
  2
STANDARD
 70
     0
  3

 62
   256
 51
90.0
 52
90.0
 71
     2
 49
0.5
 62
   256
  6
BYLAYER
 49
-0.5
 62
   256
  6
BYLAYER
  0
ACDBPLACEHOLDER
  5
F
102
{ACAD_REACTORS
330
E
102
}
330
E
  0
ACAD_PROXY_OBJECT
  5
10D
102
{ACAD_REACTORS
330
10C
102
}
330
10C
100
AcDbProxyObject
 90
      499
 91
      507
 95
       23
 70
     0
 93
       49
310
904313A31005FF
 94
        0
1001
ACAD
1000
AcRTDxfName
1000
SCALE
1000
AcRTDxfName
1000
SCALE
  0
ACAD_PROXY_OBJECT
  5
188
102
{ACAD_REACTORS
330
10C
102
}
330
10C
100
AcDbProxyObject
 90
      499
 91
      507
 95
       23
 70
     0
 93
      113
310
904313A3200400000000000000407F
 94
        0
1001
ACAD
1000
AcRTDxfName
1000
SCALE
1000
AcRTDxfName
1000
SCALE
  0
ACAD_PROXY_OBJECT
  5
189
102
{ACAD_REACTORS
330
10C
102
}
330
10C
100
AcDbProxyObject
 90
      499
 91
      507
 95
       23
 70
     0
 93
      113
310
904313A3400400000000000010407F
 94
        0
1001
ACAD
1000
AcRTDxfName
1000
SCALE
1000
AcRTDxfName
1000
SCALE
  0
ACAD_PROXY_OBJECT
  5
18A
102
{ACAD_REACTORS
330
10C
102
}
330
10C
100
AcDbProxyObject
 90
      499
 91
      507
 95
       23
 70
     0
 93
      113
310
904313A3500400000000000014407F
 94
        0
1001
ACAD
1000
AcRTDxfName
1000
SCALE
1000
AcRTDxfName
1000
SCALE
  0
ACAD_PROXY_OBJECT
  5
18B
102
{ACAD_REACTORS
330
10C
102
}
330
10C
100
AcDbProxyObject
 90
      499
 91
      507
 95
       23
 70
     0
 93
      113
310
904313A3800400000000000020407F
 94
        0
1001
ACAD
1000
AcRTDxfName
1000
SCALE
1000
AcRTDxfName
1000
SCALE
  0
ACAD_PROXY_OBJECT
  5
18C
102
{ACAD_REACTORS
330
10C
102
}
330
10C
100
AcDbProxyObject
 90
      499
 91
      507
 95
       23
 70
     0
 93
      121
310
905313A313000400000000000024407F
 94
        0
1001
ACAD
1000
AcRTDxfName
1000
SCALE
1000
AcRTDxfName
1000
SCALE
  0
ACAD_PROXY_OBJECT
  5
18D
102
{ACAD_REACTORS
330
10C
102
}
330
10C
100
AcDbProxyObject
 90
      499
 91
      507
 95
       23
 70
     0
 93
      121
310
905313A313600400000000000030407F
 94
        0
1001
ACAD
1000
AcRTDxfName
1000
SCALE
1000
AcRTDxfName
1000
SCALE
  0
ACAD_PROXY_OBJECT
  5
18E
102
{ACAD_REACTORS
330
10C
102
}
330
10C
100
AcDbProxyObject
 90
      499
 91
      507
 95
       23
 70
     0
 93
      121
310
905313A323000400000000000034407F
 94
        0
1001
ACAD
1000
AcRTDxfName
1000
SCALE
1000
AcRTDxfName
1000
SCALE
  0
ACAD_PROXY_OBJECT
  5
18F
102
{ACAD_REACTORS
330
10C
102
}
330
10C
100
AcDbProxyObject
 90
      499
 91
      507
 95
       23
 70
     0
 93
      121
310
905313A33300040000000000003E407F
 94
        0
1001
ACAD
1000
AcRTDxfName
1000
SCALE
1000
AcRTDxfName
1000
SCALE
  0
ACAD_PROXY_OBJECT
  5
190
102
{ACAD_REACTORS
330
10C
102
}
330
10C
100
AcDbProxyObject
 90
      499
 91
      507
 95
       23
 70
     0
 93
      121
310
905313A343000400000000000044407F
 94
        0
1001
ACAD
1000
AcRTDxfName
1000
SCALE
1000
AcRTDxfName
1000
SCALE
  0
ACAD_PROXY_OBJECT
  5
191
102
{ACAD_REACTORS
330
10C
102
}
330
10C
100
AcDbProxyObject
 90
      499
 91
      507
 95
       23
 70
     0
 93
      121
310
905313A353000400000000000049407F
 94
        0
1001
ACAD
1000
AcRTDxfName
1000
SCALE
1000
AcRTDxfName
1000
SCALE
  0
ACAD_PROXY_OBJECT
  5
192
102
{ACAD_REACTORS
330
10C
102
}
330
10C
100
AcDbProxyObject
 90
      499
 91
      507
 95
       23
 70
     0
 93
      129
310
906313A31303000400000000000059407F
 94
        0
1001
ACAD
1000
AcRTDxfName
1000
SCALE
1000
AcRTDxfName
1000
SCALE
  0
ACAD_PROXY_OBJECT
  5
193
102
{ACAD_REACTORS
330
10C
102
}
330
10C
100
AcDbProxyObject
 90
      499
 91
      507
 95
       23
 70
     0
 93
      113
310
904323A3100000000000000001017F
 94
        0
1001
ACAD
1000
AcRTDxfName
1000
SCALE
1000
AcRTDxfName
1000
SCALE
  0
ACAD_PROXY_OBJECT
  5
194
102
{ACAD_REACTORS
330
10C
102
}
330
10C
100
AcDbProxyObject
 90
      499
 91
      507
 95
       23
 70
     0
 93
      113
310
904343A3100000000000000041017F
 94
        0
1001
ACAD
1000
AcRTDxfName
1000
SCALE
1000
AcRTDxfName
1000
SCALE
  0
ACAD_PROXY_OBJECT
  5
195
102
{ACAD_REACTORS
330
10C
102
}
330
10C
100
AcDbProxyObject
 90
      499
 91
      507
 95
       23
 70
     0
 93
      113
310
904383A3100000000000000081017F
 94
        0
1001
ACAD
1000
AcRTDxfName
1000
SCALE
1000
AcRTDxfName
1000
SCALE
  0
ACAD_PROXY_OBJECT
  5
196
102
{ACAD_REACTORS
330
10C
102
}
330
10C
100
AcDbProxyObject
 90
      499
 91
      507
 95
       23
 70
     0
 93
      121
310
90531303A3100000000000000091017F
 94
        0
1001
ACAD
1000
AcRTDxfName
1000
SCALE
1000
AcRTDxfName
1000
SCALE
  0
ACAD_PROXY_OBJECT
  5
197
102
{ACAD_REACTORS
330
10C
102
}
330
10C
100
AcDbProxyObject
 90
      499
 91
      507
 95
       23
 70
     0
 93
      129
310
9063130303A3100000000000000165017F
 94
        0
1001
ACAD
1000
AcRTDxfName
1000
SCALE
1000
AcRTDxfName
1000
SCALE
  0
ACAD_PROXY_OBJECT
  5
198
102
{ACAD_REACTORS
330
10C
102
}
330
10C
100
AcDbProxyObject
 90
      499
 91
      507
 95
       23
 70
     0
 93
      265
310
90F312F31323822203D2031272D302200000000000000200FC00000000000028407F
 94
        0
1001
ACAD
1000
AcRTDxfName
1000
SCALE
1000
AcRTDxfName
1000
SCALE
  0
ACAD_PROXY_OBJECT
  5
199
102
{ACAD_REACTORS
330
10C
102
}
330
10C
100
AcDbProxyObject
 90
      499
 91
      507
 95
       23
 70
     0
 93
      257
310
90E312F363422203D2031272D302200000000000000240FC00000000000028407F
 94
        0
1001
ACAD
1000
AcRTDxfName
1000
SCALE
1000
AcRTDxfName
1000
SCALE
  0
ACAD_PROXY_OBJECT
  5
19A
102
{ACAD_REACTORS
330
10C
102
}
330
10C
100
AcDbProxyObject
 90
      499
 91
      507
 95
       23
 70
     0
 93
      257
310
90E312F333222203D2031272D302200000000000000280FC00000000000028407F
 94
        0
1001
ACAD
1000
AcRTDxfName
1000
SCALE
1000
AcRTDxfName
1000
SCALE
  0
ACAD_PROXY_OBJECT
  5
19B
102
{ACAD_REACTORS
330
10C
102
}
330
10C
100
AcDbProxyObject
 90
      499
 91
      507
 95
       23
 70
     0
 93
      257
310
90E312F313622203D2031272D3022000000000000002C0FC00000000000028407F
 94
        0
1001
ACAD
1000
AcRTDxfName
1000
SCALE
1000
AcRTDxfName
1000
SCALE
  0
ACAD_PROXY_OBJECT
  5
19C
102
{ACAD_REACTORS
330
10C
102
}
330
10C
100
AcDbProxyObject
 90
      499
 91
      507
 95
       23
 70
     0
 93
      257
310
90E332F333222203D2031272D3022000000000000002E0FC00000000000028407F
 94
        0
1001
ACAD
1000
AcRTDxfName
1000
SCALE
1000
AcRTDxfName
1000
SCALE
  0
ACAD_PROXY_OBJECT
  5
19D
102
{ACAD_REACTORS
330
10C
102
}
330
10C
100
AcDbProxyObject
 90
      499
 91
      507
 95
       23
 70
     0
 93
      249
310
90D312F3822203D2031272D302200000000000000300FC00000000000028407F
 94
        0
1001
ACAD
1000
AcRTDxfName
1000
SCALE
1000
AcRTDxfName
1000
SCALE
  0
ACAD_PROXY_OBJECT
  5
19E
102
{ACAD_REACTORS
330
10C
102
}
330
10C
100
AcDbProxyObject
 90
      499
 91
      507
 95
       23
 70
     0
 93
      257
310
90E332F313622203D2031272D302200000000000000320FC00000000000028407F
 94
        0
1001
ACAD
1000
AcRTDxfName
1000
SCALE
1000
AcRTDxfName
1000
SCALE
  0
ACAD_PROXY_OBJECT
  5
19F
102
{ACAD_REACTORS
330
10C
102
}
330
10C
100
AcDbProxyObject
 90
      499
 91
      507
 95
       23
 70
     0
 93
      249
310
90D312F3422203D2031272D302200000000000000340FC00000000000028407F
 94
        0
1001
ACAD
1000
AcRTDxfName
1000
SCALE
1000
AcRTDxfName
1000
SCALE
  0
ACAD_PROXY_OBJECT
  5
1A0
102
{ACAD_REACTORS
330
10C
102
}
330
10C
100
AcDbProxyObject
 90
      499
 91
      507
 95
       23
 70
     0
 93
      249
310
90D332F3822203D2031272D302200000000000000360FC00000000000028407F
 94
        0
1001
ACAD
1000
AcRTDxfName
1000
SCALE
1000
AcRTDxfName
1000
SCALE
  0
ACAD_PROXY_OBJECT
  5
1A1
102
{ACAD_REACTORS
330
10C
102
}
330
10C
100
AcDbProxyObject
 90
      499
 91
      507
 95
       23
 70
     0
 93
      249
310
90D312F3222203D2031272D302200000000000000380FC00000000000028407F
 94
        0
1001
ACAD
1000
AcRTDxfName
1000
SCALE
1000
AcRTDxfName
1000
SCALE
  0
ACAD_PROXY_OBJECT
  5
1A2
102
{ACAD_REACTORS
330
10C
102
}
330
10C
100
AcDbProxyObject
 90
      499
 91
      507
 95
       23
 70
     0
 93
      249
310
90D332F3422203D2031272D3022000000000000003A0FC00000000000028407F
 94
        0
1001
ACAD
1000
AcRTDxfName
1000
SCALE
1000
AcRTDxfName
1000
SCALE
  0
ACAD_PROXY_OBJECT
  5
1A3
102
{ACAD_REACTORS
330
10C
102
}
330
10C
100
AcDbProxyObject
 90
      499
 91
      507
 95
       23
 70
     0
 93
      169
310
90B3122203D2031272D302200400000000000028407F
 94
        0
1001
ACAD
1000
AcRTDxfName
1000
SCALE
1000
AcRTDxfName
1000
SCALE
  0
ACAD_PROXY_OBJECT
  5
1A4
102
{ACAD_REACTORS
330
10C
102
}
330
10C
100
AcDbProxyObject
 90
      499
 91
      507
 95
       23
 70
     0
 93
      265
310
90F312D312F3222203D2031272D3022000000000000003E0FC00000000000028407F
 94
        0
1001
ACAD
1000
AcRTDxfName
1000
SCALE
1000
AcRTDxfName
1000
SCALE
  0
ACAD_PROXY_OBJECT
  5
1A5
102
{ACAD_REACTORS
330
10C
102
}
330
10C
100
AcDbProxyObject
 90
      499
 91
      507
 95
       23
 70
     0
 93
      233
310
90B3322203D2031272D3022000000000000000210000000000000028407F
 94
        0
1001
ACAD
1000
AcRTDxfName
1000
SCALE
1000
AcRTDxfName
1000
SCALE
  0
ACAD_PROXY_OBJECT
  5
1A6
102
{ACAD_REACTORS
330
10C
102
}
330
10C
100
AcDbProxyObject
 90
      499
 91
      507
 95
       23
 70
     0
 93
      233
310
90B3622203D2031272D3022000000000000000610000000000000028407F
 94
        0
1001
ACAD
1000
AcRTDxfName
1000
SCALE
1000
AcRTDxfName
1000
SCALE
  0
ACAD_PROXY_OBJECT
  5
1A7
102
{ACAD_REACTORS
330
10C
102
}
330
10C
100
AcDbProxyObject
 90
      499
 91
      507
 95
       23
 70
     0
 93
      257
310
90E31272D3022203D2031272D3022000000000000000A10000000000000028407F
 94
        0
1001
ACAD
1000
AcRTDxfName
1000
SCALE
1000
AcRTDxfName
1000
SCALE
  0
TABLESTYLE
  5
7F
102
{ACAD_XDICTIONARY
360
162
102
}
102
{ACAD_REACTORS
330
7E
102
}
330
7E
100
AcDbTableStyle
  3
Standard
 70
     0
 71
     0
 40
1.5
 41
1.5
280
     0
281
     0
  7
Standard
140
4.5
170
     2
 62
     0
 63
     7
283
     0
274
    -2
284
     1
 64
     0
275
    -2
285
     1
 65
     0
276
    -2
286
     1
 66
     0
277
    -2
287
     1
 67
     0
278
    -2
288
     1
 68
     0
279
    -2
289
     1
 69
     0
  7
Standard
140
6.0
170
     5
 62
     0
 63
     7
283
     0
274
    -2
284
     1
 64
     0
275
    -2
285
     1
 65
     0
276
    -2
286
     1
 66
     0
277
    -2
287
     1
 67
     0
278
    -2
288
     1
 68
     0
279
    -2
289
     1
 69
     0
  7
Standard
140
4.5
170
     5
 62
     0
 63
     7
283
     0
274
    -2
284
     1
 64
     0
275
    -2
285
     1
 65
     0
276
    -2
286
     1
 66
     0
277
    -2
287
     1
 67
     0
278
    -2
288
     1
 68
     0
279
    -2
289
     1
 69
     0
  0
VISUALSTYLE
  5
F5
102
{ACAD_REACTORS
330
EF
102
}
330
EF
100
AcDbVisualStyle
  2
2dWireframe
 70
     4
 71
     0
 72
     2
 73
     1
 90
        0
 40
-0.6
 41
-30.0
 62
     5
 63
     7
 74
     1
 91
        4
 64
     7
 65
   257
 75
     1
175
     1
 42
1.0
 92
        0
 66
   257
 43
1.0
 76
     1
 77
     6
 78
     2
 67
     7
 79
     5
170
     0
171
     0
290
     0
174
     0
 93
        1
 44
0.0
173
     0
291
     0
 45
0.0
1001
ACAD
1000
AcDbSavedByObjectVersion
1070
     0
  0
VISUALSTYLE
  5
F7
102
{ACAD_REACTORS
330
EF
102
}
330
EF
100
AcDbVisualStyle
  2
3D Hidden
 70
     6
 71
     1
 72
     2
 73
     2
 90
        0
 40
-0.6
 41
-30.0
 62
     5
 63
     7
 74
     2
 91
        2
 64
     7
 65
   257
 75
     2
175
     1
 42
40.0
 92
        0
 66
   257
 43
1.0
 76
     1
 77
     6
 78
     2
 67
     7
 79
     3
170
     0
171
     0
290
     0
174
     0
 93
        1
 44
0.0
173
     0
291
     0
 45
0.0
1001
ACAD
1000
AcDbSavedByObjectVersion
1070
     0
  0
VISUALSTYLE
  5
F6
102
{ACAD_REACTORS
330
EF
102
}
330
EF
100
AcDbVisualStyle
  2
3dWireframe
 70
     5
 71
     0
 72
     2
 73
     1
 90
        0
 40
-0.6
 41
-30.0
 62
     5
 63
     7
 74
     1
 91
        4
 64
     7
 65
   257
 75
     1
175
     1
 42
1.0
 92
        0
 66
   257
 43
1.0
 76
     1
 77
     6
 78
     2
 67
     7
 79
     5
170
     0
171
     0
290
     0
174
     0
 93
        1
 44
0.0
173
     0
291
     0
 45
0.0
1001
ACAD
1000
AcDbSavedByObjectVersion
1070
     0
  0
VISUALSTYLE
  5
F4
102
{ACAD_REACTORS
330
EF
102
}
330
EF
100
AcDbVisualStyle
  2
Basic
 70
     7
 71
     1
 72
     0
 73
     1
 90
        0
 40
-0.6
 41
-30.0
 62
     5
 63
     7
 74
     0
 91
        4
 64
     7
 65
   257
 75
     1
175
     1
 42
1.0
 92
        8
 66
     7
 43
1.0
 76
     1
 77
     6
 78
     2
 67
     7
 79
     5
170
     0
171
     0
290
     0
174
     0
 93
        1
 44
0.0
173
     0
291
     1
 45
0.0
1001
ACAD
1000
AcDbSavedByObjectVersion
1070
     0
  0
VISUALSTYLE
  5
FB
102
{ACAD_REACTORS
330
EF
102
}
330
EF
100
AcDbVisualStyle
  2
Brighten
 70
    12
 71
     2
 72
     2
 73
     1
 90
        0
 40
-0.6
 41
-30.0
 62
     5
 63
     7
 74
     1
 91
        4
 64
     7
 65
   257
 75
     1
175
     1
 42
1.0
 92
        8
 66
     7
 43
1.0
 76
     1
 77
     6
 78
     2
 67
     7
 79
     5
170
     0
171
     0
290
     0
174
     0
 93
        1
 44
50.0
173
     0
291
     1
 45
0.0
1001
ACAD
1000
AcDbSavedByObjectVersion
1070
     0
  0
VISUALSTYLE
  5
FF
102
{ACAD_REACTORS
330
EF
102
}
330
EF
100
AcDbVisualStyle
  2
ColorChange
 70
    16
 71
     2
 72
     2
 73
     3
 90
        0
 40
-0.6
 41
-30.0
 62
     5
 63
     8
 74
     1
 91
        4
 64
     7
 65
   257
 75
     1
175
     1
 42
1.0
 92
        8
 66
     8
 43
1.0
 76
     1
 77
     6
 78
     2
 67
     7
 79
     5
170
     0
171
     0
290
     0
174
     0
 93
        1
 44
0.0
173
     0
291
     1
 45
0.0
1001
ACAD
1000
AcDbSavedByObjectVersion
1070
     0
  0
VISUALSTYLE
  5
F8
102
{ACAD_REACTORS
330
EF
102
}
330
EF
100
AcDbVisualStyle
  2
Conceptual
 70
     9
 71
     3
 72
     2
 73
     1
 90
        0
 40
-0.6
 41
-30.0
 62
     5
 63
     7
 74
     2
 91
        2
 64
     7
 65
   257
 75
     1
175
     1
 42
40.0
 92
        8
 66
     7
 43
1.0
 76
     1
 77
     6
 78
     2
 67
     7
 79
     3
170
     0
171
     0
290
     0
174
     0
 93
        1
 44
0.0
173
     0
291
     0
 45
0.0
1001
ACAD
1000
AcDbSavedByObjectVersion
1070
     0
  0
VISUALSTYLE
  5
FA
102
{ACAD_REACTORS
330
EF
102
}
330
EF
100
AcDbVisualStyle
  2
Dim
 70
    11
 71
     2
 72
     2
 73
     1
 90
        0
 40
-0.6
 41
-30.0
 62
     5
 63
     7
 74
     1
 91
        4
 64
     7
 65
   257
 75
     1
175
     1
 42
1.0
 92
        8
 66
     7
 43
1.0
 76
     1
 77
     6
 78
     2
 67
     7
 79
     5
170
     0
171
     0
290
     0
174
     0
 93
        1
 44
-50.0
173
     0
291
     1
 45
0.0
1001
ACAD
1000
AcDbSavedByObjectVersion
1070
     0
  0
VISUALSTYLE
  5
FE
102
{ACAD_REACTORS
330
EF
102
}
330
EF
100
AcDbVisualStyle
  2
Facepattern
 70
    15
 71
     2
 72
     2
 73
     1
 90
        0
 40
-0.6
 41
-30.0
 62
     5
 63
     7
 74
     1
 91
        4
 64
     7
 65
   257
 75
     1
175
     1
 42
1.0
 92
        8
 66
     7
 43
1.0
 76
     1
 77
     6
 78
     2
 67
     7
 79
     5
170
     0
171
     0
290
     0
174
     0
 93
        1
 44
0.0
173
     0
291
     1
 45
0.0
1001
ACAD
1000
AcDbSavedByObjectVersion
1070
     0
  0
VISUALSTYLE
  5
F0
102
{ACAD_REACTORS
330
EF
102
}
330
EF
100
AcDbVisualStyle
  2
Flat
 70
     0
 71
     2
 72
     1
 73
     1
 90
        2
 40
-0.6
 41
30.0
 62
     5
 63
     7
 74
     0
 91
        4
 64
     7
 65
   257
 75
     1
175
     1
 42
1.0
 92
        8
 66
     7
 43
1.0
 76
     1
 77
     6
 78
     2
 67
     7
 79
     5
170
     0
171
     0
290
     0
174
     0
 93
        1
 44
0.0
173
     0
291
     1
 45
0.0
1001
ACAD
1000
AcDbSavedByObjectVersion
1070
     0
  0
VISUALSTYLE
  5
F1
102
{ACAD_REACTORS
330
EF
102
}
330
EF
100
AcDbVisualStyle
  2
FlatWithEdges
 70
     1
 71
     2
 72
     1
 73
     1
 90
        2
 40
-0.6
 41
30.0
 62
     5
 63
     7
 74
     1
 91
        4
 64
     7
 65
   257
 75
     1
175
     1
 42
1.0
 92
        0
 66
   257
 43
1.0
 76
     1
 77
     6
 78
     2
 67
     7
 79
     5
170
     0
171
     0
290
     0
174
     0
 93
        1
 44
0.0
173
     0
291
     1
 45
0.0
1001
ACAD
1000
AcDbSavedByObjectVersion
1070
     0
  0
VISUALSTYLE
  5
F2
102
{ACAD_REACTORS
330
EF
102
}
330
EF
100
AcDbVisualStyle
  2
Gouraud
 70
     2
 71
     2
 72
     2
 73
     1
 90
        2
 40
-0.6
 41
30.0
 62
     5
 63
     7
 74
     0
 91
        4
 64
     7
 65
   257
 75
     1
175
     1
 42
1.0
 92
        0
 66
     7
 43
1.0
 76
     1
 77
     6
 78
     2
 67
     7
 79
     5
170
     0
171
     0
290
     0
174
     0
 93
        1
 44
0.0
173
     0
291
     1
 45
0.0
1001
ACAD
1000
AcDbSavedByObjectVersion
1070
     0
  0
VISUALSTYLE
  5
F3
102
{ACAD_REACTORS
330
EF
102
}
330
EF
100
AcDbVisualStyle
  2
GouraudWithEdges
 70
     3
 71
     2
 72
     2
 73
     1
 90
        2
 40
-0.6
 41
30.0
 62
     5
 63
     7
 74
     1
 91
        4
 64
     7
 65
   257
 75
     1
175
     1
 42
1.0
 92
        0
 66
   257
 43
1.0
 76
     1
 77
     6
 78
     2
 67
     7
 79
     5
170
     0
171
     0
290
     0
174
     0
 93
        1
 44
0.0
173
     0
291
     1
 45
0.0
1001
ACAD
1000
AcDbSavedByObjectVersion
1070
     0
  0
VISUALSTYLE
  5
FD
102
{ACAD_REACTORS
330
EF
102
}
330
EF
100
AcDbVisualStyle
  2
Linepattern
 70
    14
 71
     2
 72
     2
 73
     1
 90
        0
 40
-0.6
 41
-30.0
 62
     5
 63
     7
 74
     1
 91
        4
 64
     7
 65
   257
 75
     7
175
     7
 42
1.0
 92
        8
 66
     7
 43
1.0
 76
     1
 77
     6
 78
     2
 67
     7
 79
     5
170
     0
171
     0
290
     0
174
     0
 93
        1
 44
0.0
173
     0
291
     1
 45
0.0
1001
ACAD
1000
AcDbSavedByObjectVersion
1070
     0
  0
VISUALSTYLE
  5
F9
102
{ACAD_REACTORS
330
EF
102
}
330
EF
100
AcDbVisualStyle
  2
Realistic
 70
     8
 71
     2
 72
     2
 73
     1
 90
        0
 40
-0.6
 41
-30.0
 62
     5
 63
     7
 74
     1
 91
        0
 64
     7
 65
   257
 75
     1
175
     1
 42
1.0
 92
        8
 66
     8
 43
1.0
 76
     1
 77
     6
 78
     2
 67
     7
 79
     5
170
     0
171
     0
290
     0
174
     0
 93
       13
 44
0.0
173
     0
291
     0
 45
0.0
1001
ACAD
1000
AcDbSavedByObjectVersion
1070
     0
  0
VISUALSTYLE
  5
FC
102
{ACAD_REACTORS
330
EF
102
}
330
EF
100
AcDbVisualStyle
  2
Thicken
 70
    13
 71
     2
 72
     2
 73
     1
 90
        0
 40
-0.6
 41
-30.0
 62
     5
 63
     7
 74
     1
 91
        4
 64
     7
 65
   257
 75
     1
175
     1
 42
1.0
 92
       12
 66
     7
 43
1.0
 76
     1
 77
     6
 78
     2
 67
     7
 79
     5
170
     0
171
     0
290
     0
174
     0
 93
        1
 44
0.0
173
     0
291
     1
 45
0.0
1001
ACAD
1000
AcDbSavedByObjectVersion
1070
     0
  0
DICTIONARYVAR
  5
146
102
{ACAD_REACTORS
330
5E
102
}
330
5E
100
DictionaryVariables
280
     0
  1
1:1
  0
DICTIONARYVAR
  5
145
102
{ACAD_REACTORS
330
5E
102
}
330
5E
100
DictionaryVariables
280
     0
  1
STANDARD
  0
DICTIONARYVAR
  5
84
102
{ACAD_REACTORS
330
5E
102
}
330
5E
100
DictionaryVariables
280
     0
  1
STANDARD
  0
DICTIONARYVAR
  5
5F
102
{ACAD_REACTORS
330
5E
102
}
330
5E
100
DictionaryVariables
280
     0
  1
2
  0
DICTIONARYVAR
  5
63
102
{ACAD_REACTORS
330
5E
102
}
330
5E
100
DictionaryVariables
280
     0
  1
1
  0
DICTIONARYVAR
  5
466
102
{ACAD_REACTORS
330
5E
102
}
330
5E
100
DictionaryVariables
280
     0
  1
0
  0
DICTIONARYVAR
  5
464
102
{ACAD_REACTORS
330
5E
102
}
330
5E
100
DictionaryVariables
280
     0
  1
2
  0
DICTIONARYVAR
  5
463
102
{ACAD_REACTORS
330
5E
102
}
330
5E
100
DictionaryVariables
280
     0
  1
1
  0
DICTIONARYVAR
  5
2749
102
{ACAD_REACTORS
330
5E
102
}
330
5E
100
DictionaryVariables
280
     0
  1
80.000000
  0
DICTIONARYVAR
  5
2748
102
{ACAD_REACTORS
330
5E
102
}
330
5E
100
DictionaryVariables
280
     0
  1
5.000000
  0
DICTIONARYVAR
  5
465
102
{ACAD_REACTORS
330
5E
102
}
330
5E
100
DictionaryVariables
280
     0
  1
127
  0
DICTIONARY
  5
2230
102
{ACAD_REACTORS
330
222F
102
}
330
222F
100
AcDbDictionary
281
     1
  0
DICTIONARY
  5
2255
102
{ACAD_REACTORS
330
2254
102
}
330
2254
100
AcDbDictionary
281
     1
  0
DICTIONARY
  5
225A
102
{ACAD_REACTORS
330
2259
102
}
330
2259
100
AcDbDictionary
281
     1
  0
DICTIONARY
  5
274E
330
D3
100
AcDbDictionary
280
     1
281
     1
  3
ACAD_XREC_ROUNDTRIP
360
274F
  0
DICTIONARY
  5
2750
330
D7
100
AcDbDictionary
280
     1
281
     1
  3
ACAD_XREC_ROUNDTRIP
360
2751
  0
DICTIONARY
  5
274B
330
22
100
AcDbDictionary
280
     1
281
     1
  3
ACAD_XREC_ROUNDTRIP
360
274C
  0
DICTIONARY
  5
2754
330
ED
100
AcDbDictionary
280
     1
281
     1
  3
ACAD_XREC_ROUNDTRIP
360
2755
  0
DICTIONARY
  5
2752
330
EC
100
AcDbDictionary
280
     1
281
     1
  3
ACAD_XREC_ROUNDTRIP
360
2753
  0
DICTIONARY
  5
173
330
EE
100
AcDbDictionary
280
     1
281
     1
  3
ACAD_XREC_ROUNDTRIP
360
2756
  3
BUMPTILE
360
175
  3
DIFFUSETILE
360
174
  3
OPACITYTILE
360
176
  3
REFLECTIONTILE
360
177
  0
DICTIONARY
  5
162
330
7F
100
AcDbDictionary
280
     1
281
     1
  3
ACAD_ROUNDTRIP_2008_TABLESTYLE_CELLSTYLEMAP
360
260F
  3
ACAD_XREC_ROUNDTRIP
360
274D
  0
XRECORD
  5
274F
102
{ACAD_REACTORS
330
274E
102
}
330
274E
100
AcDbXrecord
280
     1
102
SHADEPLOT
 70
     0
102
SHADEPLOTRESLEVEL
 70
     2
102
SHADEPLOTCUSTOMDPI
 70
   300
  0
XRECORD
  5
2751
102
{ACAD_REACTORS
330
2750
102
}
330
2750
100
AcDbXrecord
280
     1
102
SHADEPLOT
 70
     0
102
SHADEPLOTRESLEVEL
 70
     2
102
SHADEPLOTCUSTOMDPI
 70
   300
  0
XRECORD
  5
274C
102
{ACAD_REACTORS
330
274B
102
}
330
274B
100
AcDbXrecord
280
     1
102
SHADEPLOT
 70
     0
102
SHADEPLOTRESLEVEL
 70
     2
102
SHADEPLOTCUSTOMDPI
 70
   300
  0
XRECORD
  5
2755
102
{ACAD_REACTORS
330
2754
102
}
330
2754
100
AcDbXrecord
280
     1
102
MATERIAL
148
0.0
149
0.0
149
0.0
 93
        0
 94
       63
282
     0
 72
     1
 77
     1
171
     1
175
     1
179
     1
273
     0
  0
XRECORD
  5
2753
102
{ACAD_REACTORS
330
2752
102
}
330
2752
100
AcDbXrecord
280
     1
102
MATERIAL
148
0.0
149
0.0
149
0.0
 93
        0
 94
       63
282
     0
 72
     1
 77
     1
171
     1
175
     1
179
     1
273
     0
  0
XRECORD
  5
2756
102
{ACAD_REACTORS
330
173
102
}
330
173
100
AcDbXrecord
280
     1
102
MATERIAL
148
0.0
149
0.0
149
0.0
 93
        0
 94
       63
282
     0
 72
     1
 77
     1
171
     1
175
     1
179
     1
273
     0
  0
XRECORD
  5
175
102
{ACAD_REACTORS
330
173
102
}
330
173
100
AcDbXrecord
280
     1
270
     1
271
     1
  0
XRECORD
  5
174
102
{ACAD_REACTORS
330
173
102
}
330
173
100
AcDbXrecord
280
     1
270
     1
271
     1
  0
XRECORD
  5
176
102
{ACAD_REACTORS
330
173
102
}
330
173
100
AcDbXrecord
280
     1
270
     1
271
     1
  0
XRECORD
  5
177
102
{ACAD_REACTORS
330
173
102
}
330
173
100
AcDbXrecord
280
     1
270
     1
271
     1
  0
ACAD_PROXY_OBJECT
  5
260F
102
{ACAD_REACTORS
330
162
102
}
330
162
100
AcDbProxyObject
 90
      499
 91
      509
 95
       23
 70
     0
 93
     5304
310
40D054060020000020000003200101A000080002A5058000000C10000000000000006101010000000000003E0FC000000000000F83F0000000000003E0FC000000000000F83F02B5E8DC0F42B1CFC0AD7A3703D0AC73F419019018000000C1003FBFFFFFE0000000000003C8FD029018000000C1003FBFFFFFE00000000000
310
03C8FD049018000000C1003FBFFFFFE0000000000003C8FD089018000000C1003FBFFFFFE0000000000003C8FD109018000000C1003FBFFFFFE0000000000003C8FD209018000000C1003FBFFFFFE0000000000003C8FD01405075F5449544C450041501A8000000C800406800020000A94160000003040000000000000012
310
40404000000000000F83F0000000000003E0FC000000000000F83F0000000000003E0FC0AD7A3703D0AC73F02B5E8DC0F42B1CFD0640640600000030400FEFFFFFF8000000000000F23F40A40600000030400FEFFFFFF8000000000000F23F41240600000030400FEFFFFFF8000000000000F23F42240600000030400FEFFF
310
FFF8000000000000F23F44240600000030400FEFFFFFF8000000000000F23F48240600000030400FEFFFFFF8000000000000F23F409014217D2115051115480105406A0000003200101A000080002A5028000000C10000000000000004901010000000000003E0FC000000000000F83F0000000000003E0FC000000000000F
310
83F02B5E8DC0F42B1CFC0AD7A3703D0AC73F419019018000000C1003FBFFFFFE0000000000003C8FD029018000000C1003FBFFFFFE0000000000003C8FD049018000000C1003FBFFFFFE0000000000003C8FD089018000000C1003FBFFFFFE0000000000003C8FD109018000000C1003FBFFFFFE0000000000003C8FD20901
310
8000000C1003FBFFFFFE0000000000003C8FD03409065F444154410000
340
11
340
14
340
14
340
14
340
14
340
14
340
14
340
11
340
14
340
14
340
14
340
14
340
14
340
14
340
11
340
14
340
14
340
14
340
14
340
14
340
14
 94
        0
1001
ACAD
1000
AcRTDxfName
1000
CELLSTYLEMAP
1000
AcRTDxfName
1000
CELLSTYLEMAP
  0
XRECORD
  5
274D
102
{ACAD_REACTORS
330
162
102
}
330
162
100
AcDbXrecord
280
     1
102
ACAD_ROUNDTRIP_PRE2007_TABLESTYLE
 90
      512
 91
        0
  1

 92
      512
 93
        0
  2

 94
      512
 95
        0
  3

  0
ENDSEC
  0
EOF
