  0
SECTION
  2
HEADER
  9
$ACADVER
  1
AC1015
  9
$ACADMAINTVER
 70
    20
  9
$DWGCODEPAGE
  3
ANSI_1250
  9
$INSBASE
 10
0.0
 20
0.0
 30
0.0
  9
$EXTMIN
 10
-1.321664306770344
 20
-0.004528679247187
 30
-0.0000000000112498
  9
$EXTMAX
 10
333.0403109004898
 20
297.0045328285427
 30
0.0000000000002956
  9
$LIMMIN
 10
-1.316566084748046
 20
0.0
  9
$LIMMAX
 10
333.0352080073419
 20
297.0
  9
$ORTHOMODE
 70
     0
  9
$REGENMODE
 70
     1
  9
$FILLMODE
 70
     1
  9
$QTEXTMODE
 70
     0
  9
$MIRRTEXT
 70
     0
  9
$LTSCALE
 40
1.0
  9
$ATTMODE
 70
     2
  9
$TEXTSIZE
 40
5.0
  9
$TRACEWID
 40
1.0
  9
$TEXTSTYLE
  7
Solbet_5
  9
$CLAYER
  8
SOLBET_Bloczki
  9
$CELTYPE
  6
ByLayer
  9
$CECOLOR
 62
   256
  9
$CELTSCALE
 40
1.0
  9
$DISPSILH
 70
     0
  9
$DIMSCALE
 40
1.0
  9
$DIMASZ
 40
2.5
  9
$DIMEXO
 40
0.0
  9
$DIMDLI
 40
3.75
  9
$DIMRND
 40
0.0
  9
$DIMDLE
 40
0.0
  9
$DIMEXE
 40
1.25
  9
$DIMTP
 40
0.0
  9
$DIMTM
 40
0.0
  9
$DIMTXT
 40
2.5
  9
$DIMCEN
 40
2.5
  9
$DIMTSZ
 40
0.0
  9
$DIMTOL
 70
     0
  9
$DIMLIM
 70
     0
  9
$DIMTIH
 70
     0
  9
$DIMTOH
 70
     0
  9
$DIMSE1
 70
     0
  9
$DIMSE2
 70
     0
  9
$DIMTAD
 70
     1
  9
$DIMZIN
 70
     8
  9
$DIMBLK
  1

  9
$DIMASO
 70
     1
  9
$DIMSHO
 70
     1
  9
$DIMPOST
  1

  9
$DIMAPOST
  1

  9
$DIMALT
 70
     0
  9
$DIMALTD
 70
     3
  9
$DIMALTF
 40
0.03937007874016
  9
$DIMLFAC
 40
1.0
  9
$DIMTOFL
 70
     1
  9
$DIMTVP
 40
0.0
  9
$DIMTIX
 70
     0
  9
$DIMSOXD
 70
     0
  9
$DIMSAH
 70
     0
  9
$DIMBLK1
  1

  9
$DIMBLK2
  1

  9
$DIMSTYLE
  2
Solbet
  9
$DIMCLRD
 70
     0
  9
$DIMCLRE
 70
     0
  9
$DIMCLRT
 70
     0
  9
$DIMTFAC
 40
1.0
  9
$DIMGAP
 40
0.625
  9
$DIMJUST
 70
     0
  9
$DIMSD1
 70
     0
  9
$DIMSD2
 70
     0
  9
$DIMTOLJ
 70
     0
  9
$DIMTZIN
 70
     8
  9
$DIMALTZ
 70
     0
  9
$DIMALTTZ
 70
     0
  9
$DIMUPT
 70
     0
  9
$DIMDEC
 70
     2
  9
$DIMTDEC
 70
     2
  9
$DIMALTU
 70
     2
  9
$DIMALTTD
 70
     3
  9
$DIMTXSTY
  7
Solbet_2_5
  9
$DIMAUNIT
 70
     0
  9
$DIMADEC
 70
     0
  9
$DIMALTRND
 40
0.0
  9
$DIMAZIN
 70
     0
  9
$DIMDSEP
 70
    44
  9
$DIMATFIT
 70
     3
  9
$DIMFRAC
 70
     0
  9
$DIMLDRBLK
  1

  9
$DIMLUNIT
 70
     2
  9
$DIMLWD
 70
    -2
  9
$DIMLWE
 70
    -2
  9
$DIMTMOVE
 70
     0
  9
$LUNITS
 70
     2
  9
$LUPREC
 70
     4
  9
$SKETCHINC
 40
1.0
  9
$FILLETRAD
 40
0.0
  9
$AUNITS
 70
     0
  9
$AUPREC
 70
     0
  9
$MENU
  1
.
  9
$ELEVATION
 40
0.0
  9
$PELEVATION
 40
0.0
  9
$THICKNESS
 40
0.0
  9
$LIMCHECK
 70
     0
  9
$CHAMFERA
 40
0.0
  9
$CHAMFERB
 40
0.0
  9
$CHAMFERC
 40
0.0
  9
$CHAMFERD
 40
0.0
  9
$SKPOLY
 70
     0
  9
$TDCREATE
 40
2454690.075573148
  9
$TDUCREATE
 40
2454690.033906482
  9
$TDUPDATE
 40
2454848.879871146
  9
$TDUUPDATE
 40
2454848.838204480
  9
$TDINDWG
 40
0.4524918056
  9
$TDUSRTIMER
 40
0.4524872801
  9
$USRTIMER
 70
     1
  9
$ANGBASE
 50
0.0
  9
$ANGDIR
 70
     0
  9
$PDMODE
 70
     0
  9
$PDSIZE
 40
0.0
  9
$PLINEWID
 40
0.0
  9
$SPLFRAME
 70
     0
  9
$SPLINETYPE
 70
     6
  9
$SPLINESEGS
 70
     8
  9
$HANDSEED
  5
2611
  9
$SURFTAB1
 70
     6
  9
$SURFTAB2
 70
     6
  9
$SURFTYPE
 70
     6
  9
$SURFU
 70
     6
  9
$SURFV
 70
     6
  9
$UCSBASE
  2

  9
$UCSNAME
  2

  9
$UCSORG
 10
0.0
 20
0.0
 30
0.0
  9
$UCSXDIR
 10
1.0
 20
0.0
 30
0.0
  9
$UCSYDIR
 10
0.0
 20
1.0
 30
0.0
  9
$UCSORTHOREF
  2

  9
$UCSORTHOVIEW
 70
     0
  9
$UCSORGTOP
 10
0.0
 20
0.0
 30
0.0
  9
$UCSORGBOTTOM
 10
0.0
 20
0.0
 30
0.0
  9
$UCSORGLEFT
 10
0.0
 20
0.0
 30
0.0
  9
$UCSORGRIGHT
 10
0.0
 20
0.0
 30
0.0
  9
$UCSORGFRONT
 10
0.0
 20
0.0
 30
0.0
  9
$UCSORGBACK
 10
0.0
 20
0.0
 30
0.0
  9
$PUCSBASE
  2

  9
$PUCSNAME
  2

  9
$PUCSORG
 10
0.0
 20
0.0
 30
0.0
  9
$PUCSXDIR
 10
1.0
 20
0.0
 30
0.0
  9
$PUCSYDIR
 10
0.0
 20
1.0
 30
0.0
  9
$PUCSORTHOREF
  2

  9
$PUCSORTHOVIEW
 70
     0
  9
$PUCSORGTOP
 10
0.0
 20
0.0
 30
0.0
  9
$PUCSORGBOTTOM
 10
0.0
 20
0.0
 30
0.0
  9
$PUCSORGLEFT
 10
0.0
 20
0.0
 30
0.0
  9
$PUCSORGRIGHT
 10
0.0
 20
0.0
 30
0.0
  9
$PUCSORGFRONT
 10
0.0
 20
0.0
 30
0.0
  9
$PUCSORGBACK
 10
0.0
 20
0.0
 30
0.0
  9
$USERI1
 70
     0
  9
$USERI2
 70
     0
  9
$USERI3
 70
     0
  9
$USERI4
 70
     0
  9
$USERI5
 70
     0
  9
$USERR1
 40
0.0
  9
$USERR2
 40
0.0
  9
$USERR3
 40
0.0
  9
$USERR4
 40
0.0
  9
$USERR5
 40
0.0
  9
$WORLDVIEW
 70
     1
  9
$SHADEDGE
 70
     3
  9
$SHADEDIF
 70
    70
  9
$TILEMODE
 70
     1
  9
$MAXACTVP
 70
    64
  9
$PINSBASE
 10
0.0
 20
0.0
 30
0.0
  9
$PLIMCHECK
 70
     0
  9
$PEXTMIN
 10
0.0
 20
0.0
 30
0.0
  9
$PEXTMAX
 10
0.0
 20
0.0
 30
0.0
  9
$PLIMMIN
 10
0.0
 20
0.0
  9
$PLIMMAX
 10
12.0
 20
9.0
  9
$UNITMODE
 70
     0
  9
$VISRETAIN
 70
     1
  9
$PLINEGEN
 70
     0
  9
$PSLTSCALE
 70
     1
  9
$TREEDEPTH
 70
  3020
  9
$CMLSTYLE
  2
SOLBET_IZOLACJA
  9
$CMLJUST
 70
     0
  9
$CMLSCALE
 40
20.0
  9
$PROXYGRAPHICS
 70
     1
  9
$MEASUREMENT
 70
     1
  9
$CELWEIGHT
370
    -1
  9
$ENDCAPS
280
     0
  9
$JOINSTYLE
280
     0
  9
$LWDISPLAY
290
     1
  9
$INSUNITS
 70
     4
  9
$HYPERLINKBASE
  1

  9
$STYLESHEET
  1

  9
$XEDIT
290
     1
  9
$CEPSNTYPE
380
     0
  9
$PSTYLEMODE
290
     1
  9
$FINGERPRINTGUID
  2
{6B12AB33-8E39-428E-8E85-461C8D99A3CB}
  9
$VERSIONGUID
  2
{D921C994-8DE0-46E8-98AC-B28CADA7E338}
  9
$EXTNAMES
290
     1
  9
$PSVPSCALE
 40
0.0
  9
$OLESTARTUP
290
     0
  0
ENDSEC
  0
SECTION
  2
CLASSES
  0
CLASS
  1
ACDBDICTIONARYWDFLT
  2
AcDbDictionaryWithDefault
  3
ObjectDBX Classes
 90
        0
280
     0
281
     0
  0
CLASS
  1
ACDBPLACEHOLDER
  2
AcDbPlaceHolder
  3
ObjectDBX Classes
 90
        0
280
     0
281
     0
  0
CLASS
  1
LAYOUT
  2
AcDbLayout
  3
ObjectDBX Classes
 90
        0
280
     0
281
     0
  0
CLASS
  1
DICTIONARYVAR
  2
AcDbDictionaryVar
  3
ObjectDBX Classes
 90
        0
280
     0
281
     0
  0
CLASS
  1
TABLESTYLE
  2
AcDbTableStyle
  3
ObjectDBX Classes
 90
     4095
280
     0
281
     0
  0
CLASS
  1
MATERIAL
  2
AcDbMaterial
  3
ObjectDBX Classes
 90
     1024
280
     0
281
     0
  0
CLASS
  1
VISUALSTYLE
  2
AcDbVisualStyle
  3
ObjectDBX Classes
 90
     4095
280
     0
281
     0
  0
CLASS
  1
SCALE
  2
AcDbScale
  3
ObjectDBX Classes
 90
     1153
280
     0
281
     0
  0
CLASS
  1
MLEADERSTYLE
  2
AcDbMLeaderStyle
  3
ACDB_MLEADERSTYLE_CLASS
 90
     4095
280
     0
281
     0
  0
CLASS
  1
CELLSTYLEMAP
  2
AcDbCellStyleMap
  3
ObjectDBX Classes
 90
     1152
280
     0
281
     0
  0
CLASS
  1
DIMASSOC
  2
AcDbDimAssoc
  3
"AcDbDimAssoc|Product Desc:     AcDim ARX App For Dimension|Company:          Autodesk, Inc.|WEB Address:      www.autodesk.com"
 90
    32768
280
     0
281
     0
  0
CLASS
  1
SORTENTSTABLE
  2
AcDbSortentsTable
  3
ObjectDBX Classes
 90
        0
280
     0
281
     0
  0
CLASS
  1
MULTILEADER
  2
AcDbMLeader
  3
ACDB_MLEADER_CLASS
 90
    33793
280
     0
281
     1
  0
CLASS
  1
ACDB_MTEXTOBJECTCONTEXTDATA_CLASS
  2
AcDbMTextObjectContextData
  3
ObjectDBX Classes
 90
    33921
280
     0
281
     0
  0
ENDSEC
  0
SECTION
  2
TABLES
  0
TABLE
  2
VPORT
  5
8
102
{ACAD_XDICTIONARY
360
443
102
}
330
0
100
AcDbSymbolTable
 70
     1
  0
VPORT
  5
EA
330
8
100
AcDbSymbolTableRecord
100
AcDbViewportTableRecord
  2
*Active
 70
     0
 10
0.0
 20
0.0
 11
1.0
 21
1.0
 12
165.8593232968597
 22
148.5000020746477
 13
0.0
 23
0.0
 14
10.0
 24
10.0
 15
10.0
 25
10.0
 16
0.0
 26
0.0
 36
1.0
 17
0.0
 27
0.0
 37
0.0
 40
300.3091621912098
 41
1.74582560296846
 42
50.0
 43
0.0
 44
0.0
 50
0.0
 51
0.0
 71
     0
 72
  1000
 73
     1
 74
     3
 75
     0
 76
     0
 77
     0
 78
     0
281
     0
 65
     1
110
0.0
120
0.0
130
0.0
111
1.0
121
0.0
131
0.0
112
0.0
122
1.0
132
0.0
 79
     0
146
0.0
  0
ENDTAB
  0
TABLE
  2
LTYPE
  5
5
330
0
100
AcDbSymbolTable
 70
     3
  0
LTYPE
  5
14
330
5
100
AcDbSymbolTableRecord
100
AcDbLinetypeTableRecord
  2
ByBlock
 70
     0
  3

 72
    65
 73
     0
 40
0.0
  0
LTYPE
  5
15
330
5
100
AcDbSymbolTableRecord
100
AcDbLinetypeTableRecord
  2
ByLayer
 70
     0
  3

 72
    65
 73
     0
 40
0.0
  0
LTYPE
  5
16
330
5
100
AcDbSymbolTableRecord
100
AcDbLinetypeTableRecord
  2
Continuous
 70
     0
  3
Solid line
 72
    65
 73
     0
 40
0.0
  0
LTYPE
  5
982
330
5
100
AcDbSymbolTableRecord
100
AcDbLinetypeTableRecord
  2
BATTING
 70
     0
  3
Batting SSSSSSSSSSSSSSSSSSSSSSSSSSSSSSSSSSSSSSSSSSSSSSS
 72
    65
 73
     4
 40
10.16254
 49
0.00254
 74
     0
 49
-2.54
 74
     4
 75
   134
340
7E7
 46
2.54
 50
0.0
 44
-2.54
 45
0.0
 49
-5.08
 74
     4
 75
   134
340
7E7
 46
2.54
 50
180.0
 44
2.54
 45
0.0
 49
-2.54
 74
     0
  0
LTYPE
  5
209B
330
5
100
AcDbSymbolTableRecord
100
AcDbLinetypeTableRecord
  2
STRICHPUNKT
 70
     0
  3
__ . __ . __ . __ . __ . __ . __ . __ . __ . __
 72
    65
 73
     4
 40
1.0
 49
0.5
 74
     0
 49
-0.25
 74
     0
 49
0.0
 74
     0
 49
-0.25
 74
     0
  0
ENDTAB
  0
TABLE
  2
LAYER
  5
2
102
{ACAD_XDICTIONARY
360
3E5
102
}
330
0
100
AcDbSymbolTable
 70
    11
  0
LAYER
  5
10
102
{ACAD_XDICTIONARY
360
13C
102
}
330
2
100
AcDbSymbolTableRecord
100
AcDbLayerTableRecord
  2
0
 70
     0
 62
     7
  6
Continuous
370
    -3
390
F
  0
LAYER
  5
2BB
330
2
100
AcDbSymbolTableRecord
100
AcDbLayerTableRecord
  2
DEFPOINTS
 70
     0
 62
     7
  6
Continuous
290
     0
370
    -3
390
F
  0
LAYER
  5
3DD
102
{ACAD_XDICTIONARY
360
403
102
}
330
2
100
AcDbSymbolTableRecord
100
AcDbLayerTableRecord
  2
SOLBET_Bloczki
 70
     0
 62
   140
  6
Continuous
370
    -3
390
F
1001
AcAecLayerStandard
1000

1000

  0
LAYER
  5
3DF
102
{ACAD_XDICTIONARY
360
405
102
}
330
2
100
AcDbSymbolTableRecord
100
AcDbLayerTableRecord
  2
SOLBET_Wymiary_Opisy
 70
     0
 62
     1
  6
Continuous
370
    -3
390
F
1001
AcAecLayerStandard
1000

1000

  0
LAYER
  5
3E1
102
{ACAD_XDICTIONARY
360
409
102
}
330
2
100
AcDbSymbolTableRecord
100
AcDbLayerTableRecord
  2
SOLBET_Izolacja
 70
     0
 62
    40
  6
Continuous
370
    -3
390
F
1001
AcAecLayerStandard
1000

1000

  0
LAYER
  5
3E2
102
{ACAD_XDICTIONARY
360
40B
102
}
330
2
100
AcDbSymbolTableRecord
100
AcDbLayerTableRecord
  2
SOLBET_Zbrojenie_Konstrukcja
 70
     0
 62
     7
  6
Continuous
370
    -3
390
F
1001
AcAecLayerStandard
1000

1000

  0
LAYER
  5
3E4
102
{ACAD_XDICTIONARY
360
40F
102
}
330
2
100
AcDbSymbolTableRecord
100
AcDbLayerTableRecord
  2
SOLBET_Tynki_Posadzki
 70
     0
 62
     3
  6
Continuous
370
    -3
390
F
1001
AcAecLayerStandard
1000

1000

  0
LAYER
  5
3E8
102
{ACAD_XDICTIONARY
360
411
102
}
330
2
100
AcDbSymbolTableRecord
100
AcDbLayerTableRecord
  2
SOLBET_Ramka_05
 70
     0
 62
     2
  6
Continuous
370
    -3
390
F
1001
AcAecLayerStandard
1000

1000

  0
LAYER
  5
472
330
2
100
AcDbSymbolTableRecord
100
AcDbLayerTableRecord
  2
SOLBET_Zaprawy
 70
     0
 62
     4
  6
Continuous
370
    -3
390
F
1001
AcAecLayerStandard
1000

1000

  0
LAYER
  5
220C
330
2
100
AcDbSymbolTableRecord
100
AcDbLayerTableRecord
  2
SOLBET_Stolarka_Okna
 70
     0
 62
     2
  6
Continuous
370
    -3
390
F
1001
AcAecLayerStandard
1000

1000

  0
LAYER
  5
24E9
102
{ACAD_XDICTIONARY
360
24EA
102
}
330
2
100
AcDbSymbolTableRecord
100
AcDbLayerTableRecord
  2
SOLBET_Wymiary_Opisy @ 1
 70
     0
 62
     1
  6
Continuous
370
    -3
390
F
1001
AcAecLayerStandard
1000

1000

1001
AcadAnnotativeDecomposition
1000
AnnotativeData
1002
{
1070
     1
1070
     1
1002
}
  0
ENDTAB
  0
TABLE
  2
STYLE
  5
3
330
0
100
AcDbSymbolTable
 70
     5
  0
STYLE
  5
11
330
3
100
AcDbSymbolTableRecord
100
AcDbTextStyleTableRecord
  2
Standard
 70
     0
 40
0.0
 41
1.0
 50
0.0
 71
     0
 42
2.5
  3
txt.shx
  4

  0
STYLE
  5
7D7
330
3
100
AcDbSymbolTableRecord
100
AcDbTextStyleTableRecord
  2
Solbet_5
 70
     0
 40
5.0
 41
1.0
 50
0.0
 71
     0
 42
5.0
  3
isocpeur.ttf
  4

1001
ACAD
1000
ISOCPEUR
1071
       34
  0
STYLE
  5
7D9
330
3
100
AcDbSymbolTableRecord
100
AcDbTextStyleTableRecord
  2
Solbet_2_5
 70
     0
 40
2.5
 41
1.0
 50
0.0
 71
     0
 42
2.5
  3
isocpeur.ttf
  4

1001
ACAD
1000
ISOCPEUR
1071
       34
  0
STYLE
  5
7E7
330
3
100
AcDbSymbolTableRecord
100
AcDbTextStyleTableRecord
  2

 70
     1
 40
0.0
 41
1.0
 50
0.0
 71
     0
 42
2.5
  3
ltypeshp.shx
  4

  0
STYLE
  5
2211
330
3
100
AcDbSymbolTableRecord
100
AcDbTextStyleTableRecord
  2
Solbet_1
 70
     0
 40
1.0
 41
1.0
 50
0.0
 71
     0
 42
2.5
  3
isocpeur.ttf
  4

1001
ACAD
1000
ISOCPEUR
1071
       34
  0
ENDTAB
  0
TABLE
  2
VIEW
  5
6
330
0
100
AcDbSymbolTable
 70
     0
  0
ENDTAB
  0
TABLE
  2
UCS
  5
7
330
0
100
AcDbSymbolTable
 70
     0
  0
ENDTAB
  0
TABLE
  2
APPID
  5
9
330
0
100
AcDbSymbolTable
 70
    13
  0
APPID
  5
12
330
9
100
AcDbSymbolTableRecord
100
AcDbRegAppTableRecord
  2
ACAD
 70
     0
  0
APPID
  5
9E
330
9
100
AcDbSymbolTableRecord
100
AcDbRegAppTableRecord
  2
ACAD_PSEXT
 70
     0
  0
APPID
  5
133
330
9
100
AcDbSymbolTableRecord
100
AcDbRegAppTableRecord
  2
AcadAnnoPO
 70
     0
  0
APPID
  5
134
330
9
100
AcDbSymbolTableRecord
100
AcDbRegAppTableRecord
  2
AcadAnnotative
 70
     0
  0
APPID
  5
135
330
9
100
AcDbSymbolTableRecord
100
AcDbRegAppTableRecord
  2
ACAD_DSTYLE_DIMJAG
 70
     0
  0
APPID
  5
136
330
9
100
AcDbSymbolTableRecord
100
AcDbRegAppTableRecord
  2
ACAD_DSTYLE_DIMTALN
 70
     0
  0
APPID
  5
165
330
9
100
AcDbSymbolTableRecord
100
AcDbRegAppTableRecord
  2
ACAD_MLEADERVER
 70
     0
  0
APPID
  5
2C4
330
9
100
AcDbSymbolTableRecord
100
AcDbRegAppTableRecord
  2
ASO_SCHRAFF
 70
     0
  0
APPID
  5
3DE
330
9
100
AcDbSymbolTableRecord
100
AcDbRegAppTableRecord
  2
AcAecLayerStandard
 70
     0
  0
APPID
  5
7DE
330
9
100
AcDbSymbolTableRecord
100
AcDbRegAppTableRecord
  2
ACAD_EXEMPT_FROM_CAD_STANDARDS
 70
     0
  0
APPID
  5
948
330
9
100
AcDbSymbolTableRecord
100
AcDbRegAppTableRecord
  2
ACAD_DSTYLE_DIMBREAK
 70
     0
  0
APPID
  5
1D0A
330
9
100
AcDbSymbolTableRecord
100
AcDbRegAppTableRecord
  2
AcadAnnotativeDecomposition
 70
     0
  0
APPID
  5
2212
330
9
100
AcDbSymbolTableRecord
100
AcDbRegAppTableRecord
  2
AcDbAttr
 70
     0
  0
ENDTAB
  0
TABLE
  2
DIMSTYLE
  5
A
330
0
100
AcDbSymbolTable
 70
     2
100
AcDbDimStyleTable
 71
     1
340
949
  0
DIMSTYLE
105
949
330
A
100
AcDbSymbolTableRecord
100
AcDbDimStyleTableRecord
  2
Solbet
 70
     0
 41
2.5
 42
0.0
 43
3.75
 44
1.25
 73
     0
 74
     0
 77
     1
 78
     8
140
2.5
141
2.5
143
0.03937007874016
147
0.625
171
     3
172
     1
271
     2
272
     2
274
     3
278
    44
283
     0
284
     8
340
7D9
1001
ACAD_DSTYLE_DIMBREAK
1070
   391
1040
3.75
1001
ACAD_DSTYLE_DIMJAG
1070
   388
1040
1.5
1001
ACAD_DSTYLE_DIMTALN
1070
   392
1070
     0
  0
DIMSTYLE
105
954
330
A
100
AcDbSymbolTableRecord
100
AcDbDimStyleTableRecord
  2
Solbet$7
 70
     0
 41
2.5
 42
0.0
 43
3.75
 44
1.25
 73
     0
 74
     0
 77
     1
 78
     8
140
2.5
141
2.5
143
0.03937007874016
147
0.625
171
     3
172
     1
271
     2
272
     2
274
     3
278
    44
283
     0
284
     8
340
7D9
341
958
1001
ACAD_DSTYLE_DIMBREAK
1070
   391
1040
3.75
1001
ACAD_DSTYLE_DIMJAG
1070
   388
1040
1.5
1001
ACAD_DSTYLE_DIMTALN
1070
   392
1070
     0
  0
ENDTAB
  0
TABLE
  2
BLOCK_RECORD
  5
1
330
0
100
AcDbSymbolTable
 70
    10
  0
BLOCK_RECORD
  5
1F
102
{ACAD_XDICTIONARY
360
4A3
102
}
330
1
100
AcDbSymbolTableRecord
100
AcDbBlockTableRecord
  2
*Model_Space
340
22
  0
BLOCK_RECORD
  5
D2
330
1
100
AcDbSymbolTableRecord
100
AcDbBlockTableRecord
  2
*Paper_Space
340
D3
  0
BLOCK_RECORD
  5
D6
330
1
100
AcDbSymbolTableRecord
100
AcDbBlockTableRecord
  2
*Paper_Space0
340
D7
  0
BLOCK_RECORD
  5
958
330
1
100
AcDbSymbolTableRecord
100
AcDbBlockTableRecord
  2
_DotSmall
340
0
102
{BLKREFS
331
22D3
102
}
  0
BLOCK_RECORD
  5
2213
102
{ACAD_XDICTIONARY
360
221F
102
}
330
1
100
AcDbSymbolTableRecord
100
AcDbBlockTableRecord
  2
SOLBET_Bloczek_Optimal_420x240x590_P+W_PRA
340
0
1001
ACAD
1000
DesignCenter Data
1002
{
1070
     1
1070
     4
1002
}
  0
BLOCK_RECORD
  5
2232
102
{ACAD_XDICTIONARY
360
2240
102
}
330
1
100
AcDbSymbolTableRecord
100
AcDbBlockTableRecord
  2
SOLBET_Ksztaltka_U_420x240x500_PRA
340
0
1001
ACAD
1000
DesignCenter Data
1002
{
1070
     1
1070
     4
1002
}
  0
BLOCK_RECORD
  5
226A
102
{ACAD_XDICTIONARY
360
2274
102
}
330
1
100
AcDbSymbolTableRecord
100
AcDbBlockTableRecord
  2
SOLBET_Plytka_80x240x590_brak_PRA
340
0
1001
ACAD
1000
DesignCenter Data
1002
{
1070
     1
1070
     4
1002
}
  0
BLOCK_RECORD
  5
23BD
102
{ACAD_XDICTIONARY
360
23C9
102
}
330
1
100
AcDbSymbolTableRecord
100
AcDbBlockTableRecord
  2
SOLBET_Bloczek_Ideal_420x240x590_P+W_PRA
340
0
1001
ACAD
1000
DesignCenter Data
1002
{
1070
     1
1070
     4
1002
}
  0
BLOCK_RECORD
  5
254C
102
{ACAD_XDICTIONARY
360
255A
102
}
330
1
100
AcDbSymbolTableRecord
100
AcDbBlockTableRecord
  2
SOLBET_Ksztaltka_U_420x240x500_KG400_PRA
340
0
102
{BLKREFS
331
255F
331
2560
102
}
1001
ACAD
1000
DesignCenter Data
1002
{
1070
     1
1070
     4
1002
}
  0
BLOCK_RECORD
  5
2561
102
{ACAD_XDICTIONARY
360
256B
102
}
330
1
100
AcDbSymbolTableRecord
100
AcDbBlockTableRecord
  2
SOLBET_Plytka_80x240x590_KG600_PRA
340
0
102
{BLKREFS
331
256F
102
}
1001
ACAD
1000
DesignCenter Data
1002
{
1070
     1
1070
     4
1002
}
  0
BLOCK_RECORD
  5
2570
102
{ACAD_XDICTIONARY
360
257C
102
}
330
1
100
AcDbSymbolTableRecord
100
AcDbBlockTableRecord
  2
SOLBET_Bloczek_Ideal_420x240x590_P+W_KG400_PRA
340
0
102
{BLKREFS
331
2580
331
2581
331
2582
331
2583
331
2584
102
}
1001
ACAD
1000
DesignCenter Data
1002
{
1070
     1
1070
     4
1002
}
  0
ENDTAB
  0
ENDSEC
  0
SECTION
  2
BLOCKS
  0
BLOCK
  5
20
330
1F
100
AcDbEntity
  8
0
100
AcDbBlockBegin
  2
*Model_Space
 70
     0
 10
0.0
 20
0.0
 30
0.0
  3
*Model_Space
  1

  0
ENDBLK
  5
21
330
1F
100
AcDbEntity
  8
0
100
AcDbBlockEnd
  0
BLOCK
  5
D4
330
D2
100
AcDbEntity
 67
     1
  8
0
100
AcDbBlockBegin
  2
*Paper_Space
 70
     0
 10
0.0
 20
0.0
 30
0.0
  3
*Paper_Space
  1

  0
ENDBLK
  5
D5
330
D2
100
AcDbEntity
 67
     1
  8
0
100
AcDbBlockEnd
  0
BLOCK
  5
D8
330
D6
100
AcDbEntity
 67
     1
  8
0
100
AcDbBlockBegin
  2
*Paper_Space0
 70
     0
 10
0.0
 20
0.0
 30
0.0
  3
*Paper_Space0
  1

  0
ENDBLK
  5
D9
330
D6
100
AcDbEntity
 67
     1
  8
0
100
AcDbBlockEnd
  0
BLOCK
  5
95A
330
958
100
AcDbEntity
  8
0
100
AcDbBlockBegin
  2
_DotSmall
 70
     0
 10
0.0
 20
0.0
 30
0.0
  3
_DotSmall
  1

  0
LWPOLYLINE
  5
959
330
958
100
AcDbEntity
  8
0
  6
ByBlock
 62
     0
100
AcDbPolyline
 90
        2
 70
     1
 43
0.5
 10
-0.0625
 20
0.0
 42
1.0
 10
0.0625
 20
0.0
 42
1.0
  0
ENDBLK
  5
95B
330
958
100
AcDbEntity
  8
0
100
AcDbBlockEnd
  0
BLOCK
  5
2221
330
2213
100
AcDbEntity
  8
0
100
AcDbBlockBegin
  2
SOLBET_Bloczek_Optimal_420x240x590_P+W_PRA
 70
     2
 10
0.0
 20
0.0
 30
0.0
  3
SOLBET_Bloczek_Optimal_420x240x590_P+W_PRA
  1

  0
ATTDEF
  5
2214
330
2213
100
AcDbEntity
  8
SOLBET_Wymiary_Opisy
100
AcDbText
 10
-0.0000000703746536
 20
6.303237281370451
 30
0.0
 40
0.9913121336814832
  1
420x240x590
  7
Solbet_1
100
AcDbAttributeDefinition
  3

  2
WYMIARY
 70
     3
1001
AcDbAttr
1070
     0
1070
     1
  0
ATTDEF
  5
2215
330
2213
100
AcDbEntity
  8
SOLBET_Wymiary_Opisy
100
AcDbText
 10
-0.0000000703746536
 20
4.790717873654354
 30
0.0
 40
0.9913121336814832
  1
400
  7
Solbet_1
100
AcDbAttributeDefinition
  3

  2
KLASA_GĘSTOŚCI
 70
     9
1001
AcDbAttr
1070
     0
1070
     1
  0
ATTDEF
  5
2216
330
2213
100
AcDbEntity
  8
SOLBET_Wymiary_Opisy
100
AcDbText
 10
-0.0000000703746536
 20
3.269569038442127
 30
0.0
 40
0.9913121336814832
  1
Pióra+Wpusty
  7
Solbet_1
100
AcDbAttributeDefinition
  3

  2
PROFILOWANIE
 70
     3
1001
AcDbAttr
1070
     0
1070
     1
  0
ATTDEF
  5
2217
330
2213
100
AcDbEntity
  8
SOLBET_Wymiary_Opisy
100
AcDbText
 10
-0.0000000703746536
 20
0.2448646291013483
 30
0.0
 40
0.9913121336814832
  1
SOLBET
  7
Solbet_1
100
AcDbAttributeDefinition
  3

  2
FIRMA
 70
     3
1001
AcDbAttr
1070
     0
1070
     1
  0
ATTDEF
  5
2218
330
2213
100
AcDbEntity
  8
SOLBET_Wymiary_Opisy
100
AcDbText
 10
-0.0000000703746536
 20
9.333547279718283
 30
0.0
 40
0.9913121336814832
  1
Bloczek
  7
Solbet_1
100
AcDbAttributeDefinition
  3
Nazwa
  2
NAZWA
 70
     3
1001
AcDbAttr
1070
     0
1070
     1
  0
ATTDEF
  5
2219
330
2213
100
AcDbEntity
  8
SOLBET_Wymiary_Opisy
100
AcDbText
 10
-0.0000000703746536
 20
7.794499099484078
 30
0.0
 40
0.9913121336814832
  1
OPTIMAL
  7
Solbet_1
100
AcDbAttributeDefinition
  3

  2
SYSTEM
 70
     3
1001
AcDbAttr
1070
     0
1070
     1
  0
ATTDEF
  5
221A
330
2213
100
AcDbEntity
  8
SOLBET_Wymiary_Opisy
100
AcDbText
 10
-0.0000000703746536
 20
1.74418138862846
 30
0.0
 40
0.9913121336814832
  1
Prawo
  7
Solbet_1
100
AcDbAttributeDefinition
  3

  2
WIDOK
 70
    11
1001
AcDbAttr
1070
     0
1070
     1
  0
LINE
  5
221B
330
2213
100
AcDbEntity
  8
SOLBET_Bloczki
100
AcDbLine
 10
21.00000014074931
 20
12.00000020414847
 30
0.0
 11
21.00000014074931
 21
0.000000204148364
 31
0.0
  0
LINE
  5
221C
330
2213
100
AcDbEntity
  8
SOLBET_Bloczki
100
AcDbLine
 10
21.00000014074931
 20
12.00000020414847
 30
0.0
 11
0.0000001407493072
 21
12.00000020414847
 31
0.0
  0
LINE
  5
221D
330
2213
100
AcDbEntity
  8
SOLBET_Bloczki
100
AcDbLine
 10
0.0000001407493072
 20
12.00000020414847
 30
0.0
 11
0.0000001407493072
 21
0.000000204148364
 31
0.0
  0
LINE
  5
221E
330
2213
100
AcDbEntity
  8
SOLBET_Bloczki
100
AcDbLine
 10
0.0000001407493072
 20
0.000000204148364
 30
0.0
 11
21.00000014074931
 21
0.000000204148364
 31
0.0
  0
ENDBLK
  5
2222
330
2213
100
AcDbEntity
  8
0
100
AcDbBlockEnd
  0
BLOCK
  5
2242
330
2232
100
AcDbEntity
  8
0
100
AcDbBlockBegin
  2
SOLBET_Ksztaltka_U_420x240x500_PRA
 70
     2
 10
0.0
 20
0.0
 30
0.0
  3
SOLBET_Ksztaltka_U_420x240x500_PRA
  1

  0
ATTDEF
  5
2233
330
2232
100
AcDbEntity
  8
SOLBET_Wymiary_Opisy
100
AcDbText
 10
-0.0000000476806008
 20
4.790718044940628
 30
0.0
 40
0.9913121336814832
  1
420x240x500
  7
Solbet_1
100
AcDbAttributeDefinition
  3

  2
WYMIARY
 70
     3
1001
AcDbAttr
1070
     0
1070
     1
  0
ATTDEF
  5
2234
330
2232
100
AcDbEntity
  8
SOLBET_Wymiary_Opisy
100
AcDbText
 10
-0.0000000476806008
 20
3.27819863722453
 30
0.0
 40
0.9913121336814832
  1
400
  7
Solbet_1
100
AcDbAttributeDefinition
  3

  2
KLASA_GĘSTOŚCI
 70
     3
1001
AcDbAttr
1070
     0
1070
     1
  0
ATTDEF
  5
2235
330
2232
100
AcDbEntity
  8
SOLBET_Wymiary_Opisy
100
AcDbText
 10
-0.0000000476806008
 20
0.2448648003876223
 30
0.0
 40
0.9913121336814832
  1
SOLBET
  7
Solbet_1
100
AcDbAttributeDefinition
  3

  2
FIRMA
 70
     3
1001
AcDbAttr
1070
     0
1070
     1
  0
ATTDEF
  5
2236
330
2232
100
AcDbEntity
  8
SOLBET_Wymiary_Opisy
100
AcDbText
 10
-0.0000000476806008
 20
6.347422594011662
 30
0.0
 40
0.9913121336814832
  1
Kształtka U
  7
Solbet_1
100
AcDbAttributeDefinition
  3
Nazwa
  2
NAZWA
 70
     3
1001
AcDbAttr
1070
     0
1070
     1
  0
ATTDEF
  5
2237
330
2232
100
AcDbEntity
  8
SOLBET_Wymiary_Opisy
100
AcDbText
 10
-0.0000000476806008
 20
1.744181559914735
 30
0.0
 40
0.9913121336814832
  1
Prawo
  7
Solbet_1
100
AcDbAttributeDefinition
  3

  2
WIDOK
 70
    11
1001
AcDbAttr
1070
     0
1070
     1
  0
LINE
  5
2238
330
2232
100
AcDbEntity
  8
SOLBET_Bloczki
100
AcDbLine
 10
0.0000011705760737
 20
20.99999992050084
 30
0.0
 11
12.00000117057607
 21
20.99999992050084
 31
0.0
  0
LINE
  5
2239
330
2232
100
AcDbEntity
  8
SOLBET_Bloczki
100
AcDbLine
 10
12.00000117057607
 20
20.99999992050084
 30
0.0
 11
12.00000117057607
 21
-0.0000000794991628
 31
0.0
  0
LINE
  5
223A
330
2232
100
AcDbEntity
  8
SOLBET_Bloczki
100
AcDbLine
 10
12.00000117057607
 20
-0.0000000794991628
 30
0.0
 11
0.0000011705760699
 21
-0.0000000794991593
 31
0.0
  0
LINE
  5
223B
330
2232
100
AcDbEntity
  8
SOLBET_Bloczki
100
AcDbLine
 10
0.0000011705760699
 20
-0.0000000794991593
 30
0.0
 11
0.0000011705760706
 21
3.99999992050084
 31
0.0
  0
LINE
  5
223C
330
2232
100
AcDbEntity
  8
SOLBET_Bloczki
100
AcDbLine
 10
0.0000011705760737
 20
20.99999992050084
 30
0.0
 11
0.000001170576073
 21
16.99999992050084
 31
0.0
  0
LINE
  5
223D
330
2232
100
AcDbEntity
  8
SOLBET_Bloczki
100
AcDbLine
 10
8.000001170576073
 20
16.99999992050084
 30
0.0
 11
8.000001170576069
 21
3.99999992050084
 31
0.0
  0
LINE
  5
223E
330
2232
100
AcDbEntity
  8
SOLBET_Bloczki
100
AcDbLine
 10
0.000001170576073
 20
16.99999992050084
 30
0.0
 11
8.000001170576073
 21
16.99999992050084
 31
0.0
  0
LINE
  5
223F
330
2232
100
AcDbEntity
  8
SOLBET_Bloczki
100
AcDbLine
 10
0.0000011705760706
 20
3.99999992050084
 30
0.0
 11
8.000001170576069
 21
3.99999992050084
 31
0.0
  0
ENDBLK
  5
2243
330
2232
100
AcDbEntity
  8
0
100
AcDbBlockEnd
  0
BLOCK
  5
2276
330
226A
100
AcDbEntity
  8
0
100
AcDbBlockBegin
  2
SOLBET_Plytka_80x240x590_brak_PRA
 70
     2
 10
0.0
 20
0.0
 30
0.0
  3
SOLBET_Plytka_80x240x590_brak_PRA
  1

  0
ATTDEF
  5
226B
330
226A
100
AcDbEntity
  8
SOLBET_Wymiary_Opisy
100
AcDbText
 10
0.0000000947117284
 20
4.975188798271157
 30
0.0
 40
1.029483505648801
  1
80x240x590
  7
Solbet_1
100
AcDbAttributeDefinition
  3

  2
WYMIARY
 70
     3
1001
AcDbAttr
1070
     0
1070
     1
  0
ATTDEF
  5
226C
330
226A
100
AcDbEntity
  8
SOLBET_Wymiary_Opisy
100
AcDbText
 10
0.0000000947117284
 20
3.40442846021831
 30
0.0
 40
1.029483505648801
  1
600
  7
Solbet_1
100
AcDbAttributeDefinition
  3

  2
KLASA_GĘSTOŚCI
 70
     3
1001
AcDbAttr
1070
     0
1070
     1
  0
ATTDEF
  5
226D
330
226A
100
AcDbEntity
  8
SOLBET_Wymiary_Opisy
100
AcDbText
 10
0.0000000947117284
 20
0.2542933553923256
 30
0.0
 40
1.029483505648801
  1
SOLBET
  7
Solbet_1
100
AcDbAttributeDefinition
  3

  2
FIRMA
 70
     3
1001
AcDbAttr
1070
     0
1070
     1
  0
ATTDEF
  5
226E
330
226A
100
AcDbEntity
  8
SOLBET_Wymiary_Opisy
100
AcDbText
 10
-0.0000001564046322
 20
6.512920961642439
 30
0.0
 40
1.029483505648801
  1
Płytka
  7
Solbet_1
100
AcDbAttributeDefinition
  3
Nazwa
  2
NAZWA
 70
     3
1001
AcDbAttr
1070
     0
1070
     1
  0
ATTDEF
  5
226F
330
226A
100
AcDbEntity
  8
SOLBET_Wymiary_Opisy
100
AcDbText
 10
0.0000000947117284
 20
1.811342665324326
 30
0.0
 40
1.029483505648801
  1
Prawo
  7
Solbet_1
100
AcDbAttributeDefinition
  3

  2
WIDOK
 70
    11
1001
AcDbAttr
1070
     0
1070
     1
  0
LINE
  5
2270
330
226A
100
AcDbEntity
  8
SOLBET_Bloczki
100
AcDbLine
 10
3.999999830192336
 20
12.00000020463494
 30
0.0
 11
3.999999830192336
 21
0.0000002046349437
 31
0.0
  0
LINE
  5
2271
330
226A
100
AcDbEntity
  8
SOLBET_Bloczki
100
AcDbLine
 10
3.999999830192336
 20
0.0000002046349437
 30
0.0
 11
-0.000000169807663
 21
0.0000002046349437
 31
0.0
  0
LINE
  5
2272
330
226A
100
AcDbEntity
  8
SOLBET_Bloczki
100
AcDbLine
 10
-0.000000169807663
 20
0.0000002046349437
 30
0.0
 11
-0.000000169807663
 21
12.00000020463517
 31
0.0
  0
LINE
  5
2273
330
226A
100
AcDbEntity
  8
SOLBET_Bloczki
100
AcDbLine
 10
-0.000000169807663
 20
12.00000020463517
 30
0.0
 11
3.999999830192336
 21
12.00000020463517
 31
0.0
  0
ENDBLK
  5
2277
330
226A
100
AcDbEntity
  8
0
100
AcDbBlockEnd
  0
BLOCK
  5
23CB
330
23BD
100
AcDbEntity
  8
0
100
AcDbBlockBegin
  2
SOLBET_Bloczek_Ideal_420x240x590_P+W_PRA
 70
     2
 10
0.0
 20
0.0
 30
0.0
  3
SOLBET_Bloczek_Ideal_420x240x590_P+W_PRA
  1

  0
ATTDEF
  5
23BE
330
23BD
100
AcDbEntity
  8
SOLBET_Wymiary_Opisy
100
AcDbText
 10
-0.0000000703746536
 20
6.303237281370451
 30
0.0
 40
0.9913121336814832
  1
420x240x590
  7
Solbet_1
100
AcDbAttributeDefinition
  3

  2
WYMIARY
 70
     3
1001
AcDbAttr
1070
     0
1070
     1
  0
ATTDEF
  5
23BF
330
23BD
100
AcDbEntity
  8
SOLBET_Wymiary_Opisy
100
AcDbText
 10
-0.0000000703746536
 20
4.790717873654354
 30
0.0
 40
0.9913121336814832
  1
400
  7
Solbet_1
100
AcDbAttributeDefinition
  3

  2
KLASA_GĘSTOŚCI
 70
     9
1001
AcDbAttr
1070
     0
1070
     1
  0
ATTDEF
  5
23C0
330
23BD
100
AcDbEntity
  8
SOLBET_Wymiary_Opisy
100
AcDbText
 10
-0.0000000703746536
 20
3.269569038442127
 30
0.0
 40
0.9913121336814832
  1
Pióra+Wpusty
  7
Solbet_1
100
AcDbAttributeDefinition
  3

  2
PROFILOWANIE
 70
     3
1001
AcDbAttr
1070
     0
1070
     1
  0
ATTDEF
  5
23C1
330
23BD
100
AcDbEntity
  8
SOLBET_Wymiary_Opisy
100
AcDbText
 10
-0.0000000703746536
 20
0.2448646291013483
 30
0.0
 40
0.9913121336814832
  1
SOLBET
  7
Solbet_1
100
AcDbAttributeDefinition
  3

  2
FIRMA
 70
     3
1001
AcDbAttr
1070
     0
1070
     1
  0
ATTDEF
  5
23C2
330
23BD
100
AcDbEntity
  8
SOLBET_Wymiary_Opisy
100
AcDbText
 10
-0.0000000703746536
 20
9.333547279718283
 30
0.0
 40
0.9913121336814832
  1
Bloczek
  7
Solbet_1
100
AcDbAttributeDefinition
  3
Nazwa
  2
NAZWA
 70
     3
1001
AcDbAttr
1070
     0
1070
     1
  0
ATTDEF
  5
23C3
330
23BD
100
AcDbEntity
  8
SOLBET_Wymiary_Opisy
100
AcDbText
 10
-0.0000000703746536
 20
7.794499099484078
 30
0.0
 40
0.9913121336814832
  1
SOLBET IDEAL
  7
Solbet_1
100
AcDbAttributeDefinition
  3

  2
SYSTEM
 70
     3
1001
AcDbAttr
1070
     0
1070
     1
  0
ATTDEF
  5
23C4
330
23BD
100
AcDbEntity
  8
SOLBET_Wymiary_Opisy
100
AcDbText
 10
-0.0000000703746536
 20
1.74418138862846
 30
0.0
 40
0.9913121336814832
  1
Prawo
  7
Solbet_1
100
AcDbAttributeDefinition
  3

  2
WIDOK
 70
    11
1001
AcDbAttr
1070
     0
1070
     1
  0
LINE
  5
23C5
330
23BD
100
AcDbEntity
  8
SOLBET_Bloczki
100
AcDbLine
 10
21.00000014074931
 20
12.00000020414847
 30
0.0
 11
21.00000014074931
 21
0.000000204148364
 31
0.0
  0
LINE
  5
23C6
330
23BD
100
AcDbEntity
  8
SOLBET_Bloczki
100
AcDbLine
 10
21.00000014074931
 20
12.00000020414847
 30
0.0
 11
0.0000001407493072
 21
12.00000020414847
 31
0.0
  0
LINE
  5
23C7
330
23BD
100
AcDbEntity
  8
SOLBET_Bloczki
100
AcDbLine
 10
0.0000001407493072
 20
12.00000020414847
 30
0.0
 11
0.0000001407493072
 21
0.000000204148364
 31
0.0
  0
LINE
  5
23C8
330
23BD
100
AcDbEntity
  8
SOLBET_Bloczki
100
AcDbLine
 10
0.0000001407493072
 20
0.000000204148364
 30
0.0
 11
21.00000014074931
 21
0.000000204148364
 31
0.0
  0
ENDBLK
  5
23CC
330
23BD
100
AcDbEntity
  8
0
100
AcDbBlockEnd
  0
BLOCK
  5
255C
330
254C
100
AcDbEntity
  8
0
100
AcDbBlockBegin
  2
SOLBET_Ksztaltka_U_420x240x500_KG400_PRA
 70
     2
 10
0.0
 20
0.0
 30
0.0
  3
SOLBET_Ksztaltka_U_420x240x500_KG400_PRA
  1

  0
ATTDEF
  5
254D
330
254C
100
AcDbEntity
  8
SOLBET_Wymiary_Opisy
100
AcDbText
 10
-0.0000000476806008
 20
4.790718044940628
 30
0.0
 40
0.9913121336814832
  1
420x240x500
  7
Solbet_1
100
AcDbAttributeDefinition
  3

  2
WYMIARY
 70
    11
1001
AcDbAttr
1070
     0
1070
     1
  0
ATTDEF
  5
254E
330
254C
100
AcDbEntity
  8
SOLBET_Wymiary_Opisy
100
AcDbText
 10
-0.0000000476806008
 20
3.27819863722453
 30
0.0
 40
0.9913121336814832
  1
400
  7
Solbet_1
100
AcDbAttributeDefinition
  3

  2
KLASA_GĘSTOŚCI
 70
    11
1001
AcDbAttr
1070
     0
1070
     1
  0
ATTDEF
  5
254F
330
254C
100
AcDbEntity
  8
SOLBET_Wymiary_Opisy
100
AcDbText
 10
-0.0000000476806008
 20
0.2448648003876223
 30
0.0
 40
0.9913121336814832
  1
SOLBET
  7
Solbet_1
100
AcDbAttributeDefinition
  3

  2
FIRMA
 70
    11
1001
AcDbAttr
1070
     0
1070
     1
  0
ATTDEF
  5
2550
330
254C
100
AcDbEntity
  8
SOLBET_Wymiary_Opisy
100
AcDbText
 10
-0.0000000476806008
 20
6.347422594011662
 30
0.0
 40
0.9913121336814832
  1
Kształtka U
  7
Solbet_1
100
AcDbAttributeDefinition
  3
Nazwa
  2
NAZWA
 70
    11
1001
AcDbAttr
1070
     0
1070
     1
  0
ATTDEF
  5
2551
330
254C
100
AcDbEntity
  8
SOLBET_Wymiary_Opisy
100
AcDbText
 10
-0.0000000476806008
 20
1.744181559914735
 30
0.0
 40
0.9913121336814832
  1
Prawo
  7
Solbet_1
100
AcDbAttributeDefinition
  3

  2
WIDOK
 70
    11
1001
AcDbAttr
1070
     0
1070
     1
  0
LINE
  5
2552
330
254C
100
AcDbEntity
  8
SOLBET_Bloczki
100
AcDbLine
 10
0.0000011705760737
 20
20.99999992050084
 30
0.0
 11
12.00000117057607
 21
20.99999992050084
 31
0.0
  0
LINE
  5
2553
330
254C
100
AcDbEntity
  8
SOLBET_Bloczki
100
AcDbLine
 10
12.00000117057607
 20
20.99999992050084
 30
0.0
 11
12.00000117057607
 21
-0.0000000794991628
 31
0.0
  0
LINE
  5
2554
330
254C
100
AcDbEntity
  8
SOLBET_Bloczki
100
AcDbLine
 10
12.00000117057607
 20
-0.0000000794991628
 30
0.0
 11
0.0000011705760699
 21
-0.0000000794991593
 31
0.0
  0
LINE
  5
2555
330
254C
100
AcDbEntity
  8
SOLBET_Bloczki
100
AcDbLine
 10
0.0000011705760699
 20
-0.0000000794991593
 30
0.0
 11
0.0000011705760706
 21
3.99999992050084
 31
0.0
  0
LINE
  5
2556
330
254C
100
AcDbEntity
  8
SOLBET_Bloczki
100
AcDbLine
 10
0.0000011705760737
 20
20.99999992050084
 30
0.0
 11
0.000001170576073
 21
16.99999992050084
 31
0.0
  0
LINE
  5
2557
330
254C
100
AcDbEntity
  8
SOLBET_Bloczki
100
AcDbLine
 10
8.000001170576073
 20
16.99999992050084
 30
0.0
 11
8.000001170576069
 21
3.99999992050084
 31
0.0
  0
LINE
  5
2558
330
254C
100
AcDbEntity
  8
SOLBET_Bloczki
100
AcDbLine
 10
0.000001170576073
 20
16.99999992050084
 30
0.0
 11
8.000001170576073
 21
16.99999992050084
 31
0.0
  0
LINE
  5
2559
330
254C
100
AcDbEntity
  8
SOLBET_Bloczki
100
AcDbLine
 10
0.0000011705760706
 20
3.99999992050084
 30
0.0
 11
8.000001170576069
 21
3.99999992050084
 31
0.0
  0
ENDBLK
  5
255D
330
254C
100
AcDbEntity
  8
0
100
AcDbBlockEnd
  0
BLOCK
  5
256D
330
2561
100
AcDbEntity
  8
0
100
AcDbBlockBegin
  2
SOLBET_Plytka_80x240x590_KG600_PRA
 70
     2
 10
0.0
 20
0.0
 30
0.0
  3
SOLBET_Plytka_80x240x590_KG600_PRA
  1

  0
ATTDEF
  5
2562
330
2561
100
AcDbEntity
  8
SOLBET_Wymiary_Opisy
100
AcDbText
 10
0.0000000947117284
 20
4.975188798271157
 30
0.0
 40
1.029483505648801
  1
80x240x590
  7
Solbet_1
100
AcDbAttributeDefinition
  3

  2
WYMIARY
 70
    11
1001
AcDbAttr
1070
     0
1070
     1
  0
ATTDEF
  5
2563
330
2561
100
AcDbEntity
  8
SOLBET_Wymiary_Opisy
100
AcDbText
 10
0.0000000947117284
 20
3.40442846021831
 30
0.0
 40
1.029483505648801
  1
600
  7
Solbet_1
100
AcDbAttributeDefinition
  3

  2
KLASA_GĘSTOŚCI
 70
    11
1001
AcDbAttr
1070
     0
1070
     1
  0
ATTDEF
  5
2564
330
2561
100
AcDbEntity
  8
SOLBET_Wymiary_Opisy
100
AcDbText
 10
0.0000000947117284
 20
0.2542933553923256
 30
0.0
 40
1.029483505648801
  1
SOLBET
  7
Solbet_1
100
AcDbAttributeDefinition
  3

  2
FIRMA
 70
    11
1001
AcDbAttr
1070
     0
1070
     1
  0
ATTDEF
  5
2565
330
2561
100
AcDbEntity
  8
SOLBET_Wymiary_Opisy
100
AcDbText
 10
-0.0000001564046322
 20
6.512920961642439
 30
0.0
 40
1.029483505648801
  1
Płytka
  7
Solbet_1
100
AcDbAttributeDefinition
  3
Nazwa
  2
NAZWA
 70
    11
1001
AcDbAttr
1070
     0
1070
     1
  0
ATTDEF
  5
2566
330
2561
100
AcDbEntity
  8
SOLBET_Wymiary_Opisy
100
AcDbText
 10
0.0000000947117284
 20
1.811342665324326
 30
0.0
 40
1.029483505648801
  1
Prawo
  7
Solbet_1
100
AcDbAttributeDefinition
  3

  2
WIDOK
 70
    11
1001
AcDbAttr
1070
     0
1070
     1
  0
LINE
  5
2567
330
2561
100
AcDbEntity
  8
SOLBET_Bloczki
100
AcDbLine
 10
3.999999830192336
 20
12.00000020463494
 30
0.0
 11
3.999999830192336
 21
0.0000002046349437
 31
0.0
  0
LINE
  5
2568
330
2561
100
AcDbEntity
  8
SOLBET_Bloczki
100
AcDbLine
 10
3.999999830192336
 20
0.0000002046349437
 30
0.0
 11
-0.000000169807663
 21
0.0000002046349437
 31
0.0
  0
LINE
  5
2569
330
2561
100
AcDbEntity
  8
SOLBET_Bloczki
100
AcDbLine
 10
-0.000000169807663
 20
0.0000002046349437
 30
0.0
 11
-0.000000169807663
 21
12.00000020463517
 31
0.0
  0
LINE
  5
256A
330
2561
100
AcDbEntity
  8
SOLBET_Bloczki
100
AcDbLine
 10
-0.000000169807663
 20
12.00000020463517
 30
0.0
 11
3.999999830192336
 21
12.00000020463517
 31
0.0
  0
ENDBLK
  5
256E
330
2561
100
AcDbEntity
  8
0
100
AcDbBlockEnd
  0
BLOCK
  5
257E
330
2570
100
AcDbEntity
  8
0
100
AcDbBlockBegin
  2
SOLBET_Bloczek_Ideal_420x240x590_P+W_KG400_PRA
 70
     2
 10
0.0
 20
0.0
 30
0.0
  3
SOLBET_Bloczek_Ideal_420x240x590_P+W_KG400_PRA
  1

  0
ATTDEF
  5
2571
330
2570
100
AcDbEntity
  8
SOLBET_Wymiary_Opisy
100
AcDbText
 10
-0.0000000703746536
 20
6.303237281370451
 30
0.0
 40
0.9913121336814832
  1
420x240x590
  7
Solbet_1
100
AcDbAttributeDefinition
  3

  2
WYMIARY
 70
    11
1001
AcDbAttr
1070
     0
1070
     1
  0
ATTDEF
  5
2572
330
2570
100
AcDbEntity
  8
SOLBET_Wymiary_Opisy
100
AcDbText
 10
-0.0000000703746536
 20
4.790717873654354
 30
0.0
 40
0.9913121336814832
  1
400
  7
Solbet_1
100
AcDbAttributeDefinition
  3

  2
KLASA_GĘSTOŚCI
 70
    11
1001
AcDbAttr
1070
     0
1070
     1
  0
ATTDEF
  5
2573
330
2570
100
AcDbEntity
  8
SOLBET_Wymiary_Opisy
100
AcDbText
 10
-0.0000000703746536
 20
3.269569038442127
 30
0.0
 40
0.9913121336814832
  1
Pióra+Wpusty
  7
Solbet_1
100
AcDbAttributeDefinition
  3

  2
PROFILOWANIE
 70
    11
1001
AcDbAttr
1070
     0
1070
     1
  0
ATTDEF
  5
2574
330
2570
100
AcDbEntity
  8
SOLBET_Wymiary_Opisy
100
AcDbText
 10
-0.0000000703746536
 20
0.2448646291013483
 30
0.0
 40
0.9913121336814832
  1
SOLBET
  7
Solbet_1
100
AcDbAttributeDefinition
  3

  2
FIRMA
 70
    11
1001
AcDbAttr
1070
     0
1070
     1
  0
ATTDEF
  5
2575
330
2570
100
AcDbEntity
  8
SOLBET_Wymiary_Opisy
100
AcDbText
 10
-0.0000000703746536
 20
9.333547279718283
 30
0.0
 40
0.9913121336814832
  1
Bloczek
  7
Solbet_1
100
AcDbAttributeDefinition
  3
Nazwa
  2
NAZWA
 70
    11
1001
AcDbAttr
1070
     0
1070
     1
  0
ATTDEF
  5
2576
330
2570
100
AcDbEntity
  8
SOLBET_Wymiary_Opisy
100
AcDbText
 10
-0.0000000703746536
 20
7.794499099484078
 30
0.0
 40
0.9913121336814832
  1
SOLBET Ideal
  7
Solbet_1
100
AcDbAttributeDefinition
  3

  2
SYSTEM
 70
    11
1001
AcDbAttr
1070
     0
1070
     1
  0
ATTDEF
  5
2577
330
2570
100
AcDbEntity
  8
SOLBET_Wymiary_Opisy
100
AcDbText
 10
-0.0000000703746536
 20
1.74418138862846
 30
0.0
 40
0.9913121336814832
  1
Prawo
  7
Solbet_1
100
AcDbAttributeDefinition
  3

  2
WIDOK
 70
    11
1001
AcDbAttr
1070
     0
1070
     1
  0
LINE
  5
2578
330
2570
100
AcDbEntity
  8
SOLBET_Bloczki
100
AcDbLine
 10
21.00000014074931
 20
12.00000020414847
 30
0.0
 11
21.00000014074931
 21
0.000000204148364
 31
0.0
  0
LINE
  5
2579
330
2570
100
AcDbEntity
  8
SOLBET_Bloczki
100
AcDbLine
 10
21.00000014074931
 20
12.00000020414847
 30
0.0
 11
0.0000001407493072
 21
12.00000020414847
 31
0.0
  0
LINE
  5
257A
330
2570
100
AcDbEntity
  8
SOLBET_Bloczki
100
AcDbLine
 10
0.0000001407493072
 20
12.00000020414847
 30
0.0
 11
0.0000001407493072
 21
0.000000204148364
 31
0.0
  0
LINE
  5
257B
330
2570
100
AcDbEntity
  8
SOLBET_Bloczki
100
AcDbLine
 10
0.0000001407493072
 20
0.000000204148364
 30
0.0
 11
21.00000014074931
 21
0.000000204148364
 31
0.0
  0
ENDBLK
  5
257F
330
2570
100
AcDbEntity
  8
0
100
AcDbBlockEnd
  0
ENDSEC
  0
SECTION
  2
ENTITIES
  0
LINE
  5
2148
330
1F
100
AcDbEntity
  8
SOLBET_Wymiary_Opisy
100
AcDbLine
 10
151.1129219509901
 20
187.6930610813015
 30
0.0
 11
151.1129219509901
 21
128.2539176421887
 31
0.0
  0
LINE
  5
2149
330
1F
100
AcDbEntity
  8
SOLBET_Izolacja
  6
Continuous
100
AcDbLine
 10
73.61400047509301
 20
145.977409480618
 30
0.0
 11
73.61400047509301
 21
157.977409480618
 31
0.0
  0
LINE
  5
214A
330
1F
100
AcDbEntity
  8
SOLBET_Izolacja
  6
Continuous
100
AcDbLine
 10
76.61400047507846
 20
137.977409480618
 30
0.0
 11
76.61400047507846
 21
157.977409480618
 31
0.0
  0
LINE
  5
214D
330
1F
100
AcDbEntity
  8
SOLBET_Wymiary_Opisy
100
AcDbLine
 10
66.51011148230532
 20
187.6930610813015
 30
0.0
 11
151.1129219509901
 21
187.6930610813015
 31
0.0
  0
LINE
  5
2150
330
1F
100
AcDbEntity
  8
SOLBET_Tynki_Posadzki
100
AcDbLine
 10
91.91206666627909
 20
160.4774094806198
 30
0.0
 11
91.91206666627909
 21
159.977409480618
 31
0.0
  0
ARC
  5
2151
330
1F
100
AcDbEntity
  8
SOLBET_Tynki_Posadzki
100
AcDbCircle
 10
91.11400047507846
 20
160.4774094806198
 30
0.0
 40
1.5000521396288
100
AcDbArc
 50
0.0
 51
90.0
  0
LINE
  5
2155
330
1F
100
AcDbEntity
  8
SOLBET_Tynki_Posadzki
100
AcDbLine
 10
91.91206666627909
 20
160.4774094806198
 30
0.0
 11
151.1129219509901
 21
160.4774094806198
 31
0.0
  0
LINE
  5
2157
330
1F
100
AcDbEntity
  8
SOLBET_Tynki_Posadzki
100
AcDbLine
 10
91.11400047507846
 20
159.977409480618
 30
0.0
 11
91.11400047507846
 21
187.6930610813015
 31
0.0
  0
LINE
  5
2159
330
1F
100
AcDbEntity
  8
SOLBET_Tynki_Posadzki
100
AcDbLine
 10
91.11400047507846
 20
144.7274094806198
 30
0.0
 11
91.11400047507846
 21
128.2539176421887
 31
0.0
  0
LWPOLYLINE
  5
2163
102
{ACAD_REACTORS
330
22A3
102
}
330
1F
100
AcDbEntity
  8
SOLBET_Zbrojenie_Konstrukcja
100
AcDbPolyline
 90
       16
 70
     1
 43
0.0
 10
86.97490416334835
 20
158.155747378667
 42
-0.0869419154568836
 10
86.92818741747828
 20
158.1313434888634
 42
-0.04426695874853
 10
86.87157919182277
 20
158.1187164681905
 42
-0.0327594189474477
 10
86.79344328904766
 20
158.1135915947325
 42
-0.0327594189473721
 10
86.71530738627257
 20
158.1187164681905
 42
-0.0442669587487512
 10
86.65869916063162
 20
158.1313434888634
 42
-0.0869419154555393
 10
86.61198241476155
 20
158.155747378667
 42
-0.233077666948955
 10
86.60288631518847
 20
158.1742003524287
 42
-0.2330776669476068
 10
86.61198241476155
 20
158.1926533261885
 42
-0.0869419154571649
 10
86.65869916063162
 20
158.2170572159939
 42
-0.0442669587478621
 10
86.71530738627257
 20
158.2296842366668
 42
-0.032759418947709
 10
86.79344328904766
 20
158.234809110123
 42
-0.0327594189469762
 10
86.87157919182277
 20
158.2296842366668
 42
-0.0442669587489952
 10
86.92818741747828
 20
158.2170572159939
 42
-0.0869419154555225
 10
86.97490416334835
 20
158.1926533261885
 42
-0.2095631734287794
 10
86.98390680509396
 20
158.176283609042
 42
-0.256839199828224
1001
ASO_SCHRAFF
1005
0
1070
     1
1002
{
1070
     1
1005
0
1002
}
1002
{
1070
     2
1005
0
1002
}
1002
{
1070
     4
1000
SOFIFUELL
1040
1.0
1040
0.0
1070
     0
1000
T__SCHR
1070
   256
1000
_bylayer
1040
50.0
1070
     1
1002
}
  0
LWPOLYLINE
  5
2165
102
{ACAD_REACTORS
330
22A3
102
}
330
1F
100
AcDbEntity
  8
SOLBET_Zbrojenie_Konstrukcja
100
AcDbPolyline
 90
       16
 70
     1
 43
0.0
 10
77.45247166900731
 20
158.155747378667
 42
0.0869419154568836
 10
77.49918841487738
 20
158.1313434888634
 42
0.04426695874853
 10
77.55579664053289
 20
158.1187164681905
 42
0.0327594189474477
 10
77.63393254330799
 20
158.1135915947325
 42
0.0327594189473721
 10
77.71206844608309
 20
158.1187164681905
 42
0.0442669587487512
 10
77.76867667172405
 20
158.1313434888634
 42
0.0869419154555393
 10
77.81539341759412
 20
158.155747378667
 42
0.233077666948955
 10
77.8244895171672
 20
158.1742003524287
 42
0.2330776669476068
 10
77.81539341759412
 20
158.1926533261885
 42
0.0869419154571649
 10
77.76867667172405
 20
158.2170572159939
 42
0.0442669587478621
 10
77.71206844608309
 20
158.2296842366668
 42
0.032759418947709
 10
77.63393254330799
 20
158.234809110123
 42
0.0327594189469762
 10
77.55579664053289
 20
158.2296842366668
 42
0.0442669587489952
 10
77.49918841487738
 20
158.2170572159939
 42
0.0869419154555225
 10
77.45247166900731
 20
158.1926533261885
 42
0.2095631734287794
 10
77.4434690272617
 20
158.176283609042
 42
0.256839199828224
1001
ASO_SCHRAFF
1005
0
1070
     1
1002
{
1070
     1
1005
0
1002
}
1002
{
1070
     2
1005
0
1002
}
1002
{
1070
     4
1000
SOFIFUELL
1040
1.0
1040
0.0
1070
     0
1000
T__SCHR
1070
   256
1000
_bylayer
1040
50.0
1070
     1
1002
}
  0
LINE
  5
216A
330
1F
100
AcDbEntity
  8
SOLBET_Wymiary_Opisy
100
AcDbLine
 10
66.51011148230532
 20
128.2539176421887
 30
0.0
 11
151.1129219509901
 21
128.2539176421887
 31
0.0
  0
LINE
  5
216B
330
1F
100
AcDbEntity
  8
SOLBET_Tynki_Posadzki
100
AcDbLine
 10
68.86400047507845
 20
128.2539176421887
 30
0.0
 11
68.86400047507845
 21
187.6930610813015
 31
0.0
  0
LINE
  5
216C
330
1F
100
AcDbEntity
  8
SOLBET_Zaprawy
100
AcDbLine
 10
69.33067866855776
 20
128.2539176421887
 30
0.0
 11
69.33067866855776
 21
187.6930610813015
 31
0.0
  0
LINE
  5
2171
330
1F
100
AcDbEntity
  8
SOLBET_Stolarka_Okna
100
AcDbLine
 10
78.61400047507846
 20
145.977409480618
 30
0.0
 11
151.1129219509901
 21
145.9774094806198
 31
0.0
  0
LWPOLYLINE
  5
2175
330
1F
100
AcDbEntity
  8
SOLBET_Zbrojenie_Konstrukcja
100
AcDbPolyline
 90
        5
 70
     0
 43
0.0
 10
85.62038921553243
 20
138.8651386186793
 10
85.62038921553243
 20
145.122548723908
 10
77.48510723716822
 20
145.122548723908
 10
77.48510723716822
 20
138.8651386186793
 10
85.62038921553243
 20
138.8651386186793
  0
LWPOLYLINE
  5
2176
330
1F
100
AcDbEntity
  8
SOLBET_Zbrojenie_Konstrukcja
100
AcDbPolyline
 90
        2
 70
     1
 43
0.3
 10
77.65440072827982
 20
139.1813600189998
 42
1.0
 10
77.95440072828274
 20
139.1813600189998
 42
1.0
  0
LWPOLYLINE
  5
2177
330
1F
100
AcDbEntity
  8
SOLBET_Zbrojenie_Konstrukcja
100
AcDbPolyline
 90
        2
 70
     1
 43
0.3
 10
77.71842834499034
 20
144.6560862924052
 42
1.0
 10
78.0184283449787
 20
144.6560862924052
 42
1.0
  0
LINE
  5
2178
330
1F
100
AcDbEntity
  8
SOLBET_Zbrojenie_Konstrukcja
100
AcDbLine
 10
80.16334841624553
 20
143.5671197795691
 30
0.0
 11
78.60791947192115
 21
145.122548723908
 31
0.0
  0
LINE
  5
2179
330
1F
100
AcDbEntity
  8
SOLBET_Zbrojenie_Konstrukcja
100
AcDbLine
 10
78.96334841626298
 20
142.3671197795684
 30
0.0
 11
77.48510723716822
 21
143.8453609586486
 31
0.0
  0
LWPOLYLINE
  5
217A
330
1F
100
AcDbEntity
  8
SOLBET_Zbrojenie_Konstrukcja
100
AcDbPolyline
 90
        2
 70
     1
 43
0.3
 10
85.45109572442084
 20
139.1813600189998
 42
-1.0
 10
85.15109572443249
 20
139.1813600189998
 42
-1.0
  0
LWPOLYLINE
  5
217B
330
1F
100
AcDbEntity
  8
SOLBET_Zbrojenie_Konstrukcja
100
AcDbPolyline
 90
        2
 70
     1
 43
0.3
 10
85.38706810772486
 20
144.6560862924052
 42
-1.0
 10
85.08706810772196
 20
144.6560862924052
 42
-1.0
  0
LINE
  5
2181
330
1F
100
AcDbEntity
  8
SOLBET_Stolarka_Okna
100
AcDbLine
 10
78.61400047507846
 20
157.977409480618
 30
0.0
 11
78.61400047507846
 21
145.977409480618
 31
0.0
  0
LINE
  5
2182
330
1F
100
AcDbEntity
  8
SOLBET_Stolarka_Okna
100
AcDbLine
 10
78.61400047507846
 20
147.8774094806176
 30
0.0
 11
79.614000475093
 21
147.8774094806176
 31
0.0
  0
LINE
  5
2183
330
1F
100
AcDbEntity
  8
SOLBET_Stolarka_Okna
100
AcDbLine
 10
78.61400047507846
 20
156.0774094806202
 30
0.0
 11
79.614000475093
 21
156.0774094806202
 31
0.0
  0
LINE
  5
2187
330
1F
100
AcDbEntity
  8
SOLBET_Stolarka_Okna
100
AcDbLine
 10
83.61400047509301
 20
156.0774094806202
 30
0.0
 11
151.1129219509901
 21
156.0774094806202
 31
0.0
  0
LINE
  5
2188
330
1F
100
AcDbEntity
  8
SOLBET_Stolarka_Okna
100
AcDbLine
 10
83.61400047509301
 20
147.8774094806176
 30
0.0
 11
151.1129219509901
 21
147.8774094806176
 31
0.0
  0
LWPOLYLINE
  5
2189
330
1F
100
AcDbEntity
  8
SOLBET_Zbrojenie_Konstrukcja
100
AcDbPolyline
 90
        4
 70
     1
 43
0.0
 10
79.614000475093
 20
145.977409480618
 10
83.61400047509301
 20
145.977409480618
 10
83.61400047509301
 20
157.977409480618
 10
79.614000475093
 20
157.977409480618
  0
CIRCLE
  5
218A
330
1F
100
AcDbEntity
  8
SOLBET_Zbrojenie_Konstrukcja
100
AcDbCircle
 10
80.48683022626278
 20
155.3168594424624
 30
0.0
 40
0.3275921032762
  0
CIRCLE
  5
218B
330
1F
100
AcDbEntity
  8
SOLBET_Zbrojenie_Konstrukcja
100
AcDbCircle
 10
80.48683022626278
 20
153.2210580643259
 30
0.0
 40
0.3275921032762
  0
CIRCLE
  5
218C
330
1F
100
AcDbEntity
  8
SOLBET_Zbrojenie_Konstrukcja
100
AcDbCircle
 10
80.48683022626278
 20
151.1252566861931
 30
0.0
 40
0.3275921032762
  0
CIRCLE
  5
218D
330
1F
100
AcDbEntity
  8
SOLBET_Zbrojenie_Konstrukcja
100
AcDbCircle
 10
80.48683022626278
 20
149.0294553080566
 30
0.0
 40
0.3275921032762
  0
CIRCLE
  5
218E
330
1F
100
AcDbEntity
  8
SOLBET_Zbrojenie_Konstrukcja
100
AcDbCircle
 10
82.74117072390868
 20
155.3168594424624
 30
0.0
 40
0.3275921032762
  0
CIRCLE
  5
218F
330
1F
100
AcDbEntity
  8
SOLBET_Zbrojenie_Konstrukcja
100
AcDbCircle
 10
82.74117072390868
 20
153.2210580643259
 30
0.0
 40
0.3275921032762
  0
CIRCLE
  5
2190
330
1F
100
AcDbEntity
  8
SOLBET_Zbrojenie_Konstrukcja
100
AcDbCircle
 10
82.74117072390868
 20
151.1252566861931
 30
0.0
 40
0.3275921032762
  0
CIRCLE
  5
2191
330
1F
100
AcDbEntity
  8
SOLBET_Zbrojenie_Konstrukcja
100
AcDbCircle
 10
82.74117072390868
 20
149.0294553080566
 30
0.0
 40
0.3275921032762
  0
LINE
  5
2196
330
1F
100
AcDbEntity
  8
SOLBET_Zaprawy
100
AcDbLine
 10
90.61400047507845
 20
145.227409480618
 30
0.0
 11
151.1129219509901
 21
145.227409480618
 31
0.0
  0
LINE
  5
2197
330
1F
100
AcDbEntity
  8
SOLBET_Tynki_Posadzki
100
AcDbLine
 10
91.11400047507846
 20
144.7274094806198
 30
0.0
 11
151.1129219509901
 21
144.7274094806198
 31
0.0
  0
LINE
  5
2198
330
1F
100
AcDbEntity
  8
SOLBET_Stolarka_Okna
100
AcDbLine
 10
91.11400047507846
 20
145.227409480618
 30
0.0
 11
91.11400047507846
 21
145.9774094806198
 31
0.0
  0
LINE
  5
2199
330
1F
100
AcDbEntity
  8
SOLBET_Tynki_Posadzki
100
AcDbLine
 10
91.11400047507846
 20
144.7274094806198
 30
0.0
 11
90.61400047507845
 21
145.227409480618
 31
0.0
  0
LINE
  5
219B
330
1F
100
AcDbEntity
  8
SOLBET_Wymiary_Opisy
100
AcDbLine
 10
301.2474077558734
 20
187.6930610813015
 30
0.0
 11
301.2474077558734
 21
128.2539176421887
 31
0.0
  0
LINE
  5
219C
330
1F
100
AcDbEntity
  8
SOLBET_Izolacja
  6
Continuous
100
AcDbLine
 10
226.7484862799618
 20
137.977409480618
 30
0.0
 11
226.7484862799618
 21
145.9774094806198
 31
0.0
  0
LINE
  5
219F
330
1F
100
AcDbEntity
  8
SOLBET_Wymiary_Opisy
100
AcDbLine
 10
216.6445972871741
 20
187.6930610813015
 30
0.0
 11
301.2474077558734
 21
187.6930610813015
 31
0.0
  0
ARC
  5
21A3
330
1F
100
AcDbEntity
  8
SOLBET_Tynki_Posadzki
100
AcDbCircle
 10
241.2484862799618
 20
160.4774094806198
 30
0.0
 40
1.5000521396288
100
AcDbArc
 50
0.0
 51
90.0
  0
LINE
  5
21A7
330
1F
100
AcDbEntity
  8
SOLBET_Tynki_Posadzki
100
AcDbLine
 10
242.0465524711478
 20
160.4774094806198
 30
0.0
 11
301.2474077558734
 21
160.4774094806198
 31
0.0
  0
LINE
  5
21A9
330
1F
100
AcDbEntity
  8
SOLBET_Tynki_Posadzki
100
AcDbLine
 10
241.2484862799618
 20
159.977409480618
 30
0.0
 11
241.2484862799618
 21
187.6930610813015
 31
0.0
  0
LINE
  5
21AB
330
1F
100
AcDbEntity
  8
SOLBET_Tynki_Posadzki
100
AcDbLine
 10
241.2484862799618
 20
144.7274094806198
 30
0.0
 11
241.2484862799618
 21
128.2539176421887
 31
0.0
  0
LINE
  5
21AC
330
1F
100
AcDbEntity
  8
SOLBET_Wymiary_Opisy
100
AcDbLine
 10
216.6445972871741
 20
128.2539176421887
 30
0.0
 11
301.2474077558734
 21
128.2539176421887
 31
0.0
  0
LINE
  5
21AD
330
1F
100
AcDbEntity
  8
SOLBET_Tynki_Posadzki
100
AcDbLine
 10
218.9984862799617
 20
128.2539176421887
 30
0.0
 11
218.9984862799617
 21
187.6930610813015
 31
0.0
  0
LWPOLYLINE
  5
21B3
330
1F
100
AcDbEntity
  8
SOLBET_Zbrojenie_Konstrukcja
100
AcDbPolyline
 90
        5
 70
     0
 43
0.0
 10
235.7548750204012
 20
138.8651386186793
 10
235.7548750204012
 20
145.122548723908
 10
227.619593042037
 20
145.122548723908
 10
227.619593042037
 20
138.8651386186793
 10
235.7548750204012
 20
138.8651386186793
  0
LWPOLYLINE
  5
21B4
330
1F
100
AcDbEntity
  8
SOLBET_Zbrojenie_Konstrukcja
100
AcDbPolyline
 90
        2
 70
     1
 43
0.3
 10
227.7888865331631
 20
139.1813600189998
 42
1.0
 10
228.0888865331515
 20
139.1813600189998
 42
1.0
  0
LWPOLYLINE
  5
21B5
330
1F
100
AcDbEntity
  8
SOLBET_Zbrojenie_Konstrukcja
100
AcDbPolyline
 90
        2
 70
     1
 43
0.3
 10
227.8529141498591
 20
144.6560862924052
 42
1.0
 10
228.152914149862
 20
144.6560862924052
 42
1.0
  0
LINE
  5
21B6
330
1F
100
AcDbEntity
  8
SOLBET_Zbrojenie_Konstrukcja
100
AcDbLine
 10
230.2978342211288
 20
143.5671197795691
 30
0.0
 11
228.7424052767899
 21
145.122548723908
 31
0.0
  0
LINE
  5
21B7
330
1F
100
AcDbEntity
  8
SOLBET_Zbrojenie_Konstrukcja
100
AcDbLine
 10
229.0978342211317
 20
142.3671197795684
 30
0.0
 11
227.619593042037
 21
143.8453609586486
 31
0.0
  0
LWPOLYLINE
  5
21B8
330
1F
100
AcDbEntity
  8
SOLBET_Zbrojenie_Konstrukcja
100
AcDbPolyline
 90
        2
 70
     1
 43
0.3
 10
235.5855815293041
 20
139.1813600189998
 42
-1.0
 10
235.2855815293012
 20
139.1813600189998
 42
-1.0
  0
LWPOLYLINE
  5
21B9
330
1F
100
AcDbEntity
  8
SOLBET_Zbrojenie_Konstrukcja
100
AcDbPolyline
 90
        2
 70
     1
 43
0.3
 10
235.5215539125936
 20
144.6560862924052
 42
-1.0
 10
235.2215539125907
 20
144.6560862924052
 42
-1.0
  0
LINE
  5
21C1
330
1F
100
AcDbEntity
  8
SOLBET_Zaprawy
100
AcDbLine
 10
240.7484862799618
 20
145.227409480618
 30
0.0
 11
301.2474077558734
 21
145.227409480618
 31
0.0
  0
LINE
  5
21C2
330
1F
100
AcDbEntity
  8
SOLBET_Tynki_Posadzki
100
AcDbLine
 10
241.2484862799618
 20
144.7274094806198
 30
0.0
 11
301.2474077558734
 21
144.7274094806198
 31
0.0
  0
LINE
  5
21C4
330
1F
100
AcDbEntity
  8
SOLBET_Tynki_Posadzki
100
AcDbLine
 10
241.2484862799618
 20
144.7274094806198
 30
0.0
 11
240.7484862799618
 21
145.227409480618
 31
0.0
  0
LWPOLYLINE
  5
21C5
330
1F
100
AcDbEntity
  8
SOLBET_Zbrojenie_Konstrukcja
100
AcDbPolyline
 90
        8
 70
     1
 43
0.0
 10
241.3984862799559
 20
156.0774094806202
 10
245.5984862799676
 20
156.0774094806202
 10
245.7484862799617
 20
156.227409480618
 10
245.7484862799617
 20
157.8274094806183
 10
245.5984862799676
 20
157.977409480618
 10
241.3984862799559
 20
157.977409480618
 10
241.2484862799618
 20
157.8274094806183
 10
241.2484862799618
 20
156.227409480618
  0
LINE
  5
21C6
330
1F
100
AcDbEntity
  8
SOLBET_Wymiary_Opisy
  6
STRICHPUNKT
100
AcDbLine
 10
243.4984862799618
 20
158.6366040074226
 30
0.0
 11
243.4984862799618
 21
143.7809374058724
 31
0.0
  0
LWPOLYLINE
  5
21C7
330
1F
100
AcDbEntity
  8
SOLBET_Zbrojenie_Konstrukcja
100
AcDbPolyline
 90
        8
 70
     1
 43
0.0
 10
241.3984862799559
 20
145.9774094806198
 10
245.5984862799676
 20
145.9774094806198
 10
245.7484862799617
 20
146.1274094806194
 10
245.7484862799617
 20
147.7274094806198
 10
245.5984862799676
 20
147.8774094806176
 10
241.3984862799559
 20
147.8774094806176
 10
241.2484862799618
 20
147.7274094806198
 10
241.2484862799618
 20
146.1274094806194
  0
LINE
  5
21CB
330
1F
100
AcDbEntity
  8
SOLBET_Zbrojenie_Konstrukcja
100
AcDbLine
 10
243.2484862799618
 20
156.0774094806202
 30
0.0
 11
243.2484862799618
 21
147.8774094806176
 31
0.0
  0
LINE
  5
21CC
330
1F
100
AcDbEntity
  8
SOLBET_Zbrojenie_Konstrukcja
100
AcDbLine
 10
243.7484862799617
 20
156.0774094806202
 30
0.0
 11
243.7484862799617
 21
147.8774094806176
 31
0.0
  0
LINE
  5
21CF
330
1F
100
AcDbEntity
  8
SOLBET_Zbrojenie_Konstrukcja
100
AcDbLine
 10
268.7484862799617
 20
156.0774094806202
 30
0.0
 11
268.7484862799617
 21
147.8774094806176
 31
0.0
  0
LINE
  5
21D0
330
1F
100
AcDbEntity
  8
SOLBET_Zbrojenie_Konstrukcja
100
AcDbLine
 10
268.2484862799618
 20
156.0774094806202
 30
0.0
 11
268.2484862799618
 21
147.8774094806176
 31
0.0
  0
LWPOLYLINE
  5
21D1
330
1F
100
AcDbEntity
  8
SOLBET_Zbrojenie_Konstrukcja
100
AcDbPolyline
 90
        8
 70
     1
 43
0.0
 10
266.3984862799559
 20
145.9774094806198
 10
270.5984862799676
 20
145.9774094806198
 10
270.7484862799617
 20
146.1274094806194
 10
270.7484862799617
 20
147.7274094806198
 10
270.5984862799676
 20
147.8774094806176
 10
266.3984862799559
 20
147.8774094806176
 10
266.2484862799618
 20
147.7274094806198
 10
266.2484862799618
 20
146.1274094806194
  0
LINE
  5
21D2
330
1F
100
AcDbEntity
  8
SOLBET_Wymiary_Opisy
  6
STRICHPUNKT
100
AcDbLine
 10
268.4984862799618
 20
158.6366040074226
 30
0.0
 11
268.4984862799618
 21
143.7809374058724
 31
0.0
  0
LWPOLYLINE
  5
21D3
330
1F
100
AcDbEntity
  8
SOLBET_Zbrojenie_Konstrukcja
100
AcDbPolyline
 90
        8
 70
     1
 43
0.0
 10
266.3984862799559
 20
156.0774094806202
 10
270.5984862799676
 20
156.0774094806202
 10
270.7484862799617
 20
156.227409480618
 10
270.7484862799617
 20
157.8274094806183
 10
270.5984862799676
 20
157.977409480618
 10
266.3984862799559
 20
157.977409480618
 10
266.2484862799618
 20
157.8274094806183
 10
266.2484862799618
 20
156.227409480618
  0
LINE
  5
21D4
330
1F
100
AcDbEntity
  8
SOLBET_Zbrojenie_Konstrukcja
100
AcDbLine
 10
293.7484862799617
 20
156.0774094806202
 30
0.0
 11
293.7484862799617
 21
147.8774094806176
 31
0.0
  0
LINE
  5
21D5
330
1F
100
AcDbEntity
  8
SOLBET_Zbrojenie_Konstrukcja
100
AcDbLine
 10
293.2484862799618
 20
156.0774094806202
 30
0.0
 11
293.2484862799618
 21
147.8774094806176
 31
0.0
  0
LWPOLYLINE
  5
21D6
330
1F
100
AcDbEntity
  8
SOLBET_Zbrojenie_Konstrukcja
100
AcDbPolyline
 90
        8
 70
     1
 43
0.0
 10
291.3984862799559
 20
145.9774094806198
 10
295.5984862799676
 20
145.9774094806198
 10
295.7484862799617
 20
146.1274094806194
 10
295.7484862799617
 20
147.7274094806198
 10
295.5984862799676
 20
147.8774094806176
 10
291.3984862799559
 20
147.8774094806176
 10
291.2484862799617
 20
147.7274094806198
 10
291.2484862799617
 20
146.1274094806194
  0
LINE
  5
21D7
330
1F
100
AcDbEntity
  8
SOLBET_Wymiary_Opisy
  6
STRICHPUNKT
100
AcDbLine
 10
293.4984862799618
 20
158.6366040074226
 30
0.0
 11
293.4984862799618
 21
143.7809374058724
 31
0.0
  0
LWPOLYLINE
  5
21D8
330
1F
100
AcDbEntity
  8
SOLBET_Zbrojenie_Konstrukcja
100
AcDbPolyline
 90
        8
 70
     1
 43
0.0
 10
291.3984862799559
 20
156.0774094806202
 10
295.5984862799676
 20
156.0774094806202
 10
295.7484862799617
 20
156.227409480618
 10
295.7484862799617
 20
157.8274094806183
 10
295.5984862799676
 20
157.977409480618
 10
291.3984862799559
 20
157.977409480618
 10
291.2484862799617
 20
157.8274094806183
 10
291.2484862799617
 20
156.227409480618
  0
LWPOLYLINE
  5
21EC
330
1F
100
AcDbEntity
  8
SOLBET_Ramka_05
100
AcDbPolyline
 90
        4
 70
     1
 43
0.0
 10
-1.316566084748046
 20
0.0
 10
333.0352080073419
 20
0.0
 10
333.0352080073419
 20
297.0
 10
-1.316566084748046
 20
297.0
  0
MTEXT
  5
21ED
102
{ACAD_XDICTIONARY
360
21EE
102
}
330
1F
100
AcDbEntity
  8
SOLBET_Wymiary_Opisy @ 1
100
AcDbMText
 10
17.85142160602731
 20
289.8967110907779
 30
0.0
 40
5.0
 41
239.738715675403
 71
     1
 72
     5
  1
{\LDETAL 69\P}Oparcie stropu na belkach drewnianych na \U+015Bcianie jednowarstwowej
  7
Solbet_5
 73
     1
 44
1.0
1001
AcadAnnotative
1000
AnnotativeData
1002
{
1070
     1
1070
     0
1002
}
1001
ACAD
1000
MTEXTBEGIN
1070
    73
1070
     1
1070
    44
1040
1.0
1070
    74
1070
     0
1000
MTEXTEND
  0
MTEXT
  5
2202
102
{ACAD_XDICTIONARY
360
2203
102
}
330
1F
100
AcDbEntity
  8
SOLBET_Wymiary_Opisy @ 1
100
AcDbMText
 10
45.11386316703647
 20
225.5734269036968
 30
0.0
 40
5.0
 41
124.2624847080697
 71
     1
 72
     5
  1
Na \U+015Bcianie zewn\U+0119trznej\Pprostopad\U+0142ej do kierunku oparcia belek
  7
Solbet_5
 73
     1
 44
1.0
1001
AcadAnnotative
1000
AnnotativeData
1002
{
1070
     1
1070
     0
1002
}
1001
ACAD
1000
MTEXTBEGIN
1070
    73
1070
     1
1070
    44
1040
1.0
1070
    74
1070
     0
1000
MTEXTEND
  0
MTEXT
  5
2207
102
{ACAD_XDICTIONARY
360
2208
102
}
330
1F
100
AcDbEntity
  8
SOLBET_Wymiary_Opisy @ 1
100
AcDbMText
 10
198.4449004494516
 20
226.0734269036968
 30
0.0
 40
5.0
 41
124.2624847080697
 71
     1
 72
     5
  1
Na \U+015Bcianie zewn\U+0119trznej\Pr\U+00F3wnoleg\U+0142ej do kierunku oparcia belek
  7
Solbet_5
 73
     1
 44
1.0
1001
AcadAnnotative
1000
AnnotativeData
1002
{
1070
     1
1070
     0
1002
}
1001
ACAD
1000
MTEXTBEGIN
1070
    73
1070
     1
1070
    44
1040
1.0
1070
    74
1070
     0
1000
MTEXTEND
  0
LWPOLYLINE
  5
2256
330
1F
100
AcDbEntity
  8
SOLBET_Bloczki
100
AcDbPolyline
 90
        4
 70
     0
 43
0.0
 10
69.614000475093
 20
128.2539176421887
 10
69.614000475093
 20
133.9774094806198
 10
90.61400047507845
 20
133.9774094806198
 10
90.61400047507845
 20
128.2539176421887
  0
LWPOLYLINE
  5
225D
330
1F
100
AcDbEntity
  8
SOLBET_Bloczki
100
AcDbPolyline
 90
        4
 70
     0
 43
0.0
 10
69.614000475093
 20
187.6930610813015
 10
69.61400061584232
 20
181.9774096847666
 10
90.61400061584231
 20
181.9774116805739
 10
90.61400061584231
 20
187.6930610813015
  0
LWPOLYLINE
  5
225E
330
1F
100
AcDbEntity
  8
SOLBET_Bloczki
100
AcDbPolyline
 90
        4
 70
     0
 43
0.0
 10
219.7484862799618
 20
187.6930610813015
 10
219.7484862799618
 20
181.9774094806198
 10
240.7484862799618
 20
181.9774094806198
 10
240.7484862799618
 20
187.6930610813015
  0
LWPOLYLINE
  5
225F
330
1F
100
AcDbEntity
  8
SOLBET_Bloczki
100
AcDbPolyline
 90
        4
 70
     0
 43
0.0
 10
219.7484862799618
 20
128.2539176421887
 10
219.7484862799618
 20
133.9774094806198
 10
240.7484862799618
 20
133.9774094806198
 10
240.7484862799618
 20
128.2539176421887
  0
LINE
  5
2260
330
1F
100
AcDbEntity
  8
SOLBET_Stolarka_Okna
100
AcDbLine
 10
151.1129219509901
 20
156.0774094806202
 30
0.0
 11
151.1129219509901
 21
147.8774094806176
 31
0.0
  0
LINE
  5
2261
330
1F
100
AcDbEntity
  8
SOLBET_Stolarka_Okna
100
AcDbLine
 10
78.61400047507846
 20
157.977409480618
 30
0.0
 11
76.61400047507846
 21
157.9774096847663
 31
0.0
  0
LINE
  5
2262
330
1F
100
AcDbEntity
  8
SOLBET_Stolarka_Okna
100
AcDbLine
 10
78.61400047507846
 20
145.977409480618
 30
0.0
 11
76.61400047507857
 21
145.977409480618
 31
0.0
  0
LINE
  5
2263
330
1F
100
AcDbEntity
  8
SOLBET_Izolacja
100
AcDbLine
 10
90.61400047507845
 20
159.9774094757158
 30
0.0
 11
91.61400047507845
 21
159.9774094757158
 31
0.0
  0
LINE
  5
2264
330
1F
100
AcDbEntity
  8
SOLBET_Izolacja
100
AcDbLine
 10
91.61400047507845
 20
159.9774094757158
 30
0.0
 11
91.61400047507845
 21
157.9774094757158
 31
0.0
  0
LINE
  5
2265
330
1F
100
AcDbEntity
  8
SOLBET_Izolacja
100
AcDbLine
 10
91.61400047507845
 20
157.9774094757158
 30
0.0
 11
90.61400061584231
 21
157.9774096847663
 31
0.0
  0
LINE
  5
2266
330
1F
100
AcDbEntity
  8
SOLBET_Izolacja
  6
BATTING
 48
0.049
100
AcDbLine
 10
91.11400047507846
 20
159.977409480618
 30
0.0
 11
91.11397326933502
 21
157.9914298253817
 31
0.0
  0
LINE
  5
2267
330
1F
100
AcDbEntity
  8
SOLBET_Izolacja
100
AcDbLine
 10
73.61400047509301
 20
157.977409480618
 30
0.0
 11
76.61400047507857
 21
157.977409480618
 31
0.0
  0
LINE
  5
2268
330
1F
100
AcDbEntity
  8
SOLBET_Izolacja
100
AcDbLine
 10
73.61400047509301
 20
137.9774094806198
 30
0.0
 11
76.61400047507857
 21
137.9774094806198
 31
0.0
  0
LINE
  5
2269
330
1F
100
AcDbEntity
  8
SOLBET_Izolacja
  6
BATTING
 48
0.145
100
AcDbLine
 10
75.11400047508573
 20
137.9774094806198
 30
0.0
 11
75.11400047508573
 21
157.977409480618
 31
0.0
  0
LINE
  5
227C
330
1F
100
AcDbEntity
  8
SOLBET_Tynki_Posadzki
100
AcDbLine
 10
151.1129219509901
 20
159.977409480618
 30
0.0
 11
151.1129219509901
 21
157.9734893617451
 31
0.0
  0
LINE
  5
22A1
330
1F
100
AcDbEntity
  8
SOLBET_Tynki_Posadzki
100
AcDbLine
 10
151.1129219509901
 20
157.977409480618
 30
0.0
 11
151.1129219509902
 21
160.4774094806198
 31
0.0
  0
HATCH
  5
22A3
102
{ACAD_XDICTIONARY
360
2605
102
}
330
1F
100
AcDbEntity
  8
SOLBET_Zbrojenie_Konstrukcja
 62
     7
100
AcDbHatch
 10
0.0
 20
0.0
 30
0.0
210
0.0
220
0.0
230
1.0
  2
SOLID
 70
     1
 71
     1
 91
        2
 92
        1
 93
       16
 72
     2
 10
77.54547258200801
 20
158.2768632315499
 40
0.1527030439727053
 50
232.4805170828985
 51
252.3561575998942
 73
     1
 72
     2
 10
77.59866455746845
 20
158.4441014701779
 40
0.3281966755174354
 50
252.3561576059505
 51
262.4947782715064
 73
     1
 72
     2
 10
77.6339325433161
 20
158.7117998902061
 40
0.5982082954735976
 50
262.4947782681277
 51
269.9999999992229
 73
     1
 72
     2
 10
77.63393254329979
 20
158.7117998902075
 40
0.5982082954749899
 50
270.0000000007853
 51
277.5052217318629
 73
     1
 72
     2
 10
77.66920052914061
 20
158.4441014700942
 40
0.3281966754354397
 50
277.5052217315981
 51
287.6438423972045
 73
     1
 72
     2
 10
77.72239250459232
 20
158.276863231552
 40
0.1527030439750172
 50
287.6438424002611
 51
307.519482916953
 73
     1
 72
     2
 10
77.80122398092917
 20
158.1742003524393
 40
0.023265536238036
 50
307.5194828871922
 51
359.9999999738223
 73
     1
 72
     2
 10
77.80122398093088
 20
158.174200352417
 40
0.023265536236309
 50
0.0000000285574828
 51
52.48051711488766
 73
     1
 72
     2
 10
77.72239250458844
 20
158.0715374733069
 40
0.1527030439746525
 50
52.48051708110658
 51
72.35615759816742
 73
     1
 72
     2
 10
77.66920052913917
 20
157.9042992347566
 40
0.3281966754419953
 50
72.35615760289665
 51
82.49477826829995
 73
     1
 72
     2
 10
77.63393254331406
 20
157.6366008146551
 40
0.5982082954679412
 50
82.4947782694265
 51
90.0000000005812
 73
     1
 72
     2
 10
77.63393254330281
 20
157.6366008146417
 40
0.5982082954812711
 50
89.9999999995032
 51
97.50522173049041
 73
     1
 72
     2
 10
77.5986645574677
 20
157.9042992346828
 40
0.3281966755139845
 50
97.50522172844034
 51
107.6438423941031
 73
     1
 72
     2
 10
77.54547258201433
 20
158.0715374733044
 40
0.1527030439774918
 50
107.6438424020193
 51
127.5194829187064
 73
     1
 72
     2
 10
77.46664110567526
 20
158.1742003524271
 40
0.0232655362312509
 50
127.5194829093331
 51
174.8627062158256
 73
     1
 72
     2
 10
77.46664110567725
 20
158.1742003524292
 40
0.0232655362330533
 50
174.8627062214231
 51
232.4805170878892
 73
     1
 97
        1
330
2165
 92
        1
 93
       16
 72
     2
 10
86.88190325034765
 20
158.2768632315499
 40
0.1527030439727053
 50
52.48051708289851
 51
72.35615759989416
 73
     0
 72
     2
 10
86.82871127488722
 20
158.4441014701779
 40
0.3281966755174354
 50
72.3561576059505
 51
82.49477827150641
 73
     0
 72
     2
 10
86.79344328903956
 20
158.7117998902061
 40
0.5982082954735976
 50
82.49477826812775
 51
89.99999999922282
 73
     0
 72
     2
 10
86.79344328905587
 20
158.7117998902075
 40
0.5982082954749899
 50
90.00000000078536
 51
97.50522173186293
 73
     0
 72
     2
 10
86.75817530321506
 20
158.4441014700942
 40
0.3281966754354397
 50
97.50522173159811
 51
107.6438423972044
 73
     0
 72
     2
 10
86.70498332776334
 20
158.276863231552
 40
0.1527030439750172
 50
107.6438424002611
 51
127.519482916953
 73
     0
 72
     2
 10
86.6261518514265
 20
158.1742003524393
 40
0.023265536238036
 50
127.5194828871921
 51
179.9999999738223
 73
     0
 72
     2
 10
86.62615185142477
 20
158.174200352417
 40
0.023265536236309
 50
180.0000000285575
 51
232.4805171148877
 73
     0
 72
     2
 10
86.70498332776721
 20
158.0715374733069
 40
0.1527030439746525
 50
232.4805170811066
 51
252.3561575981674
 73
     0
 72
     2
 10
86.7581753032165
 20
157.9042992347566
 40
0.3281966754419953
 50
252.3561576028967
 51
262.4947782683
 73
     0
 72
     2
 10
86.79344328904161
 20
157.6366008146551
 40
0.5982082954679412
 50
262.4947782694265
 51
270.0000000005812
 73
     0
 72
     2
 10
86.79344328905285
 20
157.6366008146417
 40
0.5982082954812711
 50
269.9999999995033
 51
277.5052217304904
 73
     0
 72
     2
 10
86.82871127488796
 20
157.9042992346828
 40
0.3281966755139845
 50
277.5052217284403
 51
287.6438423941032
 73
     0
 72
     2
 10
86.88190325034133
 20
158.0715374733044
 40
0.1527030439774918
 50
287.6438424020193
 51
307.5194829187064
 73
     0
 72
     2
 10
86.96073472668039
 20
158.1742003524271
 40
0.0232655362312509
 50
307.5194829093331
 51
354.8627062158256
 73
     0
 72
     2
 10
86.96073472667841
 20
158.1742003524292
 40
0.0232655362330533
 50
354.8627062214231
 51
412.4805170878891
 73
     0
 97
        1
330
2163
 75
     0
 76
     1
 98
        1
 10
962.5041627406996
 20
0.0
1001
ACAD
1010
0.0
1020
0.0
1030
0.0
  0
LINE
  5
22A5
330
1F
100
AcDbEntity
  8
SOLBET_Tynki_Posadzki
100
AcDbLine
 10
301.2474077558734
 20
157.9734893617451
 30
0.0
 11
301.2474077558734
 21
160.4774094806198
 31
0.0
  0
LINE
  5
22A6
330
1F
100
AcDbEntity
  8
SOLBET_Izolacja
100
AcDbLine
 10
223.7484862799618
 20
145.9774094806198
 30
0.0
 11
226.7484862799618
 21
145.9774094806198
 31
0.0
  0
LINE
  5
22A7
330
1F
100
AcDbEntity
  8
SOLBET_Izolacja
100
AcDbLine
 10
223.7484862799618
 20
137.9774094806198
 30
0.0
 11
226.7484862799618
 21
137.9774094806198
 31
0.0
  0
LINE
  5
22A8
330
1F
100
AcDbEntity
  8
SOLBET_Izolacja
  6
BATTING
 48
0.144
100
AcDbLine
 10
225.2484862799617
 20
145.9774094806198
 30
0.0
 11
225.2484862799619
 21
137.9774094806198
 31
0.0
  0
LINE
  5
22A9
330
1F
100
AcDbEntity
  8
SOLBET_Izolacja
100
AcDbLine
 10
240.7484862799618
 20
145.227409480618
 30
0.0
 11
241.2484862799618
 21
145.227409480618
 31
0.0
  0
LINE
  5
22AA
330
1F
100
AcDbEntity
  8
SOLBET_Izolacja
100
AcDbLine
 10
241.2484862799618
 20
145.227409480618
 30
0.0
 11
241.2484862799618
 21
159.977409480618
 31
0.0
  0
LINE
  5
22AB
330
1F
100
AcDbEntity
  8
SOLBET_Izolacja
100
AcDbLine
 10
241.2484862799618
 20
159.977409480618
 30
0.0
 11
240.7484862799618
 21
159.9774094757158
 31
0.0
  0
LINE
  5
22AC
330
1F
100
AcDbEntity
  8
SOLBET_Izolacja
  6
BATTING
 48
0.024
100
AcDbLine
 10
240.9984862799618
 20
159.9774094781669
 30
0.0
 11
240.9984862799618
 21
145.227409480618
 31
0.0
  0
LINE
  5
22AD
330
1F
100
AcDbEntity
  8
SOLBET_Izolacja
100
AcDbLine
 10
241.2484862799618
 20
155.977409480618
 30
0.0
 11
301.2474077558734
 21
155.977409480618
 31
0.0
  0
LINE
  5
22AE
330
1F
100
AcDbEntity
  8
SOLBET_Izolacja
100
AcDbLine
 10
301.2474077558734
 20
155.977409480618
 30
0.0
 11
301.2474077558734
 21
145.9774094806198
 31
0.0
  0
LINE
  5
22AF
330
1F
100
AcDbEntity
  8
SOLBET_Izolacja
100
AcDbLine
 10
301.2474077558734
 20
145.9774094806198
 30
0.0
 11
241.2484862799618
 21
145.9774094806198
 31
0.0
  0
LINE
  5
22B0
330
1F
100
AcDbEntity
  8
SOLBET_Izolacja
  6
BATTING
 48
0.4660000000000001
100
AcDbLine
 10
301.2474077558734
 20
150.9774094806189
 30
0.0
 11
241.2484862799618
 21
150.9774094806189
 31
0.0
  0
MTEXT
  5
22C2
330
1F
100
AcDbEntity
  8
SOLBET_Wymiary_Opisy
100
AcDbMText
 10
46.13086079992877
 20
186.2170262913841
 30
0.0
 40
2.5
 41
0.0
 71
     3
 72
     1
  1
Zbrojenie MURFOR
  7
Solbet_2_5
 73
     1
 44
1.0
1001
ACAD
1000
MTEXTBEGIN
1070
    73
1070
     1
1070
    44
1040
1.0
1070
    74
1070
     0
1000
MTEXTEND
  0
LEADER
  5
22C3
330
1F
100
AcDbEntity
  8
SOLBET_Wymiary_Opisy
100
AcDbLeader
  3
Solbet$7
 73
     0
 75
     1
 40
3.25
 41
31.0
 76
     3
 10
75.11400047508573
 20
152.928962114493
 30
0.0
 10
51.02969374481268
 20
168.2010116989427
 30
0.0
 10
48.52969374481268
 20
168.2010116989427
 30
0.0
340
22C4
213
1.177601578005123
223
-0.1753245211093599
233
0.0
1001
ACAD
1000
DSTYLE
1002
{
1070
   147
1040
0.625
1070
    77
1070
     1
1002
}
  0
MTEXT
  5
22C4
102
{ACAD_REACTORS
330
22C3
102
}
330
1F
100
AcDbEntity
  8
SOLBET_Wymiary_Opisy
100
AcDbMText
 10
46.72709216680755
 20
172.251336220052
 30
0.0
 40
2.5
 41
0.0
 71
     3
 72
     1
  1
Warstwa docieplenia
  7
Solbet_2_5
 73
     1
 44
1.0
1001
ACAD
1000
MTEXTBEGIN
1070
    73
1070
     1
1070
    44
1040
1.0
1070
    74
1070
     0
1000
MTEXTEND
  0
LEADER
  5
22C5
330
1F
100
AcDbEntity
  8
SOLBET_Wymiary_Opisy
100
AcDbLeader
  3
Solbet$7
 73
     0
 75
     1
 40
3.25
 41
23.25
 76
     3
 10
71.09459269455578
 20
147.6244235926399
 30
0.0
 10
50.28580714179293
 20
155.3752933890983
 30
0.0
 10
47.78580714179293
 20
155.3752933890983
 30
0.0
340
22C6
213
1.177601578005123
223
-0.1753245211093599
233
0.0
1001
ACAD
1000
DSTYLE
1002
{
1070
   147
1040
0.625
1070
    77
1070
     1
1002
}
  0
MTEXT
  5
22C6
102
{ACAD_XDICTIONARY
360
2607
102
}
102
{ACAD_REACTORS
330
22C5
102
}
330
1F
100
AcDbEntity
  8
SOLBET_Wymiary_Opisy
100
AcDbMText
 10
45.9832055637878
 20
159.4256179102076
 30
0.0
 40
2.5
 41
0.0
 71
     3
 72
     1
  1
P\U+0142ytka SOLBET
  7
Solbet_2_5
 73
     1
 44
1.0
1001
ACAD
1000
MTEXTBEGIN
1070
    73
1070
     1
1070
    44
1040
1.0
1070
    74
1070
     0
1000
MTEXTEND
  0
LEADER
  5
22C7
330
1F
100
AcDbEntity
  8
SOLBET_Wymiary_Opisy
100
AcDbLeader
  3
Solbet$7
 73
     0
 75
     1
 40
3.25
 41
24.25
 76
     3
 10
82.588525109594
 20
154.015019800823
 30
0.0
 10
49.99256434524136
 20
130.1539185629935
 30
0.0
 10
47.49256434524136
 20
130.1539185629935
 30
0.0
340
22C8
213
1.177601578005123
223
-0.1753245211093599
233
0.0
1001
ACAD
1000
DSTYLE
1002
{
1070
   147
1040
0.625
1070
    77
1070
     1
1002
}
  0
MTEXT
  5
22C8
102
{ACAD_XDICTIONARY
360
2609
102
}
102
{ACAD_REACTORS
330
22C7
102
}
330
1F
100
AcDbEntity
  8
SOLBET_Wymiary_Opisy
100
AcDbMText
 10
45.68996276723623
 20
134.2042430841029
 30
0.0
 40
2.5
 41
0.0
 71
     3
 72
     1
  1
Blacha mocuj\U+0105ca
  7
Solbet_2_5
 73
     1
 44
1.0
1001
ACAD
1000
MTEXTBEGIN
1070
    73
1070
     1
1070
    44
1040
1.0
1070
    74
1070
     0
1000
MTEXTEND
  0
LEADER
  5
22C9
330
1F
100
AcDbEntity
  8
SOLBET_Wymiary_Opisy
100
AcDbLeader
  3
Solbet$7
 73
     0
 75
     1
 40
6.668560606060606
 41
38.5
 76
     3
 10
83.74985747558595
 20
140.3881090497398
 30
0.0
 10
51.34192813790105
 20
108.1455922540448
 30
0.0
 10
48.84192813790105
 20
108.1455922540448
 30
0.0
340
22CA
213
1.177601578005123
223
-0.1753245211093599
233
0.0
1001
ACAD
1000
DSTYLE
1002
{
1070
   147
1040
0.625
1070
    77
1070
     1
1002
}
  0
MTEXT
  5
22CA
102
{ACAD_XDICTIONARY
360
260B
102
}
102
{ACAD_REACTORS
330
22C9
102
}
330
1F
100
AcDbEntity
  8
SOLBET_Wymiary_Opisy
100
AcDbMText
 10
8.539326559895926
 20
115.6144773812147
 30
0.0
 40
2.5
 41
0.0
 71
     1
 72
     1
  1
Wieniec opuszczony\Pw kszta\U+0142tkach U SOLBET
  7
Solbet_2_5
 73
     1
 44
1.0
1001
ACAD
1000
MTEXTBEGIN
1070
    73
1070
     1
1070
    44
1040
1.0
1070
    74
1070
     0
1000
MTEXTEND
  0
LEADER
  5
22CC
330
1F
100
AcDbEntity
  8
SOLBET_Wymiary_Opisy
100
AcDbLeader
  3
Solbet$7
 73
     0
 75
     1
 40
6.668560606060606
 41
38.0
 76
     3
 10
234.8917224762558
 20
140.7284381217868
 30
0.0
 10
213.7052312363664
 20
106.8535288084942
 30
0.0
 10
211.2052312363664
 20
106.8535288084942
 30
0.0
340
22CD
213
1.177601578005123
223
-0.1753245211093599
233
0.0
1001
ACAD
1000
DSTYLE
1002
{
1070
   147
1040
0.625
1070
    77
1070
     1
1002
}
  0
MTEXT
  5
22CD
102
{ACAD_XDICTIONARY
360
260D
102
}
102
{ACAD_REACTORS
330
22CC
102
}
330
1F
100
AcDbEntity
  8
SOLBET_Wymiary_Opisy
100
AcDbMText
 10
171.4026296583613
 20
114.3224139356642
 30
0.0
 40
2.5
 41
0.0
 71
     1
 72
     1
  1
Wieniec opuszczony\Pw kszta\U+0142tkach U SOLBET
  7
Solbet_2_5
 73
     1
 44
1.0
1001
ACAD
1000
MTEXTBEGIN
1070
    73
1070
     1
1070
    44
1040
1.0
1070
    74
1070
     0
1000
MTEXTEND
  0
MTEXT
  5
22CE
102
{ACAD_XDICTIONARY
360
260F
102
}
330
1F
100
AcDbEntity
  8
SOLBET_Wymiary_Opisy
100
AcDbMText
 10
144.7531318102656
 20
178.3191884667744
 30
0.0
 40
2.5
 41
0.0
 71
     3
 72
     1
  1
Przekr\U+00F3j przez gniazdo\Pw kt\U+00F3rym umocowana jest belka
  7
Solbet_2_5
 73
     1
 44
1.0
1001
ACAD
1000
MTEXTBEGIN
1070
    73
1070
     1
1070
    44
1040
1.0
1070
    74
1070
     0
1000
MTEXTEND
  0
LINE
  5
22D2
330
1F
100
AcDbEntity
  8
SOLBET_Wymiary_Opisy
100
AcDbLine
 10
50.43346237793389
 20
182.1667017702748
 30
0.0
 11
20.05846237793389
 21
182.1667017702748
 31
0.0
1001
ACAD
1000
DSTYLE
1002
{
1070
   147
1040
0.625
1070
    77
1070
     1
1002
}
  0
INSERT
  5
22D3
330
1F
100
AcDbEntity
  8
SOLBET_Wymiary_Opisy
100
AcDbBlockReference
  2
_DotSmall
 10
81.56890555101131
 20
158.4302742071241
 30
0.0
 41
2.499999999999972
 42
2.5
 43
2.5
 50
318.8594833499485
1001
ACAD
1000
DSTYLE
1002
{
1070
   147
1040
0.625
1070
    77
1070
     1
1002
}
  0
LINE
  5
22D4
330
1F
100
AcDbEntity
  8
SOLBET_Wymiary_Opisy
100
AcDbLine
 10
81.56890555101131
 20
158.4302742071241
 30
0.0
 11
50.43346237793389
 21
182.1667017702748
 31
0.0
1001
ACAD
1000
DSTYLE
1002
{
1070
   147
1040
0.625
1070
    77
1070
     1
1002
}
  0
LWPOLYLINE
  5
236F
102
{ACAD_REACTORS
330
2371
102
}
330
1F
100
AcDbEntity
  8
SOLBET_Tynki_Posadzki
100
AcDbPolyline
 90
        5
 70
     0
 43
0.0
 10
91.61400047507845
 20
159.977409480618
 10
151.1129219509901
 20
159.9774094806198
 10
151.1129219509901
 20
157.977409480618
 10
91.61400047507857
 20
157.977409480618
 10
91.61400047507845
 20
159.9774094757158
  0
HATCH
  5
2371
330
1F
100
AcDbEntity
  8
SOLBET_Tynki_Posadzki
100
AcDbHatch
 10
0.0
 20
0.0
 30
0.0
210
0.0
220
0.0
230
1.0
  2
AR-CONC
 70
     0
 71
     1
 91
        1
 92
        1
 93
        4
 72
     1
 10
91.61400047507845
 20
159.977409480618
 11
151.1129219509901
 21
159.9774094806198
 72
     1
 10
151.1129219509901
 20
159.9774094806198
 11
151.1129219509901
 21
157.977409480618
 72
     1
 10
151.1129219509901
 20
157.977409480618
 11
91.61400047507857
 21
157.977409480618
 72
     1
 10
91.61400047507857
 20
157.977409480618
 11
91.61400047507845
 21
159.9774094757158
 97
        1
330
236F
 75
     0
 76
     1
 52
0.0
 41
0.048
 77
     0
 78
    13
 53
50.0
 43
0.0
 44
0.0
 45
8.744864111808192
 46
-0.7650761058673483
 79
     2
 49
0.9144000000000001
 49
-10.0584
 53
355.0
 43
0.0
 44
0.0
 45
-1.691655646832015
 46
9.170718858344638
 79
     2
 49
0.7315200000000001
 49
-8.046719999999998
 53
100.451
 43
0.7287360000000001
 44
-0.063756
 45
7.053240079966044
 46
8.40560101537401
 79
     2
 49
0.7771200000000001
 49
-8.54832
 53
46.1842
 43
0.0
 44
2.4384
 45
13.01179396282223
 46
-2.018031740770902
 79
     2
 49
1.371599999999999
 49
-15.0876
 53
96.6356
 43
1.0843152
 44
2.270232
 45
11.39540325437938
 46
11.87642668272236
 79
     2
 49
1.16568
 49
-12.82248
 53
351.184
 43
0.0
 44
2.4384
 45
11.39542107906883
 46
11.87640565730869
 79
     2
 49
1.09728
 49
-12.07008
 53
21.0
 43
1.2192
 44
1.8288
 45
7.277514232098397
 46
-4.9087448888046
 79
     2
 49
0.9144000000000001
 49
-10.0584
 53
326.0
 43
1.2192
 44
1.8288
 45
2.966497360687059
 46
8.841022373871325
 79
     2
 49
0.7315200000000001
 49
-8.046719999999998
 53
71.45140000000001
 43
1.825656
 44
1.419739199999999
 45
10.24399155696597
 46
3.932297170370757
 79
     2
 49
0.7771200000000001
 49
-8.54832
 53
37.5
 43
0.0
 44
0.0
 45
0.1482529560284072
 46
4.058641865911349
 79
     6
 49
0.0
 49
-7.949184
 49
0.0
 49
-8.168639999999999
 49
0.0
 49
-8.077200000000001
 53
7.499999999999999
 43
0.0
 44
0.0
 45
3.207343800494675
 46
4.808667591269736
 79
     6
 49
0.0
 49
-4.657343999999999
 49
0.0
 49
-7.766303999999999
 49
0.0
 49
-3.07848
 53
327.5
 43
-2.718815999999999
 44
0.0
 45
6.508348568009827
 46
-0.2749797116483259
 79
     6
 49
0.0
 49
-3.048
 49
0.0
 49
-9.509759999999999
 49
0.0
 49
-12.61872
 53
317.5
 43
-3.938016
 44
0.0
 45
7.110200706528866
 46
1.220471569599984
 79
     6
 49
0.0
 49
-3.9624
 49
0.0
 49
-6.315456
 49
0.0
 49
-8.961119999999999
 98
        1
 10
0.0
 20
0.0
1001
ACAD
1010
0.0
1020
0.0
1030
0.0
  0
LWPOLYLINE
  5
237F
102
{ACAD_REACTORS
330
2381
102
}
330
1F
100
AcDbEntity
  8
SOLBET_Tynki_Posadzki
100
AcDbPolyline
 90
        5
 70
     0
 43
0.0
 10
241.248486284864
 20
159.977409480618
 10
301.2474077558734
 20
159.977409480618
 10
301.2474077558734
 20
157.977409480618
 10
241.2484862799618
 20
157.977409480618
 10
241.248486284864
 20
159.977409480618
  0
HATCH
  5
2381
330
1F
100
AcDbEntity
  8
SOLBET_Tynki_Posadzki
100
AcDbHatch
 10
0.0
 20
0.0
 30
0.0
210
0.0
220
0.0
230
1.0
  2
AR-CONC
 70
     0
 71
     1
 91
        1
 92
        1
 93
        4
 72
     1
 10
241.248486284864
 20
159.977409480618
 11
301.2474077558734
 21
159.977409480618
 72
     1
 10
301.2474077558734
 20
159.977409480618
 11
301.2474077558734
 21
157.977409480618
 72
     1
 10
301.2474077558734
 20
157.977409480618
 11
241.2484862799618
 21
157.977409480618
 72
     1
 10
241.2484862799618
 20
157.977409480618
 11
241.248486284864
 21
159.977409480618
 97
        1
330
237F
 75
     0
 76
     1
 52
0.0
 41
0.048
 77
     0
 78
    13
 53
50.0
 43
0.0
 44
0.0
 45
8.744864111808192
 46
-0.7650761058673483
 79
     2
 49
0.9144000000000001
 49
-10.0584
 53
355.0
 43
0.0
 44
0.0
 45
-1.691655646832015
 46
9.170718858344638
 79
     2
 49
0.7315200000000001
 49
-8.046719999999998
 53
100.451
 43
0.7287360000000001
 44
-0.063756
 45
7.053240079966044
 46
8.40560101537401
 79
     2
 49
0.7771200000000001
 49
-8.54832
 53
46.1842
 43
0.0
 44
2.4384
 45
13.01179396282223
 46
-2.018031740770902
 79
     2
 49
1.371599999999999
 49
-15.0876
 53
96.6356
 43
1.0843152
 44
2.270232
 45
11.39540325437938
 46
11.87642668272236
 79
     2
 49
1.16568
 49
-12.82248
 53
351.184
 43
0.0
 44
2.4384
 45
11.39542107906883
 46
11.87640565730869
 79
     2
 49
1.09728
 49
-12.07008
 53
21.0
 43
1.2192
 44
1.8288
 45
7.277514232098397
 46
-4.9087448888046
 79
     2
 49
0.9144000000000001
 49
-10.0584
 53
326.0
 43
1.2192
 44
1.8288
 45
2.966497360687059
 46
8.841022373871325
 79
     2
 49
0.7315200000000001
 49
-8.046719999999998
 53
71.45140000000001
 43
1.825656
 44
1.419739199999999
 45
10.24399155696597
 46
3.932297170370757
 79
     2
 49
0.7771200000000001
 49
-8.54832
 53
37.5
 43
0.0
 44
0.0
 45
0.1482529560284072
 46
4.058641865911349
 79
     6
 49
0.0
 49
-7.949184
 49
0.0
 49
-8.168639999999999
 49
0.0
 49
-8.077200000000001
 53
7.499999999999999
 43
0.0
 44
0.0
 45
3.207343800494675
 46
4.808667591269736
 79
     6
 49
0.0
 49
-4.657343999999999
 49
0.0
 49
-7.766303999999999
 49
0.0
 49
-3.07848
 53
327.5
 43
-2.718815999999999
 44
0.0
 45
6.508348568009827
 46
-0.2749797116483259
 79
     6
 49
0.0
 49
-3.048
 49
0.0
 49
-9.509759999999999
 49
0.0
 49
-12.61872
 53
317.5
 43
-3.938016
 44
0.0
 45
7.110200706528866
 46
1.220471569599984
 79
     6
 49
0.0
 49
-3.9624
 49
0.0
 49
-6.315456
 49
0.0
 49
-8.961119999999999
 98
        1
 10
0.0
 20
0.0
1001
ACAD
1010
0.0
1020
0.0
1030
0.0
  0
LINE
  5
2462
330
1F
100
AcDbEntity
  8
SOLBET_Zbrojenie_Konstrukcja
100
AcDbLine
 10
77.82448951716721
 20
158.1742003524393
 30
0.0
 11
86.60288631518845
 21
158.1742003524393
 31
0.0
  0
INSERT
  5
255F
330
1F
100
AcDbEntity
  8
SOLBET_Bloczki
100
AcDbBlockReference
  2
SOLBET_Ksztaltka_U_420x240x500_KG400_PRA
 10
69.61400055457762
 20
145.9774106511959
 30
0.0
 50
270.0
  0
INSERT
  5
2560
330
1F
100
AcDbEntity
  8
SOLBET_Bloczki
100
AcDbBlockReference
  2
SOLBET_Ksztaltka_U_420x240x500_KG400_PRA
 10
219.7484863594609
 20
145.9774106511959
 30
0.0
 50
270.0
  0
INSERT
  5
256F
330
1F
100
AcDbEntity
  8
SOLBET_Bloczki
100
AcDbBlockReference
  2
SOLBET_Plytka_80x240x590_KG600_PRA
 10
69.61400047507845
 20
145.9774094806198
 30
0.0
  0
INSERT
  5
2580
330
1F
100
AcDbEntity
  8
SOLBET_Bloczki
100
AcDbBlockReference
  2
SOLBET_Bloczek_Ideal_420x240x590_P+W_KG400_PRA
 10
69.61400030527079
 20
157.977409685255
 30
0.0
  0
INSERT
  5
2581
330
1F
100
AcDbEntity
  8
SOLBET_Bloczki
100
AcDbBlockReference
  2
SOLBET_Bloczek_Ideal_420x240x590_P+W_KG400_PRA
 10
69.6140004460201
 20
169.9774098894035
 30
0.0
  0
INSERT
  5
2582
330
1F
100
AcDbEntity
  8
SOLBET_Bloczki
100
AcDbBlockReference
  2
SOLBET_Bloczek_Ideal_420x240x590_P+W_KG400_PRA
 10
219.7484862799618
 20
145.9774094806198
 30
0.0
  0
INSERT
  5
2583
330
1F
100
AcDbEntity
  8
SOLBET_Bloczki
100
AcDbBlockReference
  2
SOLBET_Bloczek_Ideal_420x240x590_P+W_KG400_PRA
 10
219.7484862799618
 20
157.9774096847683
 30
0.0
  0
INSERT
  5
2584
330
1F
100
AcDbEntity
  8
SOLBET_Bloczki
100
AcDbBlockReference
  2
SOLBET_Bloczek_Ideal_420x240x590_P+W_KG400_PRA
 10
219.7484862799618
 20
169.9774098889168
 30
0.0
  0
MTEXT
  5
25C2
102
{ACAD_XDICTIONARY
360
25C3
102
}
330
1F
100
AcDbEntity
  8
SOLBET_Wymiary_Opisy
100
AcDbMText
 10
299.9376972408336
 20
7.273150535415538
 30
0.0
 40
5.0
 41
0.0
 71
     1
 72
     5
  1
Skala 1:20
  7
Solbet_5
 73
     1
 44
1.0
1001
ACAD
1000
MTEXTBEGIN
1070
    73
1070
     1
1070
    44
1040
1.0
1070
    74
1070
     0
1000
MTEXTEND
1000
ACAD_MTEXT_DEFINED_HEIGHT_BEGIN
1070
    46
1040
5.395147572682731
1000
ACAD_MTEXT_DEFINED_HEIGHT_END
  0
LWPOLYLINE
  5
25C5
330
1F
100
AcDbEntity
  8
SOLBET_Ramka_05
100
AcDbPolyline
 90
        4
 70
     1
 43
0.0
 10
296.9190311199197
 20
9.804221198935465
 10
333.0352080073419
 20
9.804221198935465
 10
333.0352080073419
 20
0.0
 10
296.9190311199198
 20
0.0
  0
ENDSEC
  0
SECTION
  2
OBJECTS
  0
DICTIONARY
  5
C
330
0
100
AcDbDictionary
281
     1
  3
ACAD_COLOR
350
6B
  3
ACAD_GROUP
350
D
  3
ACAD_LAYOUT
350
1A
  3
ACAD_MATERIAL
350
6A
  3
ACAD_MLEADERSTYLE
350
12D
  3
ACAD_MLINESTYLE
350
17
  3
ACAD_PLOTSETTINGS
350
19
  3
ACAD_PLOTSTYLENAME
350
E
  3
ACAD_SCALELIST
350
10C
  3
ACAD_TABLESTYLE
350
7E
  3
ACAD_VISUALSTYLE
350
EF
  3
ACDB_RECOMPOSE_DATA
350
15D
  3
AcDbVariableDictionary
350
5E
  3
DWGPROPS
350
25F5
  0
DICTIONARY
  5
443
330
8
100
AcDbDictionary
280
     1
281
     1
  0
DICTIONARY
  5
3E5
330
2
100
AcDbDictionary
280
     1
281
     1
  3
ACAD_LAYERFILTERS
360
2210
  3
ACLYDICTIONARY
360
220F
  0
DICTIONARY
  5
13C
330
10
100
AcDbDictionary
280
     1
281
     1
  3
ADSK_XREC_LAYER_RECONCILED
360
3F4
  0
DICTIONARY
  5
403
330
3DD
100
AcDbDictionary
280
     1
281
     1
  3
ADSK_XREC_LAYER_RECONCILED
360
404
  0
DICTIONARY
  5
405
330
3DF
100
AcDbDictionary
280
     1
281
     1
  3
ADSK_XREC_LAYER_RECONCILED
360
406
  0
DICTIONARY
  5
409
330
3E1
100
AcDbDictionary
280
     1
281
     1
  3
ADSK_XREC_LAYER_RECONCILED
360
40A
  0
DICTIONARY
  5
40B
330
3E2
100
AcDbDictionary
280
     1
281
     1
  3
ADSK_XREC_LAYER_RECONCILED
360
40C
  0
DICTIONARY
  5
40F
330
3E4
100
AcDbDictionary
280
     1
281
     1
  3
ADSK_XREC_LAYER_RECONCILED
360
410
  0
DICTIONARY
  5
411
330
3E8
100
AcDbDictionary
280
     1
281
     1
  3
ADSK_XREC_LAYER_RECONCILED
360
412
  0
DICTIONARY
  5
24EA
330
24E9
100
AcDbDictionary
280
     1
281
     1
  3
ASDK_XREC_ANNO_SCALE_INFO
360
24EB
  0
DICTIONARY
  5
4A3
330
1F
100
AcDbDictionary
280
     1
281
     1
  3
ACAD_SORTENTS
360
4A4
  0
DICTIONARY
  5
221F
330
2213
100
AcDbDictionary
280
     1
281
     1
  3
ACAD_SORTENTS
360
2220
  0
DICTIONARY
  5
2240
330
2232
100
AcDbDictionary
280
     1
281
     1
  3
ACAD_SORTENTS
360
2241
  0
DICTIONARY
  5
2274
330
226A
100
AcDbDictionary
280
     1
281
     1
  3
ACAD_SORTENTS
360
2275
  0
DICTIONARY
  5
23C9
330
23BD
100
AcDbDictionary
280
     1
281
     1
  3
ACAD_SORTENTS
360
23CA
  0
DICTIONARY
  5
255A
330
254C
100
AcDbDictionary
280
     1
281
     1
  3
ACAD_SORTENTS
360
255B
  0
DICTIONARY
  5
256B
330
2561
100
AcDbDictionary
280
     1
281
     1
  3
ACAD_SORTENTS
360
256C
  0
DICTIONARY
  5
257C
330
2570
100
AcDbDictionary
280
     1
281
     1
  3
ACAD_SORTENTS
360
257D
  0
DICTIONARY
  5
21EE
330
21ED
100
AcDbDictionary
280
     1
281
     1
  3
ACAD_MTEXT_RT
360
2602
  3
AcDbContextDataManager
360
21EF
  0
DICTIONARY
  5
2203
330
2202
100
AcDbDictionary
280
     1
281
     1
  3
ACAD_MTEXT_RT
360
2603
  3
AcDbContextDataManager
360
2204
  0
DICTIONARY
  5
2208
330
2207
100
AcDbDictionary
280
     1
281
     1
  3
ACAD_MTEXT_RT
360
2604
  3
AcDbContextDataManager
360
2209
  0
DICTIONARY
  5
2605
330
22A3
100
AcDbDictionary
280
     1
281
     1
  3
ACAD_XREC_ROUNDTRIP
360
2606
  0
DICTIONARY
  5
2607
330
22C6
100
AcDbDictionary
280
     1
281
     1
  3
ACAD_MTEXT_RT
360
2608
  0
DICTIONARY
  5
2609
330
22C8
100
AcDbDictionary
280
     1
281
     1
  3
ACAD_MTEXT_RT
360
260A
  0
DICTIONARY
  5
260B
330
22CA
100
AcDbDictionary
280
     1
281
     1
  3
ACAD_MTEXT_RT
360
260C
  0
DICTIONARY
  5
260D
330
22CD
100
AcDbDictionary
280
     1
281
     1
  3
ACAD_MTEXT_RT
360
260E
  0
DICTIONARY
  5
260F
330
22CE
100
AcDbDictionary
280
     1
281
     1
  3
ACAD_MTEXT_RT
360
2610
  0
DICTIONARY
  5
25C3
330
25C2
100
AcDbDictionary
280
     1
281
     1
  3
ACAD_MTEXT_2008_RT
360
25C4
  0
DICTIONARY
  5
6B
102
{ACAD_REACTORS
330
C
102
}
330
C
100
AcDbDictionary
281
     1
  0
DICTIONARY
  5
D
102
{ACAD_REACTORS
330
C
102
}
330
C
100
AcDbDictionary
281
     1
  0
DICTIONARY
  5
1A
102
{ACAD_REACTORS
330
C
102
}
330
C
100
AcDbDictionary
281
     1
  3
Arkusz1
350
D3
  3
Arkusz2
350
D7
  3
Model
350
22
  0
DICTIONARY
  5
6A
102
{ACAD_REACTORS
330
C
102
}
330
C
100
AcDbDictionary
281
     1
  3
ByBlock
350
ED
  3
ByLayer
350
EC
  3
Global
350
EE
  0
DICTIONARY
  5
12D
102
{ACAD_REACTORS
330
C
102
}
330
C
100
AcDbDictionary
281
     1
  3
Standard
350
12E
  0
DICTIONARY
  5
17
102
{ACAD_REACTORS
330
C
102
}
330
C
100
AcDbDictionary
281
     1
  3
SOLBET_IZOLACJA
350
7E9
  3
Standard
350
18
  0
DICTIONARY
  5
19
102
{ACAD_REACTORS
330
C
102
}
330
C
100
AcDbDictionary
281
     1
  0
ACDBDICTIONARYWDFLT
  5
E
102
{ACAD_REACTORS
330
C
102
}
330
C
100
AcDbDictionary
281
     1
  3
Normal
350
F
100
AcDbDictionaryWithDefault
340
F
  0
DICTIONARY
  5
10C
102
{ACAD_REACTORS
330
C
102
}
330
C
100
AcDbDictionary
281
     1
  3
A0
350
10D
  3
A1
350
188
  3
A2
350
189
  3
A3
350
18A
  3
A4
350
18B
  3
A5
350
18C
  3
A6
350
18D
  3
A7
350
18E
  3
A8
350
18F
  3
A9
350
190
  3
B0
350
191
  3
B1
350
192
  3
B2
350
193
  3
B3
350
194
  3
B4
350
195
  3
B5
350
196
  3
B6
350
197
  3
B7
350
198
  3
B8
350
199
  3
B9
350
19A
  3
C0
350
19B
  3
C1
350
19C
  3
C2
350
19D
  3
C3
350
19E
  3
C4
350
19F
  3
C5
350
1A0
  3
C6
350
1A1
  3
C7
350
1A2
  3
C8
350
1A3
  3
C9
350
1A4
  3
D0
350
1A5
  3
D1
350
1A6
  3
D2
350
1A7
  0
DICTIONARY
  5
7E
102
{ACAD_REACTORS
330
C
102
}
330
C
100
AcDbDictionary
281
     1
  3
Standard
350
7F
  0
DICTIONARY
  5
EF
102
{ACAD_REACTORS
330
C
102
}
330
C
100
AcDbDictionary
281
     1
  3
2dWireframe
350
F5
  3
3D Hidden
350
F7
  3
3dWireframe
350
F6
  3
Basic
350
F4
  3
Brighten
350
FB
  3
ColorChange
350
FF
  3
Conceptual
350
F8
  3
Dim
350
FA
  3
Facepattern
350
FE
  3
Flat
350
F0
  3
FlatWithEdges
350
F1
  3
Gouraud
350
F2
  3
GouraudWithEdges
350
F3
  3
Linepattern
350
FD
  3
Realistic
350
F9
  3
Thicken
350
FC
  0
XRECORD
  5
15D
102
{ACAD_REACTORS
330
C
102
}
330
C
100
AcDbXrecord
280
     1
 90
        1
330
7F
330
21ED
330
2202
330
2207
  0
DICTIONARY
  5
5E
102
{ACAD_REACTORS
330
C
102
}
330
C
100
AcDbDictionary
281
     1
  3
CANNOSCALE
350
146
  3
CMLEADERSTYLE
350
145
  3
CTABLESTYLE
350
84
  3
DIMASSOC
350
5F
  3
HIDETEXT
350
63
  3
INDEXCTL
350
466
  3
LIGHTINGUNITS
350
464
  3
MSLTSCALE
350
463
  3
PSOLHEIGHT
350
25F4
  3
PSOLWIDTH
350
25F3
  3
SORTENTS
350
465
  0
XRECORD
  5
25F5
102
{ACAD_REACTORS
330
C
102
}
330
C
100
AcDbXrecord
280
     1
  1
DWGPROPS COOKIE
  2

  3

  4

  6

  7

  8
Olus
  9

300
=
301
=
302
=
303
=
304
=
305
=
306
=
307
=
308
=
309
=
 40
0.4524916203703704
 41
2454690.075573148
 42
2454848.879871146
  1

 90
        0
  0
DICTIONARY
  5
2210
102
{ACAD_REACTORS
330
3E5
102
}
330
3E5
100
AcDbDictionary
281
     1
  0
DICTIONARY
  5
220F
102
{ACAD_REACTORS
330
3E5
102
}
330
3E5
100
AcDbDictionary
281
     1
1001
ACAD
1000
<All
  0
XRECORD
  5
3F4
102
{ACAD_REACTORS
330
13C
102
}
330
13C
100
AcDbXrecord
280
     1
290
     1
  0
XRECORD
  5
404
102
{ACAD_REACTORS
330
403
102
}
330
403
100
AcDbXrecord
280
     1
290
     1
  0
XRECORD
  5
406
102
{ACAD_REACTORS
330
405
102
}
330
405
100
AcDbXrecord
280
     1
290
     1
  0
XRECORD
  5
40A
102
{ACAD_REACTORS
330
409
102
}
330
409
100
AcDbXrecord
280
     1
290
     1
  0
XRECORD
  5
40C
102
{ACAD_REACTORS
330
40B
102
}
330
40B
100
AcDbXrecord
280
     1
290
     1
  0
XRECORD
  5
410
102
{ACAD_REACTORS
330
40F
102
}
330
40F
100
AcDbXrecord
280
     1
290
     1
  0
XRECORD
  5
412
102
{ACAD_REACTORS
330
411
102
}
330
411
100
AcDbXrecord
280
     1
290
     1
  0
XRECORD
  5
24EB
102
{ACAD_REACTORS
330
24EA
102
}
330
24EA
100
AcDbXrecord
280
     1
 70
     1
340
10D
340
3DF
 70
    -1
  0
SORTENTSTABLE
  5
4A4
102
{ACAD_REACTORS
330
4A3
102
}
330
4A3
100
AcDbSortentsTable
330
1F
331
2149
  5
2148
331
22A1
  5
2264
331
21D8
  5
21E6
331
225D
  5
2268
331
21B4
  5
21B0
331
2190
  5
218F
331
22CC
  5
22D0
331
219F
  5
22A7
331
22A8
  5
22A0
331
2183
  5
2182
331
214A
  5
2149
331
225E
  5
22A5
331
21B5
  5
21B1
331
2381
  5
2371
331
21C4
  5
21C1
331
2191
  5
2190
331
22CD
  5
22D1
331
22A3
  5
2161
331
225F
  5
22A6
331
21B6
  5
21B2
331
21C5
  5
21C2
331
22CE
  5
22D2
331
2260
  5
2202
331
21B7
  5
21B3
331
21C6
  5
21C3
331
22C2
  5
22C6
331
2171
  5
216C
331
22A5
  5
2279
331
214D
  5
2269
331
2261
  5
2207
331
21B8
  5
21B4
331
21C7
  5
21C6
331
21A3
  5
21A0
331
2178
  5
2177
331
236F
  5
2370
331
2187
  5
2186
331
2268
  5
2255
331
22C3
  5
22C7
331
2163
  5
2163
331
2202
  5
21E9
331
22A6
  5
227E
331
2262
  5
2223
331
21B9
  5
21B5
331
2179
  5
2178
331
2188
  5
2187
331
22C4
  5
22C8
331
2269
  5
2256
331
22A7
  5
229F
331
2263
  5
2226
331
2196
  5
2195
331
217A
  5
2179
331
22D2
  5
22C5
331
2189
  5
2188
331
2371
  5
2367
331
2165
  5
2165
331
22C5
  5
22C9
331
21D0
  5
21CD
331
2150
  5
214E
331
2264
  5
2229
331
2197
  5
2196
331
217B
  5
217A
331
218A
  5
2189
331
22C6
  5
22CA
331
2175
  5
2174
331
21D1
  5
21CE
331
2151
  5
214F
331
2256
  5
2267
331
2265
  5
222C
331
21CB
  5
21C7
331
2198
  5
2197
331
21A7
  5
21A4
331
218B
  5
218A
331
22C7
  5
22CC
331
2176
  5
2175
331
21D2
  5
21CF
331
2266
  5
222F
331
2199
  5
2198
331
21CC
  5
21CB
331
218C
  5
218B
331
2159
  5
2157
331
2207
  5
21EC
331
2177
  5
2176
331
227C
  5
2263
331
21D3
  5
21D0
331
2267
  5
2244
331
21A9
  5
21A6
331
218D
  5
218C
331
21D4
  5
21D1
331
219B
  5
2381
331
22C8
  5
22CD
331
218E
  5
218D
331
216A
  5
2278
331
2155
  5
2153
331
21D5
  5
21D2
331
21EC
  5
21E7
331
21CF
  5
21CC
331
219C
  5
219A
331
22C9
  5
22CE
331
21AB
  5
21A8
331
218F
  5
218E
331
216B
  5
216A
331
21D6
  5
21D3
331
21ED
  5
21E8
331
21C1
  5
21BE
331
22CA
  5
22CF
331
21AC
  5
22A8
331
2181
  5
2180
331
216C
  5
216B
331
2148
  5
2380
331
2157
  5
2155
331
21D7
  5
21D4
331
21B3
  5
21AF
331
21C2
  5
21C0
331
237F
  5
2378
331
2182
  5
2181
331
21AD
  5
21A9
  0
SORTENTSTABLE
  5
2220
102
{ACAD_REACTORS
330
221F
102
}
330
221F
100
AcDbSortentsTable
330
2213
  0
SORTENTSTABLE
  5
2241
102
{ACAD_REACTORS
330
2240
102
}
330
2240
100
AcDbSortentsTable
330
2232
  0
SORTENTSTABLE
  5
2275
102
{ACAD_REACTORS
330
2274
102
}
330
2274
100
AcDbSortentsTable
330
226A
  0
SORTENTSTABLE
  5
23CA
102
{ACAD_REACTORS
330
23C9
102
}
330
23C9
100
AcDbSortentsTable
330
23BD
  0
SORTENTSTABLE
  5
255B
102
{ACAD_REACTORS
330
255A
102
}
330
255A
100
AcDbSortentsTable
330
254C
  0
SORTENTSTABLE
  5
256C
102
{ACAD_REACTORS
330
256B
102
}
330
256B
100
AcDbSortentsTable
330
2561
  0
SORTENTSTABLE
  5
257D
102
{ACAD_REACTORS
330
257C
102
}
330
257C
100
AcDbSortentsTable
330
2570
  0
XRECORD
  5
2602
102
{ACAD_REACTORS
330
21EE
102
}
330
21EE
100
AcDbXrecord
280
     1
 40
338045.0
  1
{\LDETAL 69\P}Oparcie stropu na belkach drewnianych na ścianie jednowarstwowej
  0
DICTIONARY
  5
21EF
102
{ACAD_REACTORS
330
21EE
102
}
330
21EE
100
AcDbDictionary
281
     1
  3
ACDB_ANNOTATIONSCALES
350
21F0
  0
XRECORD
  5
2603
102
{ACAD_REACTORS
330
2203
102
}
330
2203
100
AcDbXrecord
280
     1
 40
297666.0
  1
Na ścianie zewnętrznej\Pprostopadłej do kierunku oparcia belek
  0
DICTIONARY
  5
2204
102
{ACAD_REACTORS
330
2203
102
}
330
2203
100
AcDbDictionary
281
     1
  3
ACDB_ANNOTATIONSCALES
350
2205
  0
XRECORD
  5
2604
102
{ACAD_REACTORS
330
2208
102
}
330
2208
100
AcDbXrecord
280
     1
 40
325626.0
  1
Na ścianie zewnętrznej\Prównoległej do kierunku oparcia belek
  0
DICTIONARY
  5
2209
102
{ACAD_REACTORS
330
2208
102
}
330
2208
100
AcDbDictionary
281
     1
  3
ACDB_ANNOTATIONSCALES
350
220A
  0
XRECORD
  5
2606
102
{ACAD_REACTORS
330
2605
102
}
330
2605
100
AcDbXrecord
280
     1
102
Gradient1
1004
7B0000000200000001000000000000000000000000000000000000000000000001000000000000000000F03F0200000000000000000000001800000001000000FFFFFFC2000000000000000000000000000000000000F03F1800000001000000FFFFFFC2000000000000000000000000070000004C494E45415200
  0
XRECORD
  5
2608
102
{ACAD_REACTORS
330
2607
102
}
330
2607
100
AcDbXrecord
280
     1
 40
14518.0
  1
Płytka SOLBET
  0
XRECORD
  5
260A
102
{ACAD_REACTORS
330
2609
102
}
330
2609
100
AcDbXrecord
280
     1
 40
18235.0
  1
Blacha mocująca
  0
XRECORD
  5
260C
102
{ACAD_REACTORS
330
260B
102
}
330
260B
100
AcDbXrecord
280
     1
 40
97996.0
  1
Wieniec opuszczony\Pw kształtkach U SOLBET
  0
XRECORD
  5
260E
102
{ACAD_REACTORS
330
260D
102
}
330
260D
100
AcDbXrecord
280
     1
 40
97996.0
  1
Wieniec opuszczony\Pw kształtkach U SOLBET
  0
XRECORD
  5
2610
102
{ACAD_REACTORS
330
260F
102
}
330
260F
100
AcDbXrecord
280
     1
 40
197601.0
  1
Przekrój przez gniazdo\Pw którym umocowana jest belka
  0
XRECORD
  5
25C4
102
{ACAD_REACTORS
330
25C3
102
}
330
25C3
100
AcDbXrecord
280
     1
 40
24748.0
  1
\pxqc;C\P(5 : 1)
  0
LAYOUT
  5
D3
102
{ACAD_XDICTIONARY
360
25F9
102
}
102
{ACAD_REACTORS
330
1A
102
}
330
1A
100
AcDbPlotSettings
  1

  2
C:\Documents and Settings\basas\Application Data\Autodesk\AutoCAD 2005\R16.1\enu\plotters\Default Windows System Printer.pc3
  4

  6

 40
0.0
 41
0.0
 42
0.0
 43
0.0
 44
0.0
 45
0.0
 46
0.0
 47
0.0
 48
0.0
 49
0.0
140
0.0
141
0.0
142
1.0
143
1.0
 70
   688
 72
     0
 73
     0
 74
     5
  7

 75
    16
147
1.0
148
0.0
149
0.0
100
AcDbLayout
  1
Arkusz1
 70
     1
 71
     1
 10
0.0
 20
0.0
 11
12.0
 21
9.0
 12
0.0
 22
0.0
 32
0.0
 14
0.0
 24
0.0
 34
0.0
 15
0.0
 25
0.0
 35
0.0
146
0.0
 13
0.0
 23
0.0
 33
0.0
 16
1.0
 26
0.0
 36
0.0
 17
0.0
 27
1.0
 37
0.0
 76
     0
330
D2
  0
LAYOUT
  5
D7
102
{ACAD_XDICTIONARY
360
25FB
102
}
102
{ACAD_REACTORS
330
1A
102
}
330
1A
100
AcDbPlotSettings
  1

  2
C:\Documents and Settings\basas\Application Data\Autodesk\AutoCAD 2005\R16.1\enu\plotters\Default Windows System Printer.pc3
  4

  6

 40
0.0
 41
0.0
 42
0.0
 43
0.0
 44
0.0
 45
0.0
 46
0.0
 47
0.0
 48
0.0
 49
0.0
140
0.0
141
0.0
142
1.0
143
1.0
 70
   688
 72
     0
 73
     0
 74
     5
  7

 75
    16
147
1.0
148
0.0
149
0.0
100
AcDbLayout
  1
Arkusz2
 70
     1
 71
     2
 10
0.0
 20
0.0
 11
12.0
 21
9.0
 12
0.0
 22
0.0
 32
0.0
 14
0.0
 24
0.0
 34
0.0
 15
0.0
 25
0.0
 35
0.0
146
0.0
 13
0.0
 23
0.0
 33
0.0
 16
1.0
 26
0.0
 36
0.0
 17
0.0
 27
1.0
 37
0.0
 76
     0
330
D6
  0
LAYOUT
  5
22
102
{ACAD_XDICTIONARY
360
25F6
102
}
102
{ACAD_REACTORS
330
1A
102
}
330
1A
100
AcDbPlotSettings
  1

  2
none_device
  4
Letter_(8.50_x_11.00_Inches)
  6

 40
6.349999904632568
 41
6.349999904632568
 42
6.350006103515625
 43
6.350006103515625
 44
215.8999938964844
 45
279.3999938964844
 46
11.54999923706054
 47
-13.65000009536743
 48
0.0
 49
0.0
140
210.0
141
297.0
142
1.0
143
1.0
 70
 11936
 72
     1
 73
     0
 74
     4
  7

 75
     0
147
0.9999999999999998
148
0.0
149
0.0
100
AcDbLayout
  1
Model
 70
     1
 71
     0
 10
0.0
 20
0.0
 11
12.0
 21
9.0
 12
0.0
 22
0.0
 32
0.0
 14
0.0
 24
0.0
 34
0.0
 15
0.0
 25
0.0
 35
0.0
146
0.0
 13
0.0
 23
0.0
 33
0.0
 16
1.0
 26
0.0
 36
0.0
 17
0.0
 27
1.0
 37
0.0
 76
     0
330
1F
331
EA
1001
ACAD_PSEXT
1000
Brak
1000
Brak
1000
Nie można zastosować.
1000
Arkusz nie zostanie wydrukowany dopóki nie wybrano konfiguracji plotera.
1070
     0
  0
MATERIAL
  5
ED
102
{ACAD_XDICTIONARY
360
25FF
102
}
102
{ACAD_REACTORS
330
6A
102
}
330
6A
100
AcDbMaterial
  1
ByBlock
 73
     2
 78
     2
172
     2
176
     2
270
     2
274
     2
  0
MATERIAL
  5
EC
102
{ACAD_XDICTIONARY
360
25FD
102
}
102
{ACAD_REACTORS
330
6A
102
}
330
6A
100
AcDbMaterial
  1
ByLayer
 73
     2
 78
     2
172
     2
176
     2
270
     2
274
     2
  0
MATERIAL
  5
EE
102
{ACAD_XDICTIONARY
360
173
102
}
102
{ACAD_REACTORS
330
6A
102
}
330
6A
100
AcDbMaterial
  1
Global
 73
     2
 43
0.0007999999797903
 43
0.0
 43
0.0
 43
0.0
 43
0.0
 43
0.0007999999797903
 43
0.0
 43
0.0
 43
0.0
 43
0.0
 43
1.0
 43
0.0
 43
0.0
 43
0.0
 43
0.0
 43
1.0
 78
     2
172
     2
 49
0.0007999999797903
 49
0.0
 49
0.0
 49
0.0
 49
0.0
 49
0.0007999999797903
 49
0.0
 49
0.0
 49
0.0
 49
0.0
 49
1.0
 49
0.0
 49
0.0
 49
0.0
 49
0.0
 49
1.0
176
     2
142
0.0007999999797903
142
0.0
142
0.0
142
0.0
142
0.0
142
0.0007999999797903
142
0.0
142
0.0
142
0.0
142
0.0
142
1.0
142
0.0
142
0.0
142
0.0
142
0.0
142
1.0
270
     2
144
0.0007999999797903
144
0.0
144
0.0
144
0.0
144
0.0
144
0.0007999999797903
144
0.0
144
0.0
144
0.0
144
0.0
144
1.0
144
0.0
144
0.0
144
0.0
144
0.0
144
1.0
274
     2
1001
ACAD
1070
    -1
1070
     3
1070
     0
1000

1071
        0
1070
     0
  0
ACAD_PROXY_OBJECT
  5
12E
102
{ACAD_REACTORS
330
12D
102
}
330
12D
100
AcDbProxyObject
 90
      499
 91
      508
 95
       23
 70
     0
 93
      618
310
40901902A4063FBFFFFFE0000000000000020400000000000020404254DD185B99185C99000000000000000104090140501A0000000000000410000000000000004102576400000000000003903F
340
14
340
0
340
11
340
0
 94
        0
1001
ACAD_MLEADERVER
1070
     2
1001
ACAD
1000
AcRTDxfName
1000
MLEADERSTYLE
1000
AcRTDxfName
1000
MLEADERSTYLE
  0
MLINESTYLE
  5
7E9
102
{ACAD_REACTORS
330
17
102
}
330
17
100
AcDbMlineStyle
  2
SOLBET_IZOLACJA
 70
   272
  3

 62
   256
 51
90.0
 52
90.0
 71
     2
 49
0.008
 62
   256
  6
BYLAYER
 49
-0.008
 62
   256
  6
BYLAYER
  0
MLINESTYLE
  5
18
102
{ACAD_REACTORS
330
17
102
}
330
17
100
AcDbMlineStyle
  2
STANDARD
 70
     0
  3

 62
   256
 51
90.0
 52
90.0
 71
     2
 49
0.5
 62
   256
  6
BYLAYER
 49
-0.5
 62
   256
  6
BYLAYER
  0
ACDBPLACEHOLDER
  5
F
102
{ACAD_REACTORS
330
E
102
}
330
E
  0
ACAD_PROXY_OBJECT
  5
10D
102
{ACAD_REACTORS
330
10C
102
}
330
10C
100
AcDbProxyObject
 90
      499
 91
      507
 95
       23
 70
     0
 93
       49
310
904313A31005FF
 94
        0
1001
ACAD
1000
AcRTDxfName
1000
SCALE
1000
AcRTDxfName
1000
SCALE
  0
ACAD_PROXY_OBJECT
  5
188
102
{ACAD_REACTORS
330
10C
102
}
330
10C
100
AcDbProxyObject
 90
      499
 91
      507
 95
       23
 70
     0
 93
      113
310
904313A3200400000000000000407F
 94
        0
1001
ACAD
1000
AcRTDxfName
1000
SCALE
1000
AcRTDxfName
1000
SCALE
  0
ACAD_PROXY_OBJECT
  5
189
102
{ACAD_REACTORS
330
10C
102
}
330
10C
100
AcDbProxyObject
 90
      499
 91
      507
 95
       23
 70
     0
 93
      113
310
904313A3400400000000000010407F
 94
        0
1001
ACAD
1000
AcRTDxfName
1000
SCALE
1000
AcRTDxfName
1000
SCALE
  0
ACAD_PROXY_OBJECT
  5
18A
102
{ACAD_REACTORS
330
10C
102
}
330
10C
100
AcDbProxyObject
 90
      499
 91
      507
 95
       23
 70
     0
 93
      113
310
904313A3500400000000000014407F
 94
        0
1001
ACAD
1000
AcRTDxfName
1000
SCALE
1000
AcRTDxfName
1000
SCALE
  0
ACAD_PROXY_OBJECT
  5
18B
102
{ACAD_REACTORS
330
10C
102
}
330
10C
100
AcDbProxyObject
 90
      499
 91
      507
 95
       23
 70
     0
 93
      113
310
904313A3800400000000000020407F
 94
        0
1001
ACAD
1000
AcRTDxfName
1000
SCALE
1000
AcRTDxfName
1000
SCALE
  0
ACAD_PROXY_OBJECT
  5
18C
102
{ACAD_REACTORS
330
10C
102
}
330
10C
100
AcDbProxyObject
 90
      499
 91
      507
 95
       23
 70
     0
 93
      121
310
905313A313000400000000000024407F
 94
        0
1001
ACAD
1000
AcRTDxfName
1000
SCALE
1000
AcRTDxfName
1000
SCALE
  0
ACAD_PROXY_OBJECT
  5
18D
102
{ACAD_REACTORS
330
10C
102
}
330
10C
100
AcDbProxyObject
 90
      499
 91
      507
 95
       23
 70
     0
 93
      121
310
905313A313600400000000000030407F
 94
        0
1001
ACAD
1000
AcRTDxfName
1000
SCALE
1000
AcRTDxfName
1000
SCALE
  0
ACAD_PROXY_OBJECT
  5
18E
102
{ACAD_REACTORS
330
10C
102
}
330
10C
100
AcDbProxyObject
 90
      499
 91
      507
 95
       23
 70
     0
 93
      121
310
905313A323000400000000000034407F
 94
        0
1001
ACAD
1000
AcRTDxfName
1000
SCALE
1000
AcRTDxfName
1000
SCALE
  0
ACAD_PROXY_OBJECT
  5
18F
102
{ACAD_REACTORS
330
10C
102
}
330
10C
100
AcDbProxyObject
 90
      499
 91
      507
 95
       23
 70
     0
 93
      121
310
905313A33300040000000000003E407F
 94
        0
1001
ACAD
1000
AcRTDxfName
1000
SCALE
1000
AcRTDxfName
1000
SCALE
  0
ACAD_PROXY_OBJECT
  5
190
102
{ACAD_REACTORS
330
10C
102
}
330
10C
100
AcDbProxyObject
 90
      499
 91
      507
 95
       23
 70
     0
 93
      121
310
905313A343000400000000000044407F
 94
        0
1001
ACAD
1000
AcRTDxfName
1000
SCALE
1000
AcRTDxfName
1000
SCALE
  0
ACAD_PROXY_OBJECT
  5
191
102
{ACAD_REACTORS
330
10C
102
}
330
10C
100
AcDbProxyObject
 90
      499
 91
      507
 95
       23
 70
     0
 93
      121
310
905313A353000400000000000049407F
 94
        0
1001
ACAD
1000
AcRTDxfName
1000
SCALE
1000
AcRTDxfName
1000
SCALE
  0
ACAD_PROXY_OBJECT
  5
192
102
{ACAD_REACTORS
330
10C
102
}
330
10C
100
AcDbProxyObject
 90
      499
 91
      507
 95
       23
 70
     0
 93
      129
310
906313A31303000400000000000059407F
 94
        0
1001
ACAD
1000
AcRTDxfName
1000
SCALE
1000
AcRTDxfName
1000
SCALE
  0
ACAD_PROXY_OBJECT
  5
193
102
{ACAD_REACTORS
330
10C
102
}
330
10C
100
AcDbProxyObject
 90
      499
 91
      507
 95
       23
 70
     0
 93
      113
310
904323A3100000000000000001017F
 94
        0
1001
ACAD
1000
AcRTDxfName
1000
SCALE
1000
AcRTDxfName
1000
SCALE
  0
ACAD_PROXY_OBJECT
  5
194
102
{ACAD_REACTORS
330
10C
102
}
330
10C
100
AcDbProxyObject
 90
      499
 91
      507
 95
       23
 70
     0
 93
      113
310
904343A3100000000000000041017F
 94
        0
1001
ACAD
1000
AcRTDxfName
1000
SCALE
1000
AcRTDxfName
1000
SCALE
  0
ACAD_PROXY_OBJECT
  5
195
102
{ACAD_REACTORS
330
10C
102
}
330
10C
100
AcDbProxyObject
 90
      499
 91
      507
 95
       23
 70
     0
 93
      113
310
904383A3100000000000000081017F
 94
        0
1001
ACAD
1000
AcRTDxfName
1000
SCALE
1000
AcRTDxfName
1000
SCALE
  0
ACAD_PROXY_OBJECT
  5
196
102
{ACAD_REACTORS
330
10C
102
}
330
10C
100
AcDbProxyObject
 90
      499
 91
      507
 95
       23
 70
     0
 93
      121
310
90531303A3100000000000000091017F
 94
        0
1001
ACAD
1000
AcRTDxfName
1000
SCALE
1000
AcRTDxfName
1000
SCALE
  0
ACAD_PROXY_OBJECT
  5
197
102
{ACAD_REACTORS
330
10C
102
}
330
10C
100
AcDbProxyObject
 90
      499
 91
      507
 95
       23
 70
     0
 93
      129
310
9063130303A3100000000000000165017F
 94
        0
1001
ACAD
1000
AcRTDxfName
1000
SCALE
1000
AcRTDxfName
1000
SCALE
  0
ACAD_PROXY_OBJECT
  5
198
102
{ACAD_REACTORS
330
10C
102
}
330
10C
100
AcDbProxyObject
 90
      499
 91
      507
 95
       23
 70
     0
 93
      265
310
90F312F31323822203D2031272D302200000000000000200FC00000000000028407F
 94
        0
1001
ACAD
1000
AcRTDxfName
1000
SCALE
1000
AcRTDxfName
1000
SCALE
  0
ACAD_PROXY_OBJECT
  5
199
102
{ACAD_REACTORS
330
10C
102
}
330
10C
100
AcDbProxyObject
 90
      499
 91
      507
 95
       23
 70
     0
 93
      257
310
90E312F363422203D2031272D302200000000000000240FC00000000000028407F
 94
        0
1001
ACAD
1000
AcRTDxfName
1000
SCALE
1000
AcRTDxfName
1000
SCALE
  0
ACAD_PROXY_OBJECT
  5
19A
102
{ACAD_REACTORS
330
10C
102
}
330
10C
100
AcDbProxyObject
 90
      499
 91
      507
 95
       23
 70
     0
 93
      257
310
90E312F333222203D2031272D302200000000000000280FC00000000000028407F
 94
        0
1001
ACAD
1000
AcRTDxfName
1000
SCALE
1000
AcRTDxfName
1000
SCALE
  0
ACAD_PROXY_OBJECT
  5
19B
102
{ACAD_REACTORS
330
10C
102
}
330
10C
100
AcDbProxyObject
 90
      499
 91
      507
 95
       23
 70
     0
 93
      257
310
90E312F313622203D2031272D3022000000000000002C0FC00000000000028407F
 94
        0
1001
ACAD
1000
AcRTDxfName
1000
SCALE
1000
AcRTDxfName
1000
SCALE
  0
ACAD_PROXY_OBJECT
  5
19C
102
{ACAD_REACTORS
330
10C
102
}
330
10C
100
AcDbProxyObject
 90
      499
 91
      507
 95
       23
 70
     0
 93
      257
310
90E332F333222203D2031272D3022000000000000002E0FC00000000000028407F
 94
        0
1001
ACAD
1000
AcRTDxfName
1000
SCALE
1000
AcRTDxfName
1000
SCALE
  0
ACAD_PROXY_OBJECT
  5
19D
102
{ACAD_REACTORS
330
10C
102
}
330
10C
100
AcDbProxyObject
 90
      499
 91
      507
 95
       23
 70
     0
 93
      249
310
90D312F3822203D2031272D302200000000000000300FC00000000000028407F
 94
        0
1001
ACAD
1000
AcRTDxfName
1000
SCALE
1000
AcRTDxfName
1000
SCALE
  0
ACAD_PROXY_OBJECT
  5
19E
102
{ACAD_REACTORS
330
10C
102
}
330
10C
100
AcDbProxyObject
 90
      499
 91
      507
 95
       23
 70
     0
 93
      257
310
90E332F313622203D2031272D302200000000000000320FC00000000000028407F
 94
        0
1001
ACAD
1000
AcRTDxfName
1000
SCALE
1000
AcRTDxfName
1000
SCALE
  0
ACAD_PROXY_OBJECT
  5
19F
102
{ACAD_REACTORS
330
10C
102
}
330
10C
100
AcDbProxyObject
 90
      499
 91
      507
 95
       23
 70
     0
 93
      249
310
90D312F3422203D2031272D302200000000000000340FC00000000000028407F
 94
        0
1001
ACAD
1000
AcRTDxfName
1000
SCALE
1000
AcRTDxfName
1000
SCALE
  0
ACAD_PROXY_OBJECT
  5
1A0
102
{ACAD_REACTORS
330
10C
102
}
330
10C
100
AcDbProxyObject
 90
      499
 91
      507
 95
       23
 70
     0
 93
      249
310
90D332F3822203D2031272D302200000000000000360FC00000000000028407F
 94
        0
1001
ACAD
1000
AcRTDxfName
1000
SCALE
1000
AcRTDxfName
1000
SCALE
  0
ACAD_PROXY_OBJECT
  5
1A1
102
{ACAD_REACTORS
330
10C
102
}
330
10C
100
AcDbProxyObject
 90
      499
 91
      507
 95
       23
 70
     0
 93
      249
310
90D312F3222203D2031272D302200000000000000380FC00000000000028407F
 94
        0
1001
ACAD
1000
AcRTDxfName
1000
SCALE
1000
AcRTDxfName
1000
SCALE
  0
ACAD_PROXY_OBJECT
  5
1A2
102
{ACAD_REACTORS
330
10C
102
}
330
10C
100
AcDbProxyObject
 90
      499
 91
      507
 95
       23
 70
     0
 93
      249
310
90D332F3422203D2031272D3022000000000000003A0FC00000000000028407F
 94
        0
1001
ACAD
1000
AcRTDxfName
1000
SCALE
1000
AcRTDxfName
1000
SCALE
  0
ACAD_PROXY_OBJECT
  5
1A3
102
{ACAD_REACTORS
330
10C
102
}
330
10C
100
AcDbProxyObject
 90
      499
 91
      507
 95
       23
 70
     0
 93
      169
310
90B3122203D2031272D302200400000000000028407F
 94
        0
1001
ACAD
1000
AcRTDxfName
1000
SCALE
1000
AcRTDxfName
1000
SCALE
  0
ACAD_PROXY_OBJECT
  5
1A4
102
{ACAD_REACTORS
330
10C
102
}
330
10C
100
AcDbProxyObject
 90
      499
 91
      507
 95
       23
 70
     0
 93
      265
310
90F312D312F3222203D2031272D3022000000000000003E0FC00000000000028407F
 94
        0
1001
ACAD
1000
AcRTDxfName
1000
SCALE
1000
AcRTDxfName
1000
SCALE
  0
ACAD_PROXY_OBJECT
  5
1A5
102
{ACAD_REACTORS
330
10C
102
}
330
10C
100
AcDbProxyObject
 90
      499
 91
      507
 95
       23
 70
     0
 93
      233
310
90B3322203D2031272D3022000000000000000210000000000000028407F
 94
        0
1001
ACAD
1000
AcRTDxfName
1000
SCALE
1000
AcRTDxfName
1000
SCALE
  0
ACAD_PROXY_OBJECT
  5
1A6
102
{ACAD_REACTORS
330
10C
102
}
330
10C
100
AcDbProxyObject
 90
      499
 91
      507
 95
       23
 70
     0
 93
      233
310
90B3622203D2031272D3022000000000000000610000000000000028407F
 94
        0
1001
ACAD
1000
AcRTDxfName
1000
SCALE
1000
AcRTDxfName
1000
SCALE
  0
ACAD_PROXY_OBJECT
  5
1A7
102
{ACAD_REACTORS
330
10C
102
}
330
10C
100
AcDbProxyObject
 90
      499
 91
      507
 95
       23
 70
     0
 93
      257
310
90E31272D3022203D2031272D3022000000000000000A10000000000000028407F
 94
        0
1001
ACAD
1000
AcRTDxfName
1000
SCALE
1000
AcRTDxfName
1000
SCALE
  0
TABLESTYLE
  5
7F
102
{ACAD_XDICTIONARY
360
162
102
}
102
{ACAD_REACTORS
330
7E
102
}
330
7E
100
AcDbTableStyle
  3
Standard
 70
     0
 71
     0
 40
1.5
 41
1.5
280
     0
281
     0
  7
Standard
140
4.5
170
     2
 62
     0
 63
     7
283
     0
274
    -2
284
     1
 64
     0
275
    -2
285
     1
 65
     0
276
    -2
286
     1
 66
     0
277
    -2
287
     1
 67
     0
278
    -2
288
     1
 68
     0
279
    -2
289
     1
 69
     0
  7
Standard
140
6.0
170
     5
 62
     0
 63
     7
283
     0
274
    -2
284
     1
 64
     0
275
    -2
285
     1
 65
     0
276
    -2
286
     1
 66
     0
277
    -2
287
     1
 67
     0
278
    -2
288
     1
 68
     0
279
    -2
289
     1
 69
     0
  7
Standard
140
4.5
170
     5
 62
     0
 63
     7
283
     0
274
    -2
284
     1
 64
     0
275
    -2
285
     1
 65
     0
276
    -2
286
     1
 66
     0
277
    -2
287
     1
 67
     0
278
    -2
288
     1
 68
     0
279
    -2
289
     1
 69
     0
  0
VISUALSTYLE
  5
F5
102
{ACAD_REACTORS
330
EF
102
}
330
EF
100
AcDbVisualStyle
  2
2dWireframe
 70
     4
 71
     0
 72
     2
 73
     1
 90
        0
 40
-0.6
 41
-30.0
 62
     5
 63
     7
 74
     1
 91
        4
 64
     7
 65
   257
 75
     1
175
     1
 42
1.0
 92
        0
 66
   257
 43
1.0
 76
     1
 77
     6
 78
     2
 67
     7
 79
     5
170
     0
171
     0
290
     0
174
     0
 93
        1
 44
0.0
173
     0
291
     0
 45
0.0
1001
ACAD
1000
AcDbSavedByObjectVersion
1070
     0
  0
VISUALSTYLE
  5
F7
102
{ACAD_REACTORS
330
EF
102
}
330
EF
100
AcDbVisualStyle
  2
3D Hidden
 70
     6
 71
     1
 72
     2
 73
     2
 90
        0
 40
-0.6
 41
-30.0
 62
     5
 63
     7
 74
     2
 91
        2
 64
     7
 65
   257
 75
     2
175
     1
 42
40.0
 92
        0
 66
   257
 43
1.0
 76
     1
 77
     6
 78
     2
 67
     7
 79
     3
170
     0
171
     0
290
     0
174
     0
 93
        1
 44
0.0
173
     0
291
     0
 45
0.0
1001
ACAD
1000
AcDbSavedByObjectVersion
1070
     0
  0
VISUALSTYLE
  5
F6
102
{ACAD_REACTORS
330
EF
102
}
330
EF
100
AcDbVisualStyle
  2
3dWireframe
 70
     5
 71
     0
 72
     2
 73
     1
 90
        0
 40
-0.6
 41
-30.0
 62
     5
 63
     7
 74
     1
 91
        4
 64
     7
 65
   257
 75
     1
175
     1
 42
1.0
 92
        0
 66
   257
 43
1.0
 76
     1
 77
     6
 78
     2
 67
     7
 79
     5
170
     0
171
     0
290
     0
174
     0
 93
        1
 44
0.0
173
     0
291
     0
 45
0.0
1001
ACAD
1000
AcDbSavedByObjectVersion
1070
     0
  0
VISUALSTYLE
  5
F4
102
{ACAD_REACTORS
330
EF
102
}
330
EF
100
AcDbVisualStyle
  2
Basic
 70
     7
 71
     1
 72
     0
 73
     1
 90
        0
 40
-0.6
 41
-30.0
 62
     5
 63
     7
 74
     0
 91
        4
 64
     7
 65
   257
 75
     1
175
     1
 42
1.0
 92
        8
 66
     7
 43
1.0
 76
     1
 77
     6
 78
     2
 67
     7
 79
     5
170
     0
171
     0
290
     0
174
     0
 93
        1
 44
0.0
173
     0
291
     1
 45
0.0
1001
ACAD
1000
AcDbSavedByObjectVersion
1070
     0
  0
VISUALSTYLE
  5
FB
102
{ACAD_REACTORS
330
EF
102
}
330
EF
100
AcDbVisualStyle
  2
Brighten
 70
    12
 71
     2
 72
     2
 73
     1
 90
        0
 40
-0.6
 41
-30.0
 62
     5
 63
     7
 74
     1
 91
        4
 64
     7
 65
   257
 75
     1
175
     1
 42
1.0
 92
        8
 66
     7
 43
1.0
 76
     1
 77
     6
 78
     2
 67
     7
 79
     5
170
     0
171
     0
290
     0
174
     0
 93
        1
 44
50.0
173
     0
291
     1
 45
0.0
1001
ACAD
1000
AcDbSavedByObjectVersion
1070
     0
  0
VISUALSTYLE
  5
FF
102
{ACAD_REACTORS
330
EF
102
}
330
EF
100
AcDbVisualStyle
  2
ColorChange
 70
    16
 71
     2
 72
     2
 73
     3
 90
        0
 40
-0.6
 41
-30.0
 62
     5
 63
     8
 74
     1
 91
        4
 64
     7
 65
   257
 75
     1
175
     1
 42
1.0
 92
        8
 66
     8
 43
1.0
 76
     1
 77
     6
 78
     2
 67
     7
 79
     5
170
     0
171
     0
290
     0
174
     0
 93
        1
 44
0.0
173
     0
291
     1
 45
0.0
1001
ACAD
1000
AcDbSavedByObjectVersion
1070
     0
  0
VISUALSTYLE
  5
F8
102
{ACAD_REACTORS
330
EF
102
}
330
EF
100
AcDbVisualStyle
  2
Conceptual
 70
     9
 71
     3
 72
     2
 73
     1
 90
        0
 40
-0.6
 41
-30.0
 62
     5
 63
     7
 74
     2
 91
        2
 64
     7
 65
   257
 75
     1
175
     1
 42
40.0
 92
        8
 66
     7
 43
1.0
 76
     1
 77
     6
 78
     2
 67
     7
 79
     3
170
     0
171
     0
290
     0
174
     0
 93
        1
 44
0.0
173
     0
291
     0
 45
0.0
1001
ACAD
1000
AcDbSavedByObjectVersion
1070
     0
  0
VISUALSTYLE
  5
FA
102
{ACAD_REACTORS
330
EF
102
}
330
EF
100
AcDbVisualStyle
  2
Dim
 70
    11
 71
     2
 72
     2
 73
     1
 90
        0
 40
-0.6
 41
-30.0
 62
     5
 63
     7
 74
     1
 91
        4
 64
     7
 65
   257
 75
     1
175
     1
 42
1.0
 92
        8
 66
     7
 43
1.0
 76
     1
 77
     6
 78
     2
 67
     7
 79
     5
170
     0
171
     0
290
     0
174
     0
 93
        1
 44
-50.0
173
     0
291
     1
 45
0.0
1001
ACAD
1000
AcDbSavedByObjectVersion
1070
     0
  0
VISUALSTYLE
  5
FE
102
{ACAD_REACTORS
330
EF
102
}
330
EF
100
AcDbVisualStyle
  2
Facepattern
 70
    15
 71
     2
 72
     2
 73
     1
 90
        0
 40
-0.6
 41
-30.0
 62
     5
 63
     7
 74
     1
 91
        4
 64
     7
 65
   257
 75
     1
175
     1
 42
1.0
 92
        8
 66
     7
 43
1.0
 76
     1
 77
     6
 78
     2
 67
     7
 79
     5
170
     0
171
     0
290
     0
174
     0
 93
        1
 44
0.0
173
     0
291
     1
 45
0.0
1001
ACAD
1000
AcDbSavedByObjectVersion
1070
     0
  0
VISUALSTYLE
  5
F0
102
{ACAD_REACTORS
330
EF
102
}
330
EF
100
AcDbVisualStyle
  2
Flat
 70
     0
 71
     2
 72
     1
 73
     1
 90
        2
 40
-0.6
 41
30.0
 62
     5
 63
     7
 74
     0
 91
        4
 64
     7
 65
   257
 75
     1
175
     1
 42
1.0
 92
        8
 66
     7
 43
1.0
 76
     1
 77
     6
 78
     2
 67
     7
 79
     5
170
     0
171
     0
290
     0
174
     0
 93
        1
 44
0.0
173
     0
291
     1
 45
0.0
1001
ACAD
1000
AcDbSavedByObjectVersion
1070
     0
  0
VISUALSTYLE
  5
F1
102
{ACAD_REACTORS
330
EF
102
}
330
EF
100
AcDbVisualStyle
  2
FlatWithEdges
 70
     1
 71
     2
 72
     1
 73
     1
 90
        2
 40
-0.6
 41
30.0
 62
     5
 63
     7
 74
     1
 91
        4
 64
     7
 65
   257
 75
     1
175
     1
 42
1.0
 92
        0
 66
   257
 43
1.0
 76
     1
 77
     6
 78
     2
 67
     7
 79
     5
170
     0
171
     0
290
     0
174
     0
 93
        1
 44
0.0
173
     0
291
     1
 45
0.0
1001
ACAD
1000
AcDbSavedByObjectVersion
1070
     0
  0
VISUALSTYLE
  5
F2
102
{ACAD_REACTORS
330
EF
102
}
330
EF
100
AcDbVisualStyle
  2
Gouraud
 70
     2
 71
     2
 72
     2
 73
     1
 90
        2
 40
-0.6
 41
30.0
 62
     5
 63
     7
 74
     0
 91
        4
 64
     7
 65
   257
 75
     1
175
     1
 42
1.0
 92
        0
 66
     7
 43
1.0
 76
     1
 77
     6
 78
     2
 67
     7
 79
     5
170
     0
171
     0
290
     0
174
     0
 93
        1
 44
0.0
173
     0
291
     1
 45
0.0
1001
ACAD
1000
AcDbSavedByObjectVersion
1070
     0
  0
VISUALSTYLE
  5
F3
102
{ACAD_REACTORS
330
EF
102
}
330
EF
100
AcDbVisualStyle
  2
GouraudWithEdges
 70
     3
 71
     2
 72
     2
 73
     1
 90
        2
 40
-0.6
 41
30.0
 62
     5
 63
     7
 74
     1
 91
        4
 64
     7
 65
   257
 75
     1
175
     1
 42
1.0
 92
        0
 66
   257
 43
1.0
 76
     1
 77
     6
 78
     2
 67
     7
 79
     5
170
     0
171
     0
290
     0
174
     0
 93
        1
 44
0.0
173
     0
291
     1
 45
0.0
1001
ACAD
1000
AcDbSavedByObjectVersion
1070
     0
  0
VISUALSTYLE
  5
FD
102
{ACAD_REACTORS
330
EF
102
}
330
EF
100
AcDbVisualStyle
  2
Linepattern
 70
    14
 71
     2
 72
     2
 73
     1
 90
        0
 40
-0.6
 41
-30.0
 62
     5
 63
     7
 74
     1
 91
        4
 64
     7
 65
   257
 75
     7
175
     7
 42
1.0
 92
        8
 66
     7
 43
1.0
 76
     1
 77
     6
 78
     2
 67
     7
 79
     5
170
     0
171
     0
290
     0
174
     0
 93
        1
 44
0.0
173
     0
291
     1
 45
0.0
1001
ACAD
1000
AcDbSavedByObjectVersion
1070
     0
  0
VISUALSTYLE
  5
F9
102
{ACAD_REACTORS
330
EF
102
}
330
EF
100
AcDbVisualStyle
  2
Realistic
 70
     8
 71
     2
 72
     2
 73
     1
 90
        0
 40
-0.6
 41
-30.0
 62
     5
 63
     7
 74
     1
 91
        0
 64
     7
 65
   257
 75
     1
175
     1
 42
1.0
 92
        8
 66
     8
 43
1.0
 76
     1
 77
     6
 78
     2
 67
     7
 79
     5
170
     0
171
     0
290
     0
174
     0
 93
       13
 44
0.0
173
     0
291
     0
 45
0.0
1001
ACAD
1000
AcDbSavedByObjectVersion
1070
     0
  0
VISUALSTYLE
  5
FC
102
{ACAD_REACTORS
330
EF
102
}
330
EF
100
AcDbVisualStyle
  2
Thicken
 70
    13
 71
     2
 72
     2
 73
     1
 90
        0
 40
-0.6
 41
-30.0
 62
     5
 63
     7
 74
     1
 91
        4
 64
     7
 65
   257
 75
     1
175
     1
 42
1.0
 92
       12
 66
     7
 43
1.0
 76
     1
 77
     6
 78
     2
 67
     7
 79
     5
170
     0
171
     0
290
     0
174
     0
 93
        1
 44
0.0
173
     0
291
     1
 45
0.0
1001
ACAD
1000
AcDbSavedByObjectVersion
1070
     0
  0
DICTIONARYVAR
  5
146
102
{ACAD_REACTORS
330
5E
102
}
330
5E
100
DictionaryVariables
280
     0
  1
1:1
  0
DICTIONARYVAR
  5
145
102
{ACAD_REACTORS
330
5E
102
}
330
5E
100
DictionaryVariables
280
     0
  1
STANDARD
  0
DICTIONARYVAR
  5
84
102
{ACAD_REACTORS
330
5E
102
}
330
5E
100
DictionaryVariables
280
     0
  1
STANDARD
  0
DICTIONARYVAR
  5
5F
102
{ACAD_REACTORS
330
5E
102
}
330
5E
100
DictionaryVariables
280
     0
  1
2
  0
DICTIONARYVAR
  5
63
102
{ACAD_REACTORS
330
5E
102
}
330
5E
100
DictionaryVariables
280
     0
  1
1
  0
DICTIONARYVAR
  5
466
102
{ACAD_REACTORS
330
5E
102
}
330
5E
100
DictionaryVariables
280
     0
  1
0
  0
DICTIONARYVAR
  5
464
102
{ACAD_REACTORS
330
5E
102
}
330
5E
100
DictionaryVariables
280
     0
  1
2
  0
DICTIONARYVAR
  5
463
102
{ACAD_REACTORS
330
5E
102
}
330
5E
100
DictionaryVariables
280
     0
  1
1
  0
DICTIONARYVAR
  5
25F4
102
{ACAD_REACTORS
330
5E
102
}
330
5E
100
DictionaryVariables
280
     0
  1
80.000000
  0
DICTIONARYVAR
  5
25F3
102
{ACAD_REACTORS
330
5E
102
}
330
5E
100
DictionaryVariables
280
     0
  1
5.000000
  0
DICTIONARYVAR
  5
465
102
{ACAD_REACTORS
330
5E
102
}
330
5E
100
DictionaryVariables
280
     0
  1
127
  0
DICTIONARY
  5
21F0
102
{ACAD_REACTORS
330
21EF
102
}
330
21EF
100
AcDbDictionary
281
     1
  0
DICTIONARY
  5
2205
102
{ACAD_REACTORS
330
2204
102
}
330
2204
100
AcDbDictionary
281
     1
  0
DICTIONARY
  5
220A
102
{ACAD_REACTORS
330
2209
102
}
330
2209
100
AcDbDictionary
281
     1
  0
DICTIONARY
  5
25F9
330
D3
100
AcDbDictionary
280
     1
281
     1
  3
ACAD_XREC_ROUNDTRIP
360
25FA
  0
DICTIONARY
  5
25FB
330
D7
100
AcDbDictionary
280
     1
281
     1
  3
ACAD_XREC_ROUNDTRIP
360
25FC
  0
DICTIONARY
  5
25F6
330
22
100
AcDbDictionary
280
     1
281
     1
  3
ACAD_XREC_ROUNDTRIP
360
25F7
  0
DICTIONARY
  5
25FF
330
ED
100
AcDbDictionary
280
     1
281
     1
  3
ACAD_XREC_ROUNDTRIP
360
2600
  0
DICTIONARY
  5
25FD
330
EC
100
AcDbDictionary
280
     1
281
     1
  3
ACAD_XREC_ROUNDTRIP
360
25FE
  0
DICTIONARY
  5
173
330
EE
100
AcDbDictionary
280
     1
281
     1
  3
ACAD_XREC_ROUNDTRIP
360
2601
  3
BUMPTILE
360
175
  3
DIFFUSETILE
360
174
  3
OPACITYTILE
360
176
  3
REFLECTIONTILE
360
177
  0
DICTIONARY
  5
162
330
7F
100
AcDbDictionary
280
     1
281
     1
  3
ACAD_ROUNDTRIP_2008_TABLESTYLE_CELLSTYLEMAP
360
24E8
  3
ACAD_XREC_ROUNDTRIP
360
25F8
  0
XRECORD
  5
25FA
102
{ACAD_REACTORS
330
25F9
102
}
330
25F9
100
AcDbXrecord
280
     1
102
SHADEPLOT
 70
     0
102
SHADEPLOTRESLEVEL
 70
     2
102
SHADEPLOTCUSTOMDPI
 70
   300
  0
XRECORD
  5
25FC
102
{ACAD_REACTORS
330
25FB
102
}
330
25FB
100
AcDbXrecord
280
     1
102
SHADEPLOT
 70
     0
102
SHADEPLOTRESLEVEL
 70
     2
102
SHADEPLOTCUSTOMDPI
 70
   300
  0
XRECORD
  5
25F7
102
{ACAD_REACTORS
330
25F6
102
}
330
25F6
100
AcDbXrecord
280
     1
102
SHADEPLOT
 70
     0
102
SHADEPLOTRESLEVEL
 70
     2
102
SHADEPLOTCUSTOMDPI
 70
   300
  0
XRECORD
  5
2600
102
{ACAD_REACTORS
330
25FF
102
}
330
25FF
100
AcDbXrecord
280
     1
102
MATERIAL
148
0.0
149
0.0
149
0.0
 93
        0
 94
       63
282
     0
 72
     1
 77
     1
171
     1
175
     1
179
     1
273
     0
  0
XRECORD
  5
25FE
102
{ACAD_REACTORS
330
25FD
102
}
330
25FD
100
AcDbXrecord
280
     1
102
MATERIAL
148
0.0
149
0.0
149
0.0
 93
        0
 94
       63
282
     0
 72
     1
 77
     1
171
     1
175
     1
179
     1
273
     0
  0
XRECORD
  5
2601
102
{ACAD_REACTORS
330
173
102
}
330
173
100
AcDbXrecord
280
     1
102
MATERIAL
148
0.0
149
0.0
149
0.0
 93
        0
 94
       63
282
     0
 72
     1
 77
     1
171
     1
175
     1
179
     1
273
     0
  0
XRECORD
  5
175
102
{ACAD_REACTORS
330
173
102
}
330
173
100
AcDbXrecord
280
     1
270
     1
271
     1
  0
XRECORD
  5
174
102
{ACAD_REACTORS
330
173
102
}
330
173
100
AcDbXrecord
280
     1
270
     1
271
     1
  0
XRECORD
  5
176
102
{ACAD_REACTORS
330
173
102
}
330
173
100
AcDbXrecord
280
     1
270
     1
271
     1
  0
XRECORD
  5
177
102
{ACAD_REACTORS
330
173
102
}
330
173
100
AcDbXrecord
280
     1
270
     1
271
     1
  0
ACAD_PROXY_OBJECT
  5
24E8
102
{ACAD_REACTORS
330
162
102
}
330
162
100
AcDbProxyObject
 90
      499
 91
      509
 95
       23
 70
     0
 93
     5304
310
40D054060020000020000003200101A000080002A5058000000C10000000000000006101010000000000003E0FC000000000000F83F0000000000003E0FC000000000000F83F02B5E8DC0F42B1CFC0AD7A3703D0AC73F419019018000000C1003FBFFFFFE0000000000003C8FD029018000000C1003FBFFFFFE00000000000
310
03C8FD049018000000C1003FBFFFFFE0000000000003C8FD089018000000C1003FBFFFFFE0000000000003C8FD109018000000C1003FBFFFFFE0000000000003C8FD209018000000C1003FBFFFFFE0000000000003C8FD01405075F5449544C450041501A8000000C800406800020000A94160000003040000000000000012
310
40404000000000000F83F0000000000003E0FC000000000000F83F0000000000003E0FC0AD7A3703D0AC73F02B5E8DC0F42B1CFD0640640600000030400FEFFFFFF8000000000000F23F40A40600000030400FEFFFFFF8000000000000F23F41240600000030400FEFFFFFF8000000000000F23F42240600000030400FEFFF
310
FFF8000000000000F23F44240600000030400FEFFFFFF8000000000000F23F48240600000030400FEFFFFFF8000000000000F23F409014217D2115051115480105406A0000003200101A000080002A5028000000C10000000000000004901010000000000003E0FC000000000000F83F0000000000003E0FC000000000000F
310
83F02B5E8DC0F42B1CFC0AD7A3703D0AC73F419019018000000C1003FBFFFFFE0000000000003C8FD029018000000C1003FBFFFFFE0000000000003C8FD049018000000C1003FBFFFFFE0000000000003C8FD089018000000C1003FBFFFFFE0000000000003C8FD109018000000C1003FBFFFFFE0000000000003C8FD20901
310
8000000C1003FBFFFFFE0000000000003C8FD03409065F444154410000
340
11
340
14
340
14
340
14
340
14
340
14
340
14
340
11
340
14
340
14
340
14
340
14
340
14
340
14
340
11
340
14
340
14
340
14
340
14
340
14
340
14
 94
        0
1001
ACAD
1000
AcRTDxfName
1000
CELLSTYLEMAP
1000
AcRTDxfName
1000
CELLSTYLEMAP
  0
XRECORD
  5
25F8
102
{ACAD_REACTORS
330
162
102
}
330
162
100
AcDbXrecord
280
     1
102
ACAD_ROUNDTRIP_PRE2007_TABLESTYLE
 90
      512
 91
        0
  1

 92
      512
 93
        0
  2

 94
      512
 95
        0
  3

  0
ENDSEC
  0
EOF
