  0
SECTION
  2
HEADER
  9
$ACADVER
  1
AC1015
  9
$ACADMAINTVER
 70
    20
  9
$DWGCODEPAGE
  3
ANSI_1250
  9
$INSBASE
 10
0.0
 20
0.0
 30
0.0
  9
$EXTMIN
 10
0.1495836324988886
 20
-0.004528679247187
 30
-0.0000000000112498
  9
$EXTMAX
 10
334.511558839759
 20
297.0045328285427
 30
0.0000000000002956
  9
$LIMMIN
 10
0.1546818545211863
 20
-0.0000000000000568
  9
$LIMMAX
 10
334.5064559466111
 20
296.9999999999999
  9
$ORTHOMODE
 70
     0
  9
$REGENMODE
 70
     1
  9
$FILLMODE
 70
     1
  9
$QTEXTMODE
 70
     0
  9
$MIRRTEXT
 70
     0
  9
$LTSCALE
 40
1.0
  9
$ATTMODE
 70
     2
  9
$TEXTSIZE
 40
5.0
  9
$TRACEWID
 40
1.0
  9
$TEXTSTYLE
  7
Solbet_5
  9
$CLAYER
  8
SOLBET_Bloczki
  9
$CELTYPE
  6
ByLayer
  9
$CECOLOR
 62
   256
  9
$CELTSCALE
 40
1.0
  9
$DISPSILH
 70
     0
  9
$DIMSCALE
 40
1.0
  9
$DIMASZ
 40
2.5
  9
$DIMEXO
 40
0.0
  9
$DIMDLI
 40
3.75
  9
$DIMRND
 40
0.0
  9
$DIMDLE
 40
0.0
  9
$DIMEXE
 40
1.25
  9
$DIMTP
 40
0.0
  9
$DIMTM
 40
0.0
  9
$DIMTXT
 40
2.5
  9
$DIMCEN
 40
2.5
  9
$DIMTSZ
 40
0.0
  9
$DIMTOL
 70
     0
  9
$DIMLIM
 70
     0
  9
$DIMTIH
 70
     0
  9
$DIMTOH
 70
     0
  9
$DIMSE1
 70
     0
  9
$DIMSE2
 70
     0
  9
$DIMTAD
 70
     1
  9
$DIMZIN
 70
     8
  9
$DIMBLK
  1

  9
$DIMASO
 70
     1
  9
$DIMSHO
 70
     1
  9
$DIMPOST
  1

  9
$DIMAPOST
  1

  9
$DIMALT
 70
     0
  9
$DIMALTD
 70
     3
  9
$DIMALTF
 40
0.03937007874016
  9
$DIMLFAC
 40
1.0
  9
$DIMTOFL
 70
     1
  9
$DIMTVP
 40
0.0
  9
$DIMTIX
 70
     0
  9
$DIMSOXD
 70
     0
  9
$DIMSAH
 70
     0
  9
$DIMBLK1
  1

  9
$DIMBLK2
  1

  9
$DIMSTYLE
  2
Solbet
  9
$DIMCLRD
 70
     0
  9
$DIMCLRE
 70
     0
  9
$DIMCLRT
 70
     0
  9
$DIMTFAC
 40
1.0
  9
$DIMGAP
 40
0.625
  9
$DIMJUST
 70
     0
  9
$DIMSD1
 70
     0
  9
$DIMSD2
 70
     0
  9
$DIMTOLJ
 70
     0
  9
$DIMTZIN
 70
     8
  9
$DIMALTZ
 70
     0
  9
$DIMALTTZ
 70
     0
  9
$DIMUPT
 70
     0
  9
$DIMDEC
 70
     2
  9
$DIMTDEC
 70
     2
  9
$DIMALTU
 70
     2
  9
$DIMALTTD
 70
     3
  9
$DIMTXSTY
  7
Solbet_2_5
  9
$DIMAUNIT
 70
     0
  9
$DIMADEC
 70
     0
  9
$DIMALTRND
 40
0.0
  9
$DIMAZIN
 70
     0
  9
$DIMDSEP
 70
    44
  9
$DIMATFIT
 70
     3
  9
$DIMFRAC
 70
     0
  9
$DIMLDRBLK
  1

  9
$DIMLUNIT
 70
     2
  9
$DIMLWD
 70
    -2
  9
$DIMLWE
 70
    -2
  9
$DIMTMOVE
 70
     0
  9
$LUNITS
 70
     2
  9
$LUPREC
 70
     4
  9
$SKETCHINC
 40
1.0
  9
$FILLETRAD
 40
0.0
  9
$AUNITS
 70
     0
  9
$AUPREC
 70
     0
  9
$MENU
  1
.
  9
$ELEVATION
 40
0.0
  9
$PELEVATION
 40
0.0
  9
$THICKNESS
 40
0.0
  9
$LIMCHECK
 70
     0
  9
$CHAMFERA
 40
0.0
  9
$CHAMFERB
 40
0.0
  9
$CHAMFERC
 40
0.0
  9
$CHAMFERD
 40
0.0
  9
$SKPOLY
 70
     0
  9
$TDCREATE
 40
2454690.075573148
  9
$TDUCREATE
 40
2454690.033906482
  9
$TDUPDATE
 40
2454848.880338993
  9
$TDUUPDATE
 40
2454848.838672326
  9
$TDINDWG
 40
0.4854792130
  9
$TDUSRTIMER
 40
0.4854746875
  9
$USRTIMER
 70
     1
  9
$ANGBASE
 50
0.0
  9
$ANGDIR
 70
     0
  9
$PDMODE
 70
     0
  9
$PDSIZE
 40
0.0
  9
$PLINEWID
 40
0.0
  9
$SPLFRAME
 70
     0
  9
$SPLINETYPE
 70
     6
  9
$SPLINESEGS
 70
     8
  9
$HANDSEED
  5
258A
  9
$SURFTAB1
 70
     6
  9
$SURFTAB2
 70
     6
  9
$SURFTYPE
 70
     6
  9
$SURFU
 70
     6
  9
$SURFV
 70
     6
  9
$UCSBASE
  2

  9
$UCSNAME
  2

  9
$UCSORG
 10
0.0
 20
0.0
 30
0.0
  9
$UCSXDIR
 10
1.0
 20
0.0
 30
0.0
  9
$UCSYDIR
 10
0.0
 20
1.0
 30
0.0
  9
$UCSORTHOREF
  2

  9
$UCSORTHOVIEW
 70
     0
  9
$UCSORGTOP
 10
0.0
 20
0.0
 30
0.0
  9
$UCSORGBOTTOM
 10
0.0
 20
0.0
 30
0.0
  9
$UCSORGLEFT
 10
0.0
 20
0.0
 30
0.0
  9
$UCSORGRIGHT
 10
0.0
 20
0.0
 30
0.0
  9
$UCSORGFRONT
 10
0.0
 20
0.0
 30
0.0
  9
$UCSORGBACK
 10
0.0
 20
0.0
 30
0.0
  9
$PUCSBASE
  2

  9
$PUCSNAME
  2

  9
$PUCSORG
 10
0.0
 20
0.0
 30
0.0
  9
$PUCSXDIR
 10
1.0
 20
0.0
 30
0.0
  9
$PUCSYDIR
 10
0.0
 20
1.0
 30
0.0
  9
$PUCSORTHOREF
  2

  9
$PUCSORTHOVIEW
 70
     0
  9
$PUCSORGTOP
 10
0.0
 20
0.0
 30
0.0
  9
$PUCSORGBOTTOM
 10
0.0
 20
0.0
 30
0.0
  9
$PUCSORGLEFT
 10
0.0
 20
0.0
 30
0.0
  9
$PUCSORGRIGHT
 10
0.0
 20
0.0
 30
0.0
  9
$PUCSORGFRONT
 10
0.0
 20
0.0
 30
0.0
  9
$PUCSORGBACK
 10
0.0
 20
0.0
 30
0.0
  9
$USERI1
 70
     0
  9
$USERI2
 70
     0
  9
$USERI3
 70
     0
  9
$USERI4
 70
     0
  9
$USERI5
 70
     0
  9
$USERR1
 40
0.0
  9
$USERR2
 40
0.0
  9
$USERR3
 40
0.0
  9
$USERR4
 40
0.0
  9
$USERR5
 40
0.0
  9
$WORLDVIEW
 70
     1
  9
$SHADEDGE
 70
     3
  9
$SHADEDIF
 70
    70
  9
$TILEMODE
 70
     1
  9
$MAXACTVP
 70
    64
  9
$PINSBASE
 10
0.0
 20
0.0
 30
0.0
  9
$PLIMCHECK
 70
     0
  9
$PEXTMIN
 10
0.0
 20
0.0
 30
0.0
  9
$PEXTMAX
 10
0.0
 20
0.0
 30
0.0
  9
$PLIMMIN
 10
0.0
 20
0.0
  9
$PLIMMAX
 10
12.0
 20
9.0
  9
$UNITMODE
 70
     0
  9
$VISRETAIN
 70
     1
  9
$PLINEGEN
 70
     0
  9
$PSLTSCALE
 70
     1
  9
$TREEDEPTH
 70
  3020
  9
$CMLSTYLE
  2
SOLBET_IZOLACJA
  9
$CMLJUST
 70
     0
  9
$CMLSCALE
 40
20.0
  9
$PROXYGRAPHICS
 70
     1
  9
$MEASUREMENT
 70
     1
  9
$CELWEIGHT
370
    -1
  9
$ENDCAPS
280
     0
  9
$JOINSTYLE
280
     0
  9
$LWDISPLAY
290
     1
  9
$INSUNITS
 70
     4
  9
$HYPERLINKBASE
  1

  9
$STYLESHEET
  1

  9
$XEDIT
290
     1
  9
$CEPSNTYPE
380
     0
  9
$PSTYLEMODE
290
     1
  9
$FINGERPRINTGUID
  2
{6B12AB33-8E39-428E-8E85-461C8D99A3CB}
  9
$VERSIONGUID
  2
{0B47B5FA-310D-46F9-BD78-9641C1BDBA02}
  9
$EXTNAMES
290
     1
  9
$PSVPSCALE
 40
0.0
  9
$OLESTARTUP
290
     0
  0
ENDSEC
  0
SECTION
  2
CLASSES
  0
CLASS
  1
ACDBDICTIONARYWDFLT
  2
AcDbDictionaryWithDefault
  3
ObjectDBX Classes
 90
        0
280
     0
281
     0
  0
CLASS
  1
ACDBPLACEHOLDER
  2
AcDbPlaceHolder
  3
ObjectDBX Classes
 90
        0
280
     0
281
     0
  0
CLASS
  1
LAYOUT
  2
AcDbLayout
  3
ObjectDBX Classes
 90
        0
280
     0
281
     0
  0
CLASS
  1
DICTIONARYVAR
  2
AcDbDictionaryVar
  3
ObjectDBX Classes
 90
        0
280
     0
281
     0
  0
CLASS
  1
TABLESTYLE
  2
AcDbTableStyle
  3
ObjectDBX Classes
 90
     4095
280
     0
281
     0
  0
CLASS
  1
MATERIAL
  2
AcDbMaterial
  3
ObjectDBX Classes
 90
     1024
280
     0
281
     0
  0
CLASS
  1
VISUALSTYLE
  2
AcDbVisualStyle
  3
ObjectDBX Classes
 90
     4095
280
     0
281
     0
  0
CLASS
  1
SCALE
  2
AcDbScale
  3
ObjectDBX Classes
 90
     1153
280
     0
281
     0
  0
CLASS
  1
MLEADERSTYLE
  2
AcDbMLeaderStyle
  3
ACDB_MLEADERSTYLE_CLASS
 90
     4095
280
     0
281
     0
  0
CLASS
  1
CELLSTYLEMAP
  2
AcDbCellStyleMap
  3
ObjectDBX Classes
 90
     1152
280
     0
281
     0
  0
CLASS
  1
DIMASSOC
  2
AcDbDimAssoc
  3
"AcDbDimAssoc|Product Desc:     AcDim ARX App For Dimension|Company:          Autodesk, Inc.|WEB Address:      www.autodesk.com"
 90
    32768
280
     0
281
     0
  0
CLASS
  1
SORTENTSTABLE
  2
AcDbSortentsTable
  3
ObjectDBX Classes
 90
        0
280
     0
281
     0
  0
CLASS
  1
MULTILEADER
  2
AcDbMLeader
  3
ACDB_MLEADER_CLASS
 90
    33793
280
     0
281
     1
  0
CLASS
  1
ACDB_MTEXTOBJECTCONTEXTDATA_CLASS
  2
AcDbMTextObjectContextData
  3
ObjectDBX Classes
 90
    33921
280
     0
281
     0
  0
ENDSEC
  0
SECTION
  2
TABLES
  0
TABLE
  2
VPORT
  5
8
102
{ACAD_XDICTIONARY
360
443
102
}
330
0
100
AcDbSymbolTable
 70
     1
  0
VPORT
  5
EA
330
8
100
AcDbSymbolTableRecord
100
AcDbViewportTableRecord
  2
*Active
 70
     0
 10
0.0
 20
0.0
 11
1.0
 21
1.0
 12
167.3305712361289
 22
148.5000020746477
 13
0.0
 23
0.0
 14
10.0
 24
10.0
 15
10.0
 25
10.0
 16
0.0
 26
0.0
 36
1.0
 17
0.0
 27
0.0
 37
0.0
 40
300.3091621912098
 41
1.74582560296846
 42
50.0
 43
0.0
 44
0.0
 50
0.0
 51
0.0
 71
     0
 72
  1000
 73
     1
 74
     3
 75
     0
 76
     0
 77
     0
 78
     0
281
     0
 65
     1
110
0.0
120
0.0
130
0.0
111
1.0
121
0.0
131
0.0
112
0.0
122
1.0
132
0.0
 79
     0
146
0.0
  0
ENDTAB
  0
TABLE
  2
LTYPE
  5
5
330
0
100
AcDbSymbolTable
 70
     3
  0
LTYPE
  5
14
330
5
100
AcDbSymbolTableRecord
100
AcDbLinetypeTableRecord
  2
ByBlock
 70
     0
  3

 72
    65
 73
     0
 40
0.0
  0
LTYPE
  5
15
330
5
100
AcDbSymbolTableRecord
100
AcDbLinetypeTableRecord
  2
ByLayer
 70
     0
  3

 72
    65
 73
     0
 40
0.0
  0
LTYPE
  5
16
330
5
100
AcDbSymbolTableRecord
100
AcDbLinetypeTableRecord
  2
Continuous
 70
     0
  3
Solid line
 72
    65
 73
     0
 40
0.0
  0
LTYPE
  5
982
330
5
100
AcDbSymbolTableRecord
100
AcDbLinetypeTableRecord
  2
BATTING
 70
     0
  3
Batting SSSSSSSSSSSSSSSSSSSSSSSSSSSSSSSSSSSSSSSSSSSSSSS
 72
    65
 73
     4
 40
10.16254
 49
0.00254
 74
     0
 49
-2.54
 74
     4
 75
   134
340
7E7
 46
2.54
 50
0.0
 44
-2.54
 45
0.0
 49
-5.08
 74
     4
 75
   134
340
7E7
 46
2.54
 50
180.0
 44
2.54
 45
0.0
 49
-2.54
 74
     0
  0
LTYPE
  5
209A
330
5
100
AcDbSymbolTableRecord
100
AcDbLinetypeTableRecord
  2
STRICHPUNKT
 70
     0
  3
__ . __ . __ . __ . __ . __ . __ . __ . __ . __
 72
    65
 73
     4
 40
1.0
 49
0.5
 74
     0
 49
-0.25
 74
     0
 49
0.0
 74
     0
 49
-0.25
 74
     0
  0
ENDTAB
  0
TABLE
  2
LAYER
  5
2
102
{ACAD_XDICTIONARY
360
3E5
102
}
330
0
100
AcDbSymbolTable
 70
    11
  0
LAYER
  5
10
102
{ACAD_XDICTIONARY
360
13C
102
}
330
2
100
AcDbSymbolTableRecord
100
AcDbLayerTableRecord
  2
0
 70
     0
 62
     7
  6
Continuous
370
    -3
390
F
  0
LAYER
  5
2BB
330
2
100
AcDbSymbolTableRecord
100
AcDbLayerTableRecord
  2
DEFPOINTS
 70
     0
 62
     7
  6
Continuous
290
     0
370
    -3
390
F
  0
LAYER
  5
3DD
102
{ACAD_XDICTIONARY
360
403
102
}
330
2
100
AcDbSymbolTableRecord
100
AcDbLayerTableRecord
  2
SOLBET_Bloczki
 70
     0
 62
   140
  6
Continuous
370
    -3
390
F
1001
AcAecLayerStandard
1000

1000

  0
LAYER
  5
3DF
102
{ACAD_XDICTIONARY
360
405
102
}
330
2
100
AcDbSymbolTableRecord
100
AcDbLayerTableRecord
  2
SOLBET_Wymiary_Opisy
 70
     0
 62
     1
  6
Continuous
370
    -3
390
F
1001
AcAecLayerStandard
1000

1000

  0
LAYER
  5
3E1
102
{ACAD_XDICTIONARY
360
409
102
}
330
2
100
AcDbSymbolTableRecord
100
AcDbLayerTableRecord
  2
SOLBET_Izolacja
 70
     0
 62
    40
  6
Continuous
370
    -3
390
F
1001
AcAecLayerStandard
1000

1000

  0
LAYER
  5
3E2
102
{ACAD_XDICTIONARY
360
40B
102
}
330
2
100
AcDbSymbolTableRecord
100
AcDbLayerTableRecord
  2
SOLBET_Zbrojenie_Konstrukcja
 70
     0
 62
     7
  6
Continuous
370
    -3
390
F
1001
AcAecLayerStandard
1000

1000

  0
LAYER
  5
3E4
102
{ACAD_XDICTIONARY
360
40F
102
}
330
2
100
AcDbSymbolTableRecord
100
AcDbLayerTableRecord
  2
SOLBET_Tynki_Posadzki
 70
     0
 62
     3
  6
Continuous
370
    -3
390
F
1001
AcAecLayerStandard
1000

1000

  0
LAYER
  5
3E8
102
{ACAD_XDICTIONARY
360
411
102
}
330
2
100
AcDbSymbolTableRecord
100
AcDbLayerTableRecord
  2
SOLBET_Ramka_05
 70
     0
 62
     2
  6
Continuous
370
    -3
390
F
1001
AcAecLayerStandard
1000

1000

  0
LAYER
  5
472
330
2
100
AcDbSymbolTableRecord
100
AcDbLayerTableRecord
  2
SOLBET_Zaprawy
 70
     0
 62
     4
  6
Continuous
370
    -3
390
F
1001
AcAecLayerStandard
1000

1000

  0
LAYER
  5
224F
330
2
100
AcDbSymbolTableRecord
100
AcDbLayerTableRecord
  2
SOLBET_Stolarka_Okna
 70
     0
 62
     2
  6
Continuous
370
    -3
390
F
1001
AcAecLayerStandard
1000

1000

  0
LAYER
  5
246E
102
{ACAD_XDICTIONARY
360
246F
102
}
330
2
100
AcDbSymbolTableRecord
100
AcDbLayerTableRecord
  2
SOLBET_Wymiary_Opisy @ 1
 70
     0
 62
     1
  6
Continuous
370
    -3
390
F
1001
AcAecLayerStandard
1000

1000

1001
AcadAnnotativeDecomposition
1000
AnnotativeData
1002
{
1070
     1
1070
     1
1002
}
  0
ENDTAB
  0
TABLE
  2
STYLE
  5
3
330
0
100
AcDbSymbolTable
 70
     5
  0
STYLE
  5
11
330
3
100
AcDbSymbolTableRecord
100
AcDbTextStyleTableRecord
  2
Standard
 70
     0
 40
0.0
 41
1.0
 50
0.0
 71
     0
 42
2.5
  3
txt.shx
  4

  0
STYLE
  5
7D7
330
3
100
AcDbSymbolTableRecord
100
AcDbTextStyleTableRecord
  2
Solbet_5
 70
     0
 40
5.0
 41
1.0
 50
0.0
 71
     0
 42
5.0
  3
isocpeur.ttf
  4

1001
ACAD
1000
ISOCPEUR
1071
       34
  0
STYLE
  5
7D9
330
3
100
AcDbSymbolTableRecord
100
AcDbTextStyleTableRecord
  2
Solbet_2_5
 70
     0
 40
2.5
 41
1.0
 50
0.0
 71
     0
 42
2.5
  3
isocpeur.ttf
  4

1001
ACAD
1000
ISOCPEUR
1071
       34
  0
STYLE
  5
7E7
330
3
100
AcDbSymbolTableRecord
100
AcDbTextStyleTableRecord
  2

 70
     1
 40
0.0
 41
1.0
 50
0.0
 71
     0
 42
2.5
  3
ltypeshp.shx
  4

  0
STYLE
  5
21FD
330
3
100
AcDbSymbolTableRecord
100
AcDbTextStyleTableRecord
  2
Solbet_1
 70
     0
 40
1.0
 41
1.0
 50
0.0
 71
     0
 42
2.5
  3
isocpeur.ttf
  4

1001
ACAD
1000
ISOCPEUR
1071
       34
  0
ENDTAB
  0
TABLE
  2
VIEW
  5
6
330
0
100
AcDbSymbolTable
 70
     0
  0
ENDTAB
  0
TABLE
  2
UCS
  5
7
330
0
100
AcDbSymbolTable
 70
     0
  0
ENDTAB
  0
TABLE
  2
APPID
  5
9
330
0
100
AcDbSymbolTable
 70
    13
  0
APPID
  5
12
330
9
100
AcDbSymbolTableRecord
100
AcDbRegAppTableRecord
  2
ACAD
 70
     0
  0
APPID
  5
9E
330
9
100
AcDbSymbolTableRecord
100
AcDbRegAppTableRecord
  2
ACAD_PSEXT
 70
     0
  0
APPID
  5
133
330
9
100
AcDbSymbolTableRecord
100
AcDbRegAppTableRecord
  2
AcadAnnoPO
 70
     0
  0
APPID
  5
134
330
9
100
AcDbSymbolTableRecord
100
AcDbRegAppTableRecord
  2
AcadAnnotative
 70
     0
  0
APPID
  5
135
330
9
100
AcDbSymbolTableRecord
100
AcDbRegAppTableRecord
  2
ACAD_DSTYLE_DIMJAG
 70
     0
  0
APPID
  5
136
330
9
100
AcDbSymbolTableRecord
100
AcDbRegAppTableRecord
  2
ACAD_DSTYLE_DIMTALN
 70
     0
  0
APPID
  5
165
330
9
100
AcDbSymbolTableRecord
100
AcDbRegAppTableRecord
  2
ACAD_MLEADERVER
 70
     0
  0
APPID
  5
2C4
330
9
100
AcDbSymbolTableRecord
100
AcDbRegAppTableRecord
  2
ASO_SCHRAFF
 70
     0
  0
APPID
  5
3DE
330
9
100
AcDbSymbolTableRecord
100
AcDbRegAppTableRecord
  2
AcAecLayerStandard
 70
     0
  0
APPID
  5
7DE
330
9
100
AcDbSymbolTableRecord
100
AcDbRegAppTableRecord
  2
ACAD_EXEMPT_FROM_CAD_STANDARDS
 70
     0
  0
APPID
  5
948
330
9
100
AcDbSymbolTableRecord
100
AcDbRegAppTableRecord
  2
ACAD_DSTYLE_DIMBREAK
 70
     0
  0
APPID
  5
1D0A
330
9
100
AcDbSymbolTableRecord
100
AcDbRegAppTableRecord
  2
AcadAnnotativeDecomposition
 70
     0
  0
APPID
  5
21FE
330
9
100
AcDbSymbolTableRecord
100
AcDbRegAppTableRecord
  2
AcDbAttr
 70
     0
  0
ENDTAB
  0
TABLE
  2
DIMSTYLE
  5
A
330
0
100
AcDbSymbolTable
 70
     2
100
AcDbDimStyleTable
 71
     1
340
949
  0
DIMSTYLE
105
949
330
A
100
AcDbSymbolTableRecord
100
AcDbDimStyleTableRecord
  2
Solbet
 70
     0
 41
2.5
 42
0.0
 43
3.75
 44
1.25
 73
     0
 74
     0
 77
     1
 78
     8
140
2.5
141
2.5
143
0.03937007874016
147
0.625
171
     3
172
     1
271
     2
272
     2
274
     3
278
    44
283
     0
284
     8
340
7D9
1001
ACAD_DSTYLE_DIMBREAK
1070
   391
1040
3.75
1001
ACAD_DSTYLE_DIMJAG
1070
   388
1040
1.5
1001
ACAD_DSTYLE_DIMTALN
1070
   392
1070
     0
  0
DIMSTYLE
105
954
330
A
100
AcDbSymbolTableRecord
100
AcDbDimStyleTableRecord
  2
Solbet$7
 70
     0
 41
2.5
 42
0.0
 43
3.75
 44
1.25
 73
     0
 74
     0
 77
     1
 78
     8
140
2.5
141
2.5
143
0.03937007874016
147
0.625
171
     3
172
     1
271
     2
272
     2
274
     3
278
    44
283
     0
284
     8
340
7D9
341
958
1001
ACAD_DSTYLE_DIMBREAK
1070
   391
1040
3.75
1001
ACAD_DSTYLE_DIMJAG
1070
   388
1040
1.5
1001
ACAD_DSTYLE_DIMTALN
1070
   392
1070
     0
  0
ENDTAB
  0
TABLE
  2
BLOCK_RECORD
  5
1
330
0
100
AcDbSymbolTable
 70
     9
  0
BLOCK_RECORD
  5
1F
102
{ACAD_XDICTIONARY
360
4A3
102
}
330
1
100
AcDbSymbolTableRecord
100
AcDbBlockTableRecord
  2
*Model_Space
340
22
  0
BLOCK_RECORD
  5
D2
330
1
100
AcDbSymbolTableRecord
100
AcDbBlockTableRecord
  2
*Paper_Space
340
D3
  0
BLOCK_RECORD
  5
D6
330
1
100
AcDbSymbolTableRecord
100
AcDbBlockTableRecord
  2
*Paper_Space0
340
D7
  0
BLOCK_RECORD
  5
958
330
1
100
AcDbSymbolTableRecord
100
AcDbBlockTableRecord
  2
_DotSmall
340
0
102
{BLKREFS
331
22BA
102
}
  0
BLOCK_RECORD
  5
21FF
102
{ACAD_XDICTIONARY
360
220A
102
}
330
1
100
AcDbSymbolTableRecord
100
AcDbBlockTableRecord
  2
SOLBET_Bloczek_OPTIMAL_240x240x590_PRA
340
0
1001
ACAD
1000
DesignCenter Data
1002
{
1070
     1
1070
     4
1002
}
  0
BLOCK_RECORD
  5
222F
102
{ACAD_XDICTIONARY
360
223D
102
}
330
1
100
AcDbSymbolTableRecord
100
AcDbBlockTableRecord
  2
SOLBET_Ksztaltka_U_240x240x500_PRA
340
0
1001
ACAD
1000
DesignCenter Data
1002
{
1070
     1
1070
     4
1002
}
  0
BLOCK_RECORD
  5
2262
102
{ACAD_XDICTIONARY
360
226C
102
}
330
1
100
AcDbSymbolTableRecord
100
AcDbBlockTableRecord
  2
SOLBET_Plytka_60x240x590_brak_PRA
340
0
1001
ACAD
1000
DesignCenter Data
1002
{
1070
     1
1070
     4
1002
}
  0
BLOCK_RECORD
  5
24A2
102
{ACAD_XDICTIONARY
360
24B0
102
}
330
1
100
AcDbSymbolTableRecord
100
AcDbBlockTableRecord
  2
SOLBET_Ksztaltka_U_240x240x500_KG600_PRA
340
0
102
{BLKREFS
331
24B4
331
24E0
102
}
1001
ACAD
1000
DesignCenter Data
1002
{
1070
     1
1070
     4
1002
}
  0
BLOCK_RECORD
  5
24E1
102
{ACAD_XDICTIONARY
360
24EB
102
}
330
1
100
AcDbSymbolTableRecord
100
AcDbBlockTableRecord
  2
SOLBET_Plytka_60x240x590_KG600_PRA
340
0
102
{BLKREFS
331
24EF
102
}
1001
ACAD
1000
DesignCenter Data
1002
{
1070
     1
1070
     4
1002
}
  0
BLOCK_RECORD
  5
24F0
102
{ACAD_XDICTIONARY
360
24FB
102
}
330
1
100
AcDbSymbolTableRecord
100
AcDbBlockTableRecord
  2
SOLBET_Bloczek_Optimal_240x240x590_G_KG600_PRA
340
0
102
{BLKREFS
331
24FF
331
2500
331
2501
331
2502
331
2503
102
}
1001
ACAD
1000
DesignCenter Data
1002
{
1070
     1
1070
     4
1002
}
  0
ENDTAB
  0
ENDSEC
  0
SECTION
  2
BLOCKS
  0
BLOCK
  5
20
330
1F
100
AcDbEntity
  8
0
100
AcDbBlockBegin
  2
*Model_Space
 70
     0
 10
0.0
 20
0.0
 30
0.0
  3
*Model_Space
  1

  0
ENDBLK
  5
21
330
1F
100
AcDbEntity
  8
0
100
AcDbBlockEnd
  0
BLOCK
  5
D4
330
D2
100
AcDbEntity
 67
     1
  8
0
100
AcDbBlockBegin
  2
*Paper_Space
 70
     0
 10
0.0
 20
0.0
 30
0.0
  3
*Paper_Space
  1

  0
ENDBLK
  5
D5
330
D2
100
AcDbEntity
 67
     1
  8
0
100
AcDbBlockEnd
  0
BLOCK
  5
D8
330
D6
100
AcDbEntity
 67
     1
  8
0
100
AcDbBlockBegin
  2
*Paper_Space0
 70
     0
 10
0.0
 20
0.0
 30
0.0
  3
*Paper_Space0
  1

  0
ENDBLK
  5
D9
330
D6
100
AcDbEntity
 67
     1
  8
0
100
AcDbBlockEnd
  0
BLOCK
  5
95A
330
958
100
AcDbEntity
  8
0
100
AcDbBlockBegin
  2
_DotSmall
 70
     0
 10
0.0
 20
0.0
 30
0.0
  3
_DotSmall
  1

  0
LWPOLYLINE
  5
959
330
958
100
AcDbEntity
  8
0
  6
ByBlock
 62
     0
100
AcDbPolyline
 90
        2
 70
     1
 43
0.5
 10
-0.0625
 20
0.0
 42
1.0
 10
0.0625
 20
0.0
 42
1.0
  0
ENDBLK
  5
95B
330
958
100
AcDbEntity
  8
0
100
AcDbBlockEnd
  0
BLOCK
  5
220C
330
21FF
100
AcDbEntity
  8
0
100
AcDbBlockBegin
  2
SOLBET_Bloczek_OPTIMAL_240x240x590_PRA
 70
     2
 10
0.0
 20
0.0
 30
0.0
  3
SOLBET_Bloczek_OPTIMAL_240x240x590_PRA
  1

  0
ATTDEF
  5
2200
330
21FF
100
AcDbEntity
  8
SOLBET_Wymiary_Opisy
100
AcDbText
 10
0.0000001757484824
 20
4.927022981232882
 30
0.0
 40
0.9913121336814832
  1
240x240x590
  7
Solbet_1
100
AcDbAttributeDefinition
  3

  2
WYMIARY
 70
     3
1001
AcDbAttr
1070
     0
1070
     1
  0
ATTDEF
  5
2201
330
21FF
100
AcDbEntity
  8
SOLBET_Wymiary_Opisy
100
AcDbText
 10
0.0000001757484824
 20
3.414503573516785
 30
0.0
 40
0.9913121336814832
  1
400, 500, 600, 700
  7
Solbet_1
100
AcDbAttributeDefinition
  3

  2
KLASA_GĘSTOŚCI
 70
     9
1001
AcDbAttr
1070
     0
1070
     1
  0
ATTDEF
  5
2202
330
21FF
100
AcDbEntity
  8
SOLBET_Wymiary_Opisy
100
AcDbText
 10
-0.0000000878742412
 20
0.2448647517692188
 30
0.0
 40
0.9913121336814832
  1
SOLBET
  7
Solbet_1
100
AcDbAttributeDefinition
  3

  2
FIRMA
 70
     3
1001
AcDbAttr
1070
     0
1070
     1
  0
ATTDEF
  5
2203
330
21FF
100
AcDbEntity
  8
SOLBET_Wymiary_Opisy
100
AcDbText
 10
0.0000001757484824
 20
7.957332979580714
 30
0.0
 40
0.9913121336814832
  1
Bloczek
  7
Solbet_1
100
AcDbAttributeDefinition
  3
Nazwa
  2
NAZWA
 70
     3
1001
AcDbAttr
1070
     0
1070
     1
  0
ATTDEF
  5
2204
330
21FF
100
AcDbEntity
  8
SOLBET_Wymiary_Opisy
100
AcDbText
 10
0.0000001757484824
 20
6.418284799346509
 30
0.0
 40
0.9913121336814832
  1
SOLBET OPTIMAL
  7
Solbet_1
100
AcDbAttributeDefinition
  3

  2
SYSTEM
 70
     3
1001
AcDbAttr
1070
     0
1070
     1
  0
ATTDEF
  5
2205
330
21FF
100
AcDbEntity
  8
SOLBET_Wymiary_Opisy
100
AcDbText
 10
-0.0000000878742412
 20
1.744181511296331
 30
0.0
 40
0.9913121336814832
  1
Prawo
  7
Solbet_1
100
AcDbAttributeDefinition
  3

  2
WIDOK
 70
    11
1001
AcDbAttr
1070
     0
1070
     1
  0
LINE
  5
2206
330
21FF
100
AcDbEntity
  8
SOLBET_Bloczki
100
AcDbLine
 10
12.00000017574848
 20
11.99999995881262
 30
0.0
 11
12.00000017574848
 21
-0.0000000411874908
 31
0.0
  0
LINE
  5
2207
330
21FF
100
AcDbEntity
  8
SOLBET_Bloczki
100
AcDbLine
 10
12.00000017574848
 20
11.99999995881262
 30
0.0
 11
0.0000001757484824
 21
11.99999995881262
 31
0.0
  0
LINE
  5
2208
330
21FF
100
AcDbEntity
  8
SOLBET_Bloczki
100
AcDbLine
 10
0.0000001757484824
 20
11.99999995881262
 30
0.0
 11
0.0000001757484824
 21
-0.0000000411873771
 31
0.0
  0
LINE
  5
2209
330
21FF
100
AcDbEntity
  8
SOLBET_Bloczki
100
AcDbLine
 10
0.0000001757484824
 20
-0.0000000411873771
 30
0.0
 11
12.00000017574848
 21
-0.0000000411874908
 31
0.0
  0
ENDBLK
  5
220D
330
21FF
100
AcDbEntity
  8
0
100
AcDbBlockEnd
  0
BLOCK
  5
223F
330
222F
100
AcDbEntity
  8
0
100
AcDbBlockBegin
  2
SOLBET_Ksztaltka_U_240x240x500_PRA
 70
     2
 10
0.0
 20
0.0
 30
0.0
  3
SOLBET_Ksztaltka_U_240x240x500_PRA
  1

  0
ATTDEF
  5
2230
330
222F
100
AcDbEntity
  8
SOLBET_Wymiary_Opisy
100
AcDbText
 10
-0.0000000476806008
 20
4.790718044940628
 30
0.0
 40
0.9913121336814832
  1
240x240x500
  7
Solbet_1
100
AcDbAttributeDefinition
  3

  2
WYMIARY
 70
     3
1001
AcDbAttr
1070
     0
1070
     1
  0
ATTDEF
  5
2231
330
222F
100
AcDbEntity
  8
SOLBET_Wymiary_Opisy
100
AcDbText
 10
-0.0000000476806008
 20
3.27819863722453
 30
0.0
 40
0.9913121336814832
  1
600
  7
Solbet_1
100
AcDbAttributeDefinition
  3

  2
KLASA_GĘSTOŚCI
 70
     3
1001
AcDbAttr
1070
     0
1070
     1
  0
ATTDEF
  5
2232
330
222F
100
AcDbEntity
  8
SOLBET_Wymiary_Opisy
100
AcDbText
 10
-0.0000000476806008
 20
0.2448648003876223
 30
0.0
 40
0.9913121336814832
  1
SOLBET
  7
Solbet_1
100
AcDbAttributeDefinition
  3

  2
FIRMA
 70
     3
1001
AcDbAttr
1070
     0
1070
     1
  0
ATTDEF
  5
2233
330
222F
100
AcDbEntity
  8
SOLBET_Wymiary_Opisy
100
AcDbText
 10
-0.0000000476806008
 20
6.347422594011662
 30
0.0
 40
0.9913121336814832
  1
Kształtka U
  7
Solbet_1
100
AcDbAttributeDefinition
  3
Nazwa
  2
NAZWA
 70
     3
1001
AcDbAttr
1070
     0
1070
     1
  0
ATTDEF
  5
2234
330
222F
100
AcDbEntity
  8
SOLBET_Wymiary_Opisy
100
AcDbText
 10
-0.0000000476806008
 20
1.744181559914735
 30
0.0
 40
0.9913121336814832
  1
Prawo
  7
Solbet_1
100
AcDbAttributeDefinition
  3

  2
WIDOK
 70
    11
1001
AcDbAttr
1070
     0
1070
     1
  0
LINE
  5
2235
330
222F
100
AcDbEntity
  8
SOLBET_Bloczki
100
AcDbLine
 10
0.0000001907224054
 20
11.99999982461372
 30
0.0
 11
12.0000001907224
 21
11.99999982461372
 31
0.0
  0
LINE
  5
2236
330
222F
100
AcDbEntity
  8
SOLBET_Bloczki
100
AcDbLine
 10
12.0000001907224
 20
11.99999982461372
 30
0.0
 11
12.0000001907224
 21
-0.0000001753862779
 31
0.0
  0
LINE
  5
2237
330
222F
100
AcDbEntity
  8
SOLBET_Bloczki
100
AcDbLine
 10
12.0000001907224
 20
-0.0000001753862779
 30
0.0
 11
0.0000001907224032
 21
-0.0000001753862762
 31
0.0
  0
LINE
  5
2238
330
222F
100
AcDbEntity
  8
SOLBET_Bloczki
100
AcDbLine
 10
0.0000001907224032
 20
-0.0000001753862762
 30
0.0
 11
0.0000001907224038
 21
2.999999824613723
 31
0.0
  0
LINE
  5
2239
330
222F
100
AcDbEntity
  8
SOLBET_Bloczki
100
AcDbLine
 10
0.0000001907224054
 20
11.99999982461372
 30
0.0
 11
0.0000001907224049
 21
8.999999824613723
 31
0.0
  0
LINE
  5
223A
330
222F
100
AcDbEntity
  8
SOLBET_Bloczki
100
AcDbLine
 10
9.000000190722403
 20
2.999999824613494
 30
0.0
 11
9.000000190722404
 21
8.999999824613722
 31
0.0
  0
LINE
  5
223B
330
222F
100
AcDbEntity
  8
SOLBET_Bloczki
100
AcDbLine
 10
0.0000001907224038
 20
2.999999824613723
 30
0.0
 11
9.000000190722403
 21
2.999999824613722
 31
0.0
  0
LINE
  5
223C
330
222F
100
AcDbEntity
  8
SOLBET_Bloczki
100
AcDbLine
 10
0.0000001907224049
 20
8.999999824613723
 30
0.0
 11
9.000000190722404
 21
8.999999824613722
 31
0.0
  0
ENDBLK
  5
2240
330
222F
100
AcDbEntity
  8
0
100
AcDbBlockEnd
  0
BLOCK
  5
226E
330
2262
100
AcDbEntity
  8
0
100
AcDbBlockBegin
  2
SOLBET_Plytka_60x240x590_brak_PRA
 70
     2
 10
0.0
 20
0.0
 30
0.0
  3
SOLBET_Plytka_60x240x590_brak_PRA
  1

  0
ATTDEF
  5
2263
330
2262
100
AcDbEntity
  8
SOLBET_Wymiary_Opisy
100
AcDbText
 10
0.0000000428741699
 20
4.865619229844077
 30
0.0
 40
1.006810973315101
  1
60x240x590
  7
Solbet_1
100
AcDbAttributeDefinition
  3

  2
WYMIARY
 70
     3
1001
AcDbAttr
1070
     0
1070
     1
  0
ATTDEF
  5
2264
330
2262
100
AcDbEntity
  8
SOLBET_Wymiary_Opisy
100
AcDbText
 10
0.0000000428741699
 20
3.329452077944857
 30
0.0
 40
1.006810973315101
  1
600
  7
Solbet_1
100
AcDbAttributeDefinition
  3

  2
KLASA_GĘSTOŚCI
 70
     3
1001
AcDbAttr
1070
     0
1070
     1
  0
ATTDEF
  5
2265
330
2262
100
AcDbEntity
  8
SOLBET_Wymiary_Opisy
100
AcDbText
 10
0.0000000428741699
 20
0.2486930628063702
 30
0.0
 40
1.006810973315101
  1
SOLBET
  7
Solbet_1
100
AcDbAttributeDefinition
  3

  2
FIRMA
 70
     3
1001
AcDbAttr
1070
     0
1070
     1
  0
ATTDEF
  5
2266
330
2262
100
AcDbEntity
  8
SOLBET_Wymiary_Opisy
100
AcDbText
 10
0.0000000428741699
 20
6.498884010242274
 30
0.0
 40
1.006810973315101
  1
Płytka
  7
Solbet_1
100
AcDbAttributeDefinition
  3
Nazwa
  2
NAZWA
 70
     3
1001
AcDbAttr
1070
     0
1070
     1
  0
ATTDEF
  5
2267
330
2262
100
AcDbEntity
  8
SOLBET_Wymiary_Opisy
100
AcDbText
 10
0.0000000428741699
 20
1.771451147448315
 30
0.0
 40
1.006810973315101
  1
Prawo
  7
Solbet_1
100
AcDbAttributeDefinition
  3

  2
WIDOK
 70
    11
1001
AcDbAttr
1070
     0
1070
     1
  0
LINE
  5
2268
330
2262
100
AcDbEntity
  8
SOLBET_Bloczki
100
AcDbLine
 10
2.99999991809318
 20
12.00000009173755
 30
0.0
 11
2.999999918093408
 21
0.0000000917375473
 31
0.0
  0
LINE
  5
2269
330
2262
100
AcDbEntity
  8
SOLBET_Bloczki
100
AcDbLine
 10
2.999999918093408
 20
0.0000000917375473
 30
0.0
 11
-0.0000000819065917
 21
0.0000000917375473
 31
0.0
  0
LINE
  5
226A
330
2262
100
AcDbEntity
  8
SOLBET_Bloczki
100
AcDbLine
 10
-0.0000000819065917
 20
0.0000000917375473
 30
0.0
 11
-0.0000000819065917
 21
12.00000009173755
 31
0.0
  0
LINE
  5
226B
330
2262
100
AcDbEntity
  8
SOLBET_Bloczki
100
AcDbLine
 10
-0.0000000819065917
 20
12.00000009173755
 30
0.0
 11
2.99999991809318
 21
12.00000009173755
 31
0.0
  0
ENDBLK
  5
226F
330
2262
100
AcDbEntity
  8
0
100
AcDbBlockEnd
  0
BLOCK
  5
24B2
330
24A2
100
AcDbEntity
  8
0
100
AcDbBlockBegin
  2
SOLBET_Ksztaltka_U_240x240x500_KG600_PRA
 70
     2
 10
0.0
 20
0.0
 30
0.0
  3
SOLBET_Ksztaltka_U_240x240x500_KG600_PRA
  1

  0
ATTDEF
  5
24A3
330
24A2
100
AcDbEntity
  8
SOLBET_Wymiary_Opisy
100
AcDbText
 10
-0.0000000476806008
 20
4.790718044940628
 30
0.0
 40
0.9913121336814832
  1
240x240x500
  7
Solbet_1
100
AcDbAttributeDefinition
  3

  2
WYMIARY
 70
    11
1001
AcDbAttr
1070
     0
1070
     1
  0
ATTDEF
  5
24A4
330
24A2
100
AcDbEntity
  8
SOLBET_Wymiary_Opisy
100
AcDbText
 10
-0.0000000476806008
 20
3.27819863722453
 30
0.0
 40
0.9913121336814832
  1
600
  7
Solbet_1
100
AcDbAttributeDefinition
  3

  2
KLASA_GĘSTOŚCI
 70
    11
1001
AcDbAttr
1070
     0
1070
     1
  0
ATTDEF
  5
24A5
330
24A2
100
AcDbEntity
  8
SOLBET_Wymiary_Opisy
100
AcDbText
 10
-0.0000000476806008
 20
0.2448648003876223
 30
0.0
 40
0.9913121336814832
  1
SOLBET
  7
Solbet_1
100
AcDbAttributeDefinition
  3

  2
FIRMA
 70
    11
1001
AcDbAttr
1070
     0
1070
     1
  0
ATTDEF
  5
24A6
330
24A2
100
AcDbEntity
  8
SOLBET_Wymiary_Opisy
100
AcDbText
 10
-0.0000000476806008
 20
6.347422594011662
 30
0.0
 40
0.9913121336814832
  1
Kształtka U
  7
Solbet_1
100
AcDbAttributeDefinition
  3
Nazwa
  2
NAZWA
 70
    11
1001
AcDbAttr
1070
     0
1070
     1
  0
ATTDEF
  5
24A7
330
24A2
100
AcDbEntity
  8
SOLBET_Wymiary_Opisy
100
AcDbText
 10
-0.0000000476806008
 20
1.744181559914735
 30
0.0
 40
0.9913121336814832
  1
Prawo
  7
Solbet_1
100
AcDbAttributeDefinition
  3

  2
WIDOK
 70
    11
1001
AcDbAttr
1070
     0
1070
     1
  0
LINE
  5
24A8
330
24A2
100
AcDbEntity
  8
SOLBET_Bloczki
100
AcDbLine
 10
0.0000001907224054
 20
11.99999982461372
 30
0.0
 11
12.0000001907224
 21
11.99999982461372
 31
0.0
  0
LINE
  5
24A9
330
24A2
100
AcDbEntity
  8
SOLBET_Bloczki
100
AcDbLine
 10
12.0000001907224
 20
11.99999982461372
 30
0.0
 11
12.0000001907224
 21
-0.0000001753862779
 31
0.0
  0
LINE
  5
24AA
330
24A2
100
AcDbEntity
  8
SOLBET_Bloczki
100
AcDbLine
 10
12.0000001907224
 20
-0.0000001753862779
 30
0.0
 11
0.0000001907224032
 21
-0.0000001753862762
 31
0.0
  0
LINE
  5
24AB
330
24A2
100
AcDbEntity
  8
SOLBET_Bloczki
100
AcDbLine
 10
0.0000001907224032
 20
-0.0000001753862762
 30
0.0
 11
0.0000001907224038
 21
2.999999824613723
 31
0.0
  0
LINE
  5
24AC
330
24A2
100
AcDbEntity
  8
SOLBET_Bloczki
100
AcDbLine
 10
0.0000001907224054
 20
11.99999982461372
 30
0.0
 11
0.0000001907224049
 21
8.999999824613723
 31
0.0
  0
LINE
  5
24AD
330
24A2
100
AcDbEntity
  8
SOLBET_Bloczki
100
AcDbLine
 10
9.000000190722403
 20
2.999999824613494
 30
0.0
 11
9.000000190722404
 21
8.999999824613722
 31
0.0
  0
LINE
  5
24AE
330
24A2
100
AcDbEntity
  8
SOLBET_Bloczki
100
AcDbLine
 10
0.0000001907224038
 20
2.999999824613723
 30
0.0
 11
9.000000190722403
 21
2.999999824613722
 31
0.0
  0
LINE
  5
24AF
330
24A2
100
AcDbEntity
  8
SOLBET_Bloczki
100
AcDbLine
 10
0.0000001907224049
 20
8.999999824613723
 30
0.0
 11
9.000000190722404
 21
8.999999824613722
 31
0.0
  0
ENDBLK
  5
24B3
330
24A2
100
AcDbEntity
  8
0
100
AcDbBlockEnd
  0
BLOCK
  5
24ED
330
24E1
100
AcDbEntity
  8
0
100
AcDbBlockBegin
  2
SOLBET_Plytka_60x240x590_KG600_PRA
 70
     2
 10
0.0
 20
0.0
 30
0.0
  3
SOLBET_Plytka_60x240x590_KG600_PRA
  1

  0
ATTDEF
  5
24E2
330
24E1
100
AcDbEntity
  8
SOLBET_Wymiary_Opisy
100
AcDbText
 10
0.0000000428741699
 20
4.865619229844077
 30
0.0
 40
1.006810973315101
  1
60x240x590
  7
Solbet_1
100
AcDbAttributeDefinition
  3

  2
WYMIARY
 70
    11
1001
AcDbAttr
1070
     0
1070
     1
  0
ATTDEF
  5
24E3
330
24E1
100
AcDbEntity
  8
SOLBET_Wymiary_Opisy
100
AcDbText
 10
0.0000000428741699
 20
3.329452077944857
 30
0.0
 40
1.006810973315101
  1
600
  7
Solbet_1
100
AcDbAttributeDefinition
  3

  2
KLASA_GĘSTOŚCI
 70
    11
1001
AcDbAttr
1070
     0
1070
     1
  0
ATTDEF
  5
24E4
330
24E1
100
AcDbEntity
  8
SOLBET_Wymiary_Opisy
100
AcDbText
 10
0.0000000428741699
 20
0.2486930628063702
 30
0.0
 40
1.006810973315101
  1
SOLBET
  7
Solbet_1
100
AcDbAttributeDefinition
  3

  2
FIRMA
 70
    11
1001
AcDbAttr
1070
     0
1070
     1
  0
ATTDEF
  5
24E5
330
24E1
100
AcDbEntity
  8
SOLBET_Wymiary_Opisy
100
AcDbText
 10
0.0000000428741699
 20
6.498884010242274
 30
0.0
 40
1.006810973315101
  1
Płytka
  7
Solbet_1
100
AcDbAttributeDefinition
  3
Nazwa
  2
NAZWA
 70
    11
1001
AcDbAttr
1070
     0
1070
     1
  0
ATTDEF
  5
24E6
330
24E1
100
AcDbEntity
  8
SOLBET_Wymiary_Opisy
100
AcDbText
 10
0.0000000428741699
 20
1.771451147448315
 30
0.0
 40
1.006810973315101
  1
Prawo
  7
Solbet_1
100
AcDbAttributeDefinition
  3

  2
WIDOK
 70
    11
1001
AcDbAttr
1070
     0
1070
     1
  0
LINE
  5
24E7
330
24E1
100
AcDbEntity
  8
SOLBET_Bloczki
100
AcDbLine
 10
2.99999991809318
 20
12.00000009173755
 30
0.0
 11
2.999999918093408
 21
0.0000000917375473
 31
0.0
  0
LINE
  5
24E8
330
24E1
100
AcDbEntity
  8
SOLBET_Bloczki
100
AcDbLine
 10
2.999999918093408
 20
0.0000000917375473
 30
0.0
 11
-0.0000000819065917
 21
0.0000000917375473
 31
0.0
  0
LINE
  5
24E9
330
24E1
100
AcDbEntity
  8
SOLBET_Bloczki
100
AcDbLine
 10
-0.0000000819065917
 20
0.0000000917375473
 30
0.0
 11
-0.0000000819065917
 21
12.00000009173755
 31
0.0
  0
LINE
  5
24EA
330
24E1
100
AcDbEntity
  8
SOLBET_Bloczki
100
AcDbLine
 10
-0.0000000819065917
 20
12.00000009173755
 30
0.0
 11
2.99999991809318
 21
12.00000009173755
 31
0.0
  0
ENDBLK
  5
24EE
330
24E1
100
AcDbEntity
  8
0
100
AcDbBlockEnd
  0
BLOCK
  5
24FD
330
24F0
100
AcDbEntity
  8
0
100
AcDbBlockBegin
  2
SOLBET_Bloczek_Optimal_240x240x590_G_KG600_PRA
 70
     2
 10
0.0
 20
0.0
 30
0.0
  3
SOLBET_Bloczek_Optimal_240x240x590_G_KG600_PRA
  1

  0
ATTDEF
  5
24F1
330
24F0
100
AcDbEntity
  8
SOLBET_Wymiary_Opisy
100
AcDbText
 10
0.0000001757484824
 20
4.927022981232882
 30
0.0
 40
0.9913121336814832
  1
240x240x590
  7
Solbet_1
100
AcDbAttributeDefinition
  3

  2
WYMIARY
 70
    11
1001
AcDbAttr
1070
     0
1070
     1
  0
ATTDEF
  5
24F2
330
24F0
100
AcDbEntity
  8
SOLBET_Wymiary_Opisy
100
AcDbText
 10
0.0000001757484824
 20
3.414503573516785
 30
0.0
 40
0.9913121336814832
  1
600
  7
Solbet_1
100
AcDbAttributeDefinition
  3

  2
KLASA_GĘSTOŚCI
 70
    11
1001
AcDbAttr
1070
     0
1070
     1
  0
ATTDEF
  5
24F3
330
24F0
100
AcDbEntity
  8
SOLBET_Wymiary_Opisy
100
AcDbText
 10
-0.0000000878742412
 20
0.2448647517692188
 30
0.0
 40
0.9913121336814832
  1
SOLBET
  7
Solbet_1
100
AcDbAttributeDefinition
  3

  2
FIRMA
 70
    11
1001
AcDbAttr
1070
     0
1070
     1
  0
ATTDEF
  5
24F4
330
24F0
100
AcDbEntity
  8
SOLBET_Wymiary_Opisy
100
AcDbText
 10
0.0000001757484824
 20
7.957332979580714
 30
0.0
 40
0.9913121336814832
  1
Bloczek
  7
Solbet_1
100
AcDbAttributeDefinition
  3
Nazwa
  2
NAZWA
 70
    11
1001
AcDbAttr
1070
     0
1070
     1
  0
ATTDEF
  5
24F5
330
24F0
100
AcDbEntity
  8
SOLBET_Wymiary_Opisy
100
AcDbText
 10
0.0000001757484824
 20
6.418284799346509
 30
0.0
 40
0.9913121336814832
  1
SOLBET Optimal
  7
Solbet_1
100
AcDbAttributeDefinition
  3

  2
SYSTEM
 70
    11
1001
AcDbAttr
1070
     0
1070
     1
  0
ATTDEF
  5
24F6
330
24F0
100
AcDbEntity
  8
SOLBET_Wymiary_Opisy
100
AcDbText
 10
-0.0000000878742412
 20
1.744181511296331
 30
0.0
 40
0.9913121336814832
  1
Prawo
  7
Solbet_1
100
AcDbAttributeDefinition
  3

  2
WIDOK
 70
    11
1001
AcDbAttr
1070
     0
1070
     1
  0
LINE
  5
24F7
330
24F0
100
AcDbEntity
  8
SOLBET_Bloczki
100
AcDbLine
 10
12.00000017574848
 20
11.99999995881262
 30
0.0
 11
12.00000017574848
 21
-0.0000000411874908
 31
0.0
  0
LINE
  5
24F8
330
24F0
100
AcDbEntity
  8
SOLBET_Bloczki
100
AcDbLine
 10
12.00000017574848
 20
11.99999995881262
 30
0.0
 11
0.0000001757484824
 21
11.99999995881262
 31
0.0
  0
LINE
  5
24F9
330
24F0
100
AcDbEntity
  8
SOLBET_Bloczki
100
AcDbLine
 10
0.0000001757484824
 20
11.99999995881262
 30
0.0
 11
0.0000001757484824
 21
-0.0000000411873771
 31
0.0
  0
LINE
  5
24FA
330
24F0
100
AcDbEntity
  8
SOLBET_Bloczki
100
AcDbLine
 10
0.0000001757484824
 20
-0.0000000411873771
 30
0.0
 11
12.00000017574848
 21
-0.0000000411874908
 31
0.0
  0
ENDBLK
  5
24FE
330
24F0
100
AcDbEntity
  8
0
100
AcDbBlockEnd
  0
ENDSEC
  0
SECTION
  2
ENTITIES
  0
LINE
  5
2140
330
1F
100
AcDbEntity
  8
SOLBET_Wymiary_Opisy
100
AcDbLine
 10
139.1026876824714
 20
179.988822131866
 30
0.0
 11
139.1026876824714
 21
120.5496786927551
 31
0.0
  0
LINE
  5
2141
330
1F
100
AcDbEntity
  8
SOLBET_Wymiary_Opisy
100
AcDbLine
 10
56.17779020490229
 20
179.988822131866
 30
0.0
 11
139.1026876824714
 21
179.988822131866
 31
0.0
  0
LINE
  5
2144
330
1F
100
AcDbEntity
  8
SOLBET_Tynki_Posadzki
100
AcDbLine
 10
79.90183239776047
 20
152.7731705311844
 30
0.0
 11
79.90183239776047
 21
152.2731705311844
 31
0.0
  0
ARC
  5
2145
330
1F
100
AcDbEntity
  8
SOLBET_Tynki_Posadzki
100
AcDbCircle
 10
79.10376620655984
 20
152.7731705311844
 30
0.0
 40
1.5000521396288
100
AcDbArc
 50
0.0
 51
90.0
  0
LINE
  5
2149
330
1F
100
AcDbEntity
  8
SOLBET_Tynki_Posadzki
100
AcDbLine
 10
79.90183239776047
 20
152.7731705311844
 30
0.0
 11
139.1026876824714
 21
152.7731705311844
 31
0.0
  0
LINE
  5
214B
330
1F
100
AcDbEntity
  8
SOLBET_Tynki_Posadzki
100
AcDbLine
 10
79.10376620655984
 20
152.2731705311844
 30
0.0
 11
79.10376620655984
 21
179.988822131866
 31
0.0
  0
LINE
  5
214D
330
1F
100
AcDbEntity
  8
SOLBET_Tynki_Posadzki
100
AcDbLine
 10
79.10376620655984
 20
137.0231705311844
 30
0.0
 11
79.10376620655984
 21
120.5496786927551
 31
0.0
  0
LWPOLYLINE
  5
2154
102
{ACAD_REACTORS
330
2272
102
}
330
1F
100
AcDbEntity
  8
SOLBET_Zbrojenie_Konstrukcja
100
AcDbPolyline
 90
       16
 70
     1
 43
0.0
 10
74.96466989482974
 20
150.3309134266383
 42
-0.0869419154568836
 10
74.91795314894512
 20
150.3065095368329
 42
-0.04426695874853
 10
74.86134492331871
 20
150.29388251616
 42
-0.0327594189474477
 10
74.78320902052906
 20
150.2887576427038
 42
-0.0327594189473721
 10
74.70507311775396
 20
150.29388251616
 42
-0.0442669587487512
 10
74.648464892113
 20
150.3065095368329
 42
-0.0869419154555393
 10
74.60174814622837
 20
150.3309134266383
 42
-0.233077666948955
 10
74.59265204666985
 20
150.3493664003981
 42
-0.2330776669476068
 10
74.60174814622837
 20
150.3678193741598
 42
-0.0869419154571649
 10
74.648464892113
 20
150.3922232639634
 42
-0.0442669587478621
 10
74.70507311775396
 20
150.4048502846363
 42
-0.032759418947709
 10
74.78320902052906
 20
150.4099751580943
 42
-0.0327594189469762
 10
74.86134492331871
 20
150.4048502846363
 42
-0.0442669587489952
 10
74.91795314894512
 20
150.3922232639634
 42
-0.0869419154555225
 10
74.96466989482974
 20
150.3678193741598
 42
-0.2095631734287794
 10
74.97367253657535
 20
150.3514496570114
 42
-0.256839199828224
1001
ASO_SCHRAFF
1005
0
1070
     1
1002
{
1070
     1
1005
0
1002
}
1002
{
1070
     2
1005
0
1002
}
1002
{
1070
     4
1000
SOFIFUELL
1040
1.0
1040
0.0
1070
     0
1000
T__SCHR
1070
   256
1000
_bylayer
1040
50.0
1070
     1
1002
}
  0
LWPOLYLINE
  5
2156
102
{ACAD_REACTORS
330
2272
102
}
330
1F
100
AcDbEntity
  8
SOLBET_Zbrojenie_Konstrukcja
100
AcDbPolyline
 90
       16
 70
     1
 43
0.0
 10
69.34296509887895
 20
150.3309134266383
 42
0.0869419154568836
 10
69.38968184476357
 20
150.3065095368329
 42
0.04426695874853
 10
69.44629007040453
 20
150.29388251616
 42
0.0327594189474477
 10
69.52442597317963
 20
150.2887576427038
 42
0.0327594189473721
 10
69.60256187596929
 20
150.29388251616
 42
0.0442669587487512
 10
69.65917010161025
 20
150.3065095368329
 42
0.0869419154555393
 10
69.70588684748031
 20
150.3309134266383
 42
0.233077666948955
 10
69.71498294703883
 20
150.3493664003981
 42
0.2330776669476068
 10
69.70588684748031
 20
150.3678193741598
 42
0.0869419154571649
 10
69.65917010161025
 20
150.3922232639634
 42
0.0442669587478621
 10
69.60256187596929
 20
150.4048502846363
 42
0.032759418947709
 10
69.52442597317963
 20
150.4099751580943
 42
0.0327594189469762
 10
69.44629007040453
 20
150.4048502846363
 42
0.0442669587489952
 10
69.38968184476357
 20
150.3922232639634
 42
0.0869419154555225
 10
69.34296509887895
 20
150.3678193741598
 42
0.2095631734287794
 10
69.33396245713334
 20
150.3514496570114
 42
0.256839199828224
1001
ASO_SCHRAFF
1005
0
1070
     1
1002
{
1070
     1
1005
0
1002
}
1002
{
1070
     2
1005
0
1002
}
1002
{
1070
     4
1000
SOFIFUELL
1040
1.0
1040
0.0
1070
     0
1000
T__SCHR
1070
   256
1000
_bylayer
1040
50.0
1070
     1
1002
}
  0
LINE
  5
215B
330
1F
100
AcDbEntity
  8
SOLBET_Wymiary_Opisy
100
AcDbLine
 10
56.17779020490229
 20
120.5496786927551
 30
0.0
 11
139.1026876824714
 21
120.5496786927551
 31
0.0
  0
LINE
  5
2160
330
1F
100
AcDbEntity
  8
SOLBET_Stolarka_Okna
100
AcDbLine
 10
70.50449390496464
 20
138.2731705311844
 30
0.0
 11
139.1026876824714
 21
138.2731705311844
 31
0.0
  0
LWPOLYLINE
  5
2164
330
1F
100
AcDbEntity
  8
SOLBET_Zbrojenie_Konstrukcja
100
AcDbPolyline
 90
        2
 70
     1
 43
0.3
 10
70.74713115306327
 20
130.3435540860837
 42
1.0
 10
71.04713115306617
 20
130.3435540860837
 42
1.0
  0
LWPOLYLINE
  5
2165
330
1F
100
AcDbEntity
  8
SOLBET_Zbrojenie_Konstrukcja
100
AcDbPolyline
 90
        2
 70
     1
 43
0.3
 10
70.81115876977378
 20
136.9518473429698
 42
1.0
 10
71.11115876977669
 20
136.9518473429698
 42
1.0
  0
LINE
  5
2166
330
1F
100
AcDbEntity
  8
SOLBET_Zbrojenie_Konstrukcja
100
AcDbLine
 10
73.25607884102897
 20
135.8628808301355
 30
0.0
 11
71.70064989670459
 21
137.4183097744744
 31
0.0
  0
LINE
  5
2167
330
1F
100
AcDbEntity
  8
SOLBET_Zbrojenie_Konstrukcja
100
AcDbLine
 10
72.05607884104643
 20
134.6628808301348
 30
0.0
 11
70.57783766195166
 21
136.141122009215
 31
0.0
  0
LWPOLYLINE
  5
2168
330
1F
100
AcDbEntity
  8
SOLBET_Zbrojenie_Konstrukcja
100
AcDbPolyline
 90
        2
 70
     1
 43
0.3
 10
74.78747662806814
 20
130.356333080919
 42
-1.0
 10
74.48747662806522
 20
130.356333080919
 42
-1.0
  0
LWPOLYLINE
  5
2169
330
1F
100
AcDbEntity
  8
SOLBET_Zbrojenie_Konstrukcja
100
AcDbPolyline
 90
        2
 70
     1
 43
0.3
 10
74.72344901135762
 20
136.8809979587831
 42
-1.0
 10
74.4234490113547
 20
136.8809979587831
 42
-1.0
  0
LINE
  5
216E
330
1F
100
AcDbEntity
  8
SOLBET_Stolarka_Okna
100
AcDbLine
 10
70.50449390496464
 20
150.2731705311844
 30
0.0
 11
70.50449390496464
 21
138.2731705311844
 31
0.0
  0
LINE
  5
216F
330
1F
100
AcDbEntity
  8
SOLBET_Stolarka_Okna
100
AcDbLine
 10
70.50449390496464
 20
140.173170531184
 30
0.0
 11
71.50449390496465
 21
140.173170531184
 31
0.0
  0
LINE
  5
2170
330
1F
100
AcDbEntity
  8
SOLBET_Stolarka_Okna
100
AcDbLine
 10
70.50449390496464
 20
148.3731705311847
 30
0.0
 11
71.50449390496465
 21
148.3731705311847
 31
0.0
  0
LINE
  5
2174
330
1F
100
AcDbEntity
  8
SOLBET_Stolarka_Okna
100
AcDbLine
 10
75.50449390496464
 20
148.3731705311847
 30
0.0
 11
139.1026876824714
 21
148.3731705311847
 31
0.0
  0
LINE
  5
2175
330
1F
100
AcDbEntity
  8
SOLBET_Stolarka_Okna
100
AcDbLine
 10
75.50449390496464
 20
140.173170531184
 30
0.0
 11
139.1026876824714
 21
140.173170531184
 31
0.0
  0
LWPOLYLINE
  5
2176
330
1F
100
AcDbEntity
  8
SOLBET_Zbrojenie_Konstrukcja
100
AcDbPolyline
 90
        4
 70
     1
 43
0.0
 10
71.50449390496465
 20
138.2731705311844
 10
75.50449390496464
 20
138.2731705311844
 10
75.50449390496464
 20
150.2731705311844
 10
71.50449390496465
 20
150.2731705311844
  0
CIRCLE
  5
2177
330
1F
100
AcDbEntity
  8
SOLBET_Zbrojenie_Konstrukcja
100
AcDbCircle
 10
72.37732365613442
 20
147.6126204930287
 30
0.0
 40
0.3275921032762
  0
CIRCLE
  5
2178
330
1F
100
AcDbEntity
  8
SOLBET_Zbrojenie_Konstrukcja
100
AcDbCircle
 10
72.37732365613442
 20
145.5168191148923
 30
0.0
 40
0.3275921032762
  0
CIRCLE
  5
2179
330
1F
100
AcDbEntity
  8
SOLBET_Zbrojenie_Konstrukcja
100
AcDbCircle
 10
72.37732365613442
 20
143.4210177367577
 30
0.0
 40
0.3275921032762
  0
CIRCLE
  5
217A
330
1F
100
AcDbEntity
  8
SOLBET_Zbrojenie_Konstrukcja
100
AcDbCircle
 10
72.37732365613442
 20
141.325216358623
 30
0.0
 40
0.3275921032762
  0
CIRCLE
  5
217B
330
1F
100
AcDbEntity
  8
SOLBET_Zbrojenie_Konstrukcja
100
AcDbCircle
 10
74.63166415379487
 20
147.6126204930287
 30
0.0
 40
0.3275921032762
  0
CIRCLE
  5
217C
330
1F
100
AcDbEntity
  8
SOLBET_Zbrojenie_Konstrukcja
100
AcDbCircle
 10
74.63166415379487
 20
145.5168191148923
 30
0.0
 40
0.3275921032762
  0
CIRCLE
  5
217D
330
1F
100
AcDbEntity
  8
SOLBET_Zbrojenie_Konstrukcja
100
AcDbCircle
 10
74.63166415379487
 20
143.4210177367577
 30
0.0
 40
0.3275921032762
  0
CIRCLE
  5
217E
330
1F
100
AcDbEntity
  8
SOLBET_Zbrojenie_Konstrukcja
100
AcDbCircle
 10
74.63166415379487
 20
141.325216358623
 30
0.0
 40
0.3275921032762
  0
LINE
  5
2183
330
1F
100
AcDbEntity
  8
SOLBET_Zaprawy
100
AcDbLine
 10
78.60376620657439
 20
137.5231705311844
 30
0.0
 11
139.1026876824714
 21
137.5231705311844
 31
0.0
  0
LINE
  5
2184
330
1F
100
AcDbEntity
  8
SOLBET_Tynki_Posadzki
100
AcDbLine
 10
79.10376620655984
 20
137.0231705311844
 30
0.0
 11
139.1026876824714
 21
137.0231705311844
 31
0.0
  0
LINE
  5
2185
330
1F
100
AcDbEntity
  8
SOLBET_Stolarka_Okna
100
AcDbLine
 10
79.10376620655984
 20
137.5231705311844
 30
0.0
 11
79.10376620655984
 21
138.2731705311844
 31
0.0
  0
LINE
  5
2186
330
1F
100
AcDbEntity
  8
SOLBET_Tynki_Posadzki
100
AcDbLine
 10
79.10376620655984
 20
137.0231705311844
 30
0.0
 11
78.60376620657439
 21
137.5231705311844
 31
0.0
  0
LINE
  5
2187
330
1F
100
AcDbEntity
  8
SOLBET_Wymiary_Opisy
100
AcDbLine
 10
289.2371734873402
 20
179.988822131866
 30
0.0
 11
289.2371734873402
 21
120.5496786927551
 31
0.0
  0
LINE
  5
2188
330
1F
100
AcDbEntity
  8
SOLBET_Tynki_Posadzki
100
AcDbLine
 10
230.0363182026292
 20
152.7731705311844
 30
0.0
 11
230.0363182026292
 21
152.2731705311844
 31
0.0
  0
ARC
  5
2189
330
1F
100
AcDbEntity
  8
SOLBET_Tynki_Posadzki
100
AcDbCircle
 10
229.2382520114431
 20
152.7731705311844
 30
0.0
 40
1.5000521396288
100
AcDbArc
 50
0.0
 51
90.0
  0
LINE
  5
218D
330
1F
100
AcDbEntity
  8
SOLBET_Tynki_Posadzki
100
AcDbLine
 10
230.0363182026292
 20
152.7731705311844
 30
0.0
 11
289.2371734873402
 21
152.7731705311844
 31
0.0
  0
LINE
  5
218F
330
1F
100
AcDbEntity
  8
SOLBET_Tynki_Posadzki
100
AcDbLine
 10
229.2382520114431
 20
152.2731705311844
 30
0.0
 11
229.2382520114431
 21
179.988822131866
 31
0.0
  0
LINE
  5
2190
330
1F
100
AcDbEntity
  8
SOLBET_Tynki_Posadzki
  6
Continuous
100
AcDbLine
 10
229.2382520114431
 20
150.2731705311844
 30
0.0
 11
289.2371734873402
 21
150.2731705311844
 31
0.0
  0
LINE
  5
2191
330
1F
100
AcDbEntity
  8
SOLBET_Tynki_Posadzki
100
AcDbLine
 10
229.2382520114431
 20
137.0231705311844
 30
0.0
 11
229.2382520114431
 21
120.5496786927551
 31
0.0
  0
LINE
  5
2192
330
1F
100
AcDbEntity
  8
SOLBET_Izolacja
100
AcDbLine
 10
229.2382520114431
 20
138.2731705311844
 30
0.0
 11
289.2371734873402
 21
138.2731705311844
 31
0.0
  0
LINE
  5
2197
330
1F
100
AcDbEntity
  8
SOLBET_Zaprawy
100
AcDbLine
 10
228.7382520114431
 20
137.5231705311844
 30
0.0
 11
289.2371734873402
 21
137.5231705311844
 31
0.0
  0
LINE
  5
2198
330
1F
100
AcDbEntity
  8
SOLBET_Tynki_Posadzki
100
AcDbLine
 10
229.2382520114431
 20
137.0231705311844
 30
0.0
 11
289.2371734873402
 21
137.0231705311844
 31
0.0
  0
LINE
  5
219A
330
1F
100
AcDbEntity
  8
SOLBET_Tynki_Posadzki
100
AcDbLine
 10
229.2382520114431
 20
137.0231705311844
 30
0.0
 11
228.7382520114431
 21
137.5231705311844
 31
0.0
  0
LWPOLYLINE
  5
219B
330
1F
100
AcDbEntity
  8
SOLBET_Zbrojenie_Konstrukcja
100
AcDbPolyline
 90
        8
 70
     1
 43
0.0
 10
229.3882520114373
 20
148.3731705311847
 10
233.5882520114344
 20
148.3731705311847
 10
233.7382520114431
 20
148.5231705311844
 10
233.7382520114431
 20
150.1231705311847
 10
233.5882520114344
 20
150.2731705311844
 10
229.3882520114373
 20
150.2731705311844
 10
229.2382520114431
 20
150.1231705311847
 10
229.2382520114431
 20
148.5231705311844
  0
LINE
  5
219C
330
1F
100
AcDbEntity
  8
SOLBET_Wymiary_Opisy
  6
STRICHPUNKT
100
AcDbLine
 10
231.4882520114431
 20
150.932365057989
 30
0.0
 11
231.4882520114431
 21
136.0766984564388
 31
0.0
  0
LWPOLYLINE
  5
219D
330
1F
100
AcDbEntity
  8
SOLBET_Zbrojenie_Konstrukcja
100
AcDbPolyline
 90
        8
 70
     1
 43
0.0
 10
229.3882520114373
 20
138.2731705311844
 10
233.5882520114344
 20
138.2731705311844
 10
233.7382520114431
 20
138.423170531184
 10
233.7382520114431
 20
140.0231705311844
 10
233.5882520114344
 20
140.173170531184
 10
229.3882520114373
 20
140.173170531184
 10
229.2382520114431
 20
140.0231705311844
 10
229.2382520114431
 20
138.423170531184
  0
LINE
  5
219E
330
1F
100
AcDbEntity
  8
SOLBET_Zbrojenie_Konstrukcja
100
AcDbLine
 10
231.2382520114286
 20
148.3731705311847
 30
0.0
 11
231.2382520114286
 21
140.173170531184
 31
0.0
  0
LINE
  5
219F
330
1F
100
AcDbEntity
  8
SOLBET_Zbrojenie_Konstrukcja
100
AcDbLine
 10
231.7382520114431
 20
148.3731705311847
 30
0.0
 11
231.7382520114431
 21
140.173170531184
 31
0.0
  0
LINE
  5
21A0
330
1F
100
AcDbEntity
  8
SOLBET_Izolacja
100
AcDbLine
 10
229.2382520114431
 20
152.2731705262804
 30
0.0
 11
229.2382520114431
 21
138.2731705311844
 31
0.0
  0
LINE
  5
21A2
330
1F
100
AcDbEntity
  8
SOLBET_Zbrojenie_Konstrukcja
100
AcDbLine
 10
256.7382520114431
 20
148.3731705311847
 30
0.0
 11
256.7382520114431
 21
140.173170531184
 31
0.0
  0
LINE
  5
21A3
330
1F
100
AcDbEntity
  8
SOLBET_Zbrojenie_Konstrukcja
100
AcDbLine
 10
256.2382520114286
 20
148.3731705311847
 30
0.0
 11
256.2382520114286
 21
140.173170531184
 31
0.0
  0
LWPOLYLINE
  5
21A4
330
1F
100
AcDbEntity
  8
SOLBET_Zbrojenie_Konstrukcja
100
AcDbPolyline
 90
        8
 70
     1
 43
0.0
 10
254.3882520114373
 20
138.2731705311844
 10
258.5882520114344
 20
138.2731705311844
 10
258.7382520114431
 20
138.423170531184
 10
258.7382520114431
 20
140.0231705311844
 10
258.5882520114344
 20
140.173170531184
 10
254.3882520114373
 20
140.173170531184
 10
254.2382520114431
 20
140.0231705311844
 10
254.2382520114431
 20
138.423170531184
  0
LINE
  5
21A5
330
1F
100
AcDbEntity
  8
SOLBET_Wymiary_Opisy
  6
STRICHPUNKT
100
AcDbLine
 10
256.4882520114431
 20
150.932365057989
 30
0.0
 11
256.4882520114431
 21
136.0766984564388
 31
0.0
  0
LWPOLYLINE
  5
21A6
330
1F
100
AcDbEntity
  8
SOLBET_Zbrojenie_Konstrukcja
100
AcDbPolyline
 90
        8
 70
     1
 43
0.0
 10
254.3882520114373
 20
148.3731705311847
 10
258.5882520114344
 20
148.3731705311847
 10
258.7382520114431
 20
148.5231705311844
 10
258.7382520114431
 20
150.1231705311847
 10
258.5882520114344
 20
150.2731705311844
 10
254.3882520114373
 20
150.2731705311844
 10
254.2382520114431
 20
150.1231705311847
 10
254.2382520114431
 20
148.5231705311844
  0
LINE
  5
21A7
330
1F
100
AcDbEntity
  8
SOLBET_Zbrojenie_Konstrukcja
100
AcDbLine
 10
281.7382520114431
 20
148.3731705311847
 30
0.0
 11
281.7382520114431
 21
140.173170531184
 31
0.0
  0
LINE
  5
21A8
330
1F
100
AcDbEntity
  8
SOLBET_Zbrojenie_Konstrukcja
100
AcDbLine
 10
281.2382520114286
 20
148.3731705311847
 30
0.0
 11
281.2382520114286
 21
140.173170531184
 31
0.0
  0
LWPOLYLINE
  5
21A9
330
1F
100
AcDbEntity
  8
SOLBET_Zbrojenie_Konstrukcja
100
AcDbPolyline
 90
        8
 70
     1
 43
0.0
 10
279.3882520114373
 20
138.2731705311844
 10
283.5882520114344
 20
138.2731705311844
 10
283.7382520114431
 20
138.423170531184
 10
283.7382520114431
 20
140.0231705311844
 10
283.5882520114344
 20
140.173170531184
 10
279.3882520114373
 20
140.173170531184
 10
279.2382520114431
 20
140.0231705311844
 10
279.2382520114431
 20
138.423170531184
  0
LINE
  5
21AA
330
1F
100
AcDbEntity
  8
SOLBET_Wymiary_Opisy
  6
STRICHPUNKT
100
AcDbLine
 10
281.4882520114431
 20
150.932365057989
 30
0.0
 11
281.4882520114431
 21
136.0766984564388
 31
0.0
  0
LWPOLYLINE
  5
21AB
330
1F
100
AcDbEntity
  8
SOLBET_Zbrojenie_Konstrukcja
100
AcDbPolyline
 90
        8
 70
     1
 43
0.0
 10
279.3882520114373
 20
148.3731705311847
 10
283.5882520114344
 20
148.3731705311847
 10
283.7382520114431
 20
148.5231705311844
 10
283.7382520114431
 20
150.1231705311847
 10
283.5882520114344
 20
150.2731705311844
 10
279.3882520114373
 20
150.2731705311844
 10
279.2382520114431
 20
150.1231705311847
 10
279.2382520114431
 20
148.5231705311844
  0
LINE
  5
21AC
330
1F
100
AcDbEntity
  8
SOLBET_Izolacja
100
AcDbLine
 10
231.7382520114431
 20
148.2731705311844
 30
0.0
 11
256.2382520114286
 21
148.2731705311844
 31
0.0
  0
LINE
  5
21AE
330
1F
100
AcDbEntity
  8
SOLBET_Izolacja
100
AcDbLine
 10
256.7382520114431
 20
148.2731705311844
 30
0.0
 11
281.2382520114286
 21
148.2731705311844
 31
0.0
  0
LINE
  5
21B0
330
1F
100
AcDbEntity
  8
SOLBET_Izolacja
100
AcDbLine
 10
281.7382520114431
 20
148.2731705311844
 30
0.0
 11
289.2371734873402
 21
148.2731705311844
 31
0.0
  0
LINE
  5
21B9
330
1F
100
AcDbEntity
  8
SOLBET_Izolacja
100
AcDbLine
 10
59.10376620655984
 20
179.988822131866
 30
0.0
 11
59.10376620655984
 21
120.5496786927551
 31
0.0
  0
LINE
  5
21BA
330
1F
100
AcDbEntity
  8
SOLBET_Zaprawy
100
AcDbLine
 10
58.82044440003915
 20
120.5496786927551
 30
0.0
 11
58.82044440003915
 21
179.988822131866
 31
0.0
  0
LINE
  5
21BB
330
1F
100
AcDbEntity
  8
SOLBET_Tynki_Posadzki
100
AcDbLine
 10
58.35376620657439
 20
120.5496786927551
 30
0.0
 11
58.35376620657439
 21
179.988822131866
 31
0.0
  0
LINE
  5
21BC
330
1F
100
AcDbEntity
  8
SOLBET_Zbrojenie_Konstrukcja
100
AcDbLine
 10
59.41722568937507
 20
169.608447120464
 30
0.0
 11
59.41722568937507
 21
166.3592324862811
 31
0.0
  0
LINE
  5
21BD
330
1F
100
AcDbEntity
  8
SOLBET_Zbrojenie_Konstrukcja
100
AcDbLine
 10
59.04217430701351
 20
167.9838398033744
 30
0.0
 11
72.79404817577847
 21
167.9838398033744
 31
0.0
  0
LINE
  5
21BE
330
1F
100
AcDbEntity
  8
SOLBET_Zbrojenie_Konstrukcja
100
AcDbLine
 10
59.41722568937507
 20
133.2055398856873
 30
0.0
 11
59.41722568937507
 21
129.9563252515045
 31
0.0
  0
LINE
  5
21BF
330
1F
100
AcDbEntity
  8
SOLBET_Zbrojenie_Konstrukcja
100
AcDbLine
 10
59.04217430701351
 20
131.5809325685959
 30
0.0
 11
72.79404817577847
 21
131.5809325685959
 31
0.0
  0
LINE
  5
21C1
330
1F
100
AcDbEntity
  8
SOLBET_Wymiary_Opisy
100
AcDbLine
 10
206.312276009771
 20
179.988822131866
 30
0.0
 11
289.2371734873402
 21
179.988822131866
 31
0.0
  0
LINE
  5
21C4
330
1F
100
AcDbEntity
  8
SOLBET_Wymiary_Opisy
100
AcDbLine
 10
206.312276009771
 20
120.5496786927551
 30
0.0
 11
289.2371734873402
 21
120.5496786927551
 31
0.0
  0
LWPOLYLINE
  5
21C7
330
1F
100
AcDbEntity
  8
SOLBET_Zbrojenie_Konstrukcja
100
AcDbPolyline
 90
        2
 70
     1
 43
0.3
 10
220.8816169579466
 20
130.3463641171961
 42
1.0
 10
221.1816169579349
 20
130.3463641171961
 42
1.0
  0
LWPOLYLINE
  5
21C8
330
1F
100
AcDbEntity
  8
SOLBET_Zbrojenie_Konstrukcja
100
AcDbPolyline
 90
        2
 70
     1
 43
0.3
 10
220.9456445746425
 20
136.9518473429698
 42
1.0
 10
221.2456445746454
 20
136.9518473429698
 42
1.0
  0
LINE
  5
21C9
330
1F
100
AcDbEntity
  8
SOLBET_Zbrojenie_Konstrukcja
100
AcDbLine
 10
223.3905646459123
 20
135.8628808301355
 30
0.0
 11
221.8351357015734
 21
137.4183097744744
 31
0.0
  0
LINE
  5
21CA
330
1F
100
AcDbEntity
  8
SOLBET_Zbrojenie_Konstrukcja
100
AcDbLine
 10
222.1905646459152
 20
134.6628808301348
 30
0.0
 11
220.712323466835
 21
136.141122009215
 31
0.0
  0
LWPOLYLINE
  5
21CB
330
1F
100
AcDbEntity
  8
SOLBET_Zbrojenie_Konstrukcja
100
AcDbPolyline
 90
        2
 70
     1
 43
0.3
 10
224.9219624329369
 20
130.3562755703335
 42
-1.0
 10
224.621962432934
 20
130.3562755703335
 42
-1.0
  0
LWPOLYLINE
  5
21CC
330
1F
100
AcDbEntity
  8
SOLBET_Zbrojenie_Konstrukcja
100
AcDbPolyline
 90
        2
 70
     1
 43
0.3
 10
224.8579348162264
 20
136.8809979587831
 42
-1.0
 10
224.5579348162234
 20
136.8809979587831
 42
-1.0
  0
LINE
  5
21D1
330
1F
100
AcDbEntity
  8
SOLBET_Izolacja
100
AcDbLine
 10
209.2382520114431
 20
179.988822131866
 30
0.0
 11
209.2382520114431
 21
120.5496786927551
 31
0.0
  0
LINE
  5
21D2
330
1F
100
AcDbEntity
  8
SOLBET_Zaprawy
100
AcDbLine
 10
208.9549302049079
 20
120.5496786927551
 30
0.0
 11
208.9549302049079
 21
179.988822131866
 31
0.0
  0
LINE
  5
21D3
330
1F
100
AcDbEntity
  8
SOLBET_Tynki_Posadzki
100
AcDbLine
 10
208.4882520114431
 20
120.5496786927551
 30
0.0
 11
208.4882520114431
 21
179.988822131866
 31
0.0
  0
LINE
  5
21D4
330
1F
100
AcDbEntity
  8
SOLBET_Zbrojenie_Konstrukcja
100
AcDbLine
 10
209.5517114942438
 20
169.608447120464
 30
0.0
 11
209.5517114942438
 21
166.3592324862811
 31
0.0
  0
LINE
  5
21D5
330
1F
100
AcDbEntity
  8
SOLBET_Zbrojenie_Konstrukcja
100
AcDbLine
 10
209.1766601118968
 20
167.9838398033744
 30
0.0
 11
222.9285339806472
 21
167.9838398033744
 31
0.0
  0
LINE
  5
21D6
330
1F
100
AcDbEntity
  8
SOLBET_Zbrojenie_Konstrukcja
100
AcDbLine
 10
209.5517114942438
 20
133.2055398856873
 30
0.0
 11
209.5517114942438
 21
129.9563252515045
 31
0.0
  0
LINE
  5
21D7
330
1F
100
AcDbEntity
  8
SOLBET_Zbrojenie_Konstrukcja
100
AcDbLine
 10
209.1766601118968
 20
131.5809325685959
 30
0.0
 11
222.9285339806472
 21
131.5809325685959
 31
0.0
  0
LWPOLYLINE
  5
21DD
330
1F
100
AcDbEntity
  8
SOLBET_Ramka_05
100
AcDbPolyline
 90
        4
 70
     1
 43
0.0
 10
0.1546818545211863
 20
-0.0000000000000568
 10
334.5064559466111
 20
-0.0000000000000568
 10
334.5064559466111
 20
296.9999999999999
 10
0.1546818545211863
 20
296.9999999999999
  0
MTEXT
  5
21DE
102
{ACAD_XDICTIONARY
360
21DF
102
}
330
1F
100
AcDbEntity
  8
SOLBET_Wymiary_Opisy @ 1
100
AcDbMText
 10
14.45087982633754
 20
289.8967110907779
 30
0.0
 40
5.0
 41
242.1676093526276
 71
     1
 72
     5
  1
{\LDETAL 70\P}Oparcie stropu na belkach drewnianych na \U+015Bcianie warstwowej
  7
Solbet_5
 73
     1
 44
1.0
1001
AcadAnnotative
1000
AnnotativeData
1002
{
1070
     1
1070
     0
1002
}
1001
ACAD
1000
MTEXTBEGIN
1070
    73
1070
     1
1070
    44
1040
1.0
1070
    74
1070
     0
1000
MTEXTEND
  0
MTEXT
  5
21F3
102
{ACAD_XDICTIONARY
360
21F4
102
}
330
1F
100
AcDbEntity
  8
SOLBET_Wymiary_Opisy @ 1
100
AcDbMText
 10
47.09296580541445
 20
221.8872617796002
 30
0.0
 40
5.0
 41
124.2624847080697
 71
     1
 72
     5
  1
Na \U+015Bcianie zewn\U+0119trznej\Pprostopad\U+0142ej do kierunku oparcia belek
  7
Solbet_5
 73
     1
 44
1.0
1001
AcadAnnotative
1000
AnnotativeData
1002
{
1070
     1
1070
     0
1002
}
1001
ACAD
1000
MTEXTBEGIN
1070
    73
1070
     1
1070
    44
1040
1.0
1070
    74
1070
     0
1000
MTEXTEND
  0
MTEXT
  5
21F8
102
{ACAD_XDICTIONARY
360
21F9
102
}
330
1F
100
AcDbEntity
  8
SOLBET_Wymiary_Opisy @ 1
100
AcDbMText
 10
200.4240030878297
 20
222.3872617796003
 30
0.0
 40
5.0
 41
124.2624847080697
 71
     1
 72
     5
  1
Na \U+015Bcianie zewn\U+0119trznej\Pr\U+00F3wnoleg\U+0142ej do kierunku oparcia belek
  7
Solbet_5
 73
     1
 44
1.0
1001
AcadAnnotative
1000
AnnotativeData
1002
{
1070
     1
1070
     0
1002
}
1001
ACAD
1000
MTEXTBEGIN
1070
    73
1070
     1
1070
    44
1040
1.0
1070
    74
1070
     0
1000
MTEXTEND
  0
LWPOLYLINE
  5
2245
330
1F
100
AcDbEntity
  8
SOLBET_Bloczki
100
AcDbPolyline
 90
        4
 70
     0
 43
0.0
 10
66.60376620655984
 20
120.5496786927551
 10
66.60376620655984
 20
126.2731705311844
 10
78.60376620655983
 20
126.2731705311844
 10
78.60376620655983
 20
120.5496786927551
  0
LWPOLYLINE
  5
224C
330
1F
100
AcDbEntity
  8
SOLBET_Bloczki
100
AcDbPolyline
 90
        4
 70
     0
 43
0.0
 10
66.60376620655916
 20
179.9888221683028
 10
66.60376620655916
 20
174.2731704899971
 10
78.60376638230832
 20
174.2731704899971
 10
78.60376620657439
 20
179.988822131866
  0
LWPOLYLINE
  5
224D
330
1F
100
AcDbEntity
  8
SOLBET_Bloczki
100
AcDbPolyline
 90
        4
 70
     0
 43
0.0
 10
216.7382520114425
 20
179.9888221683028
 10
216.7382520114431
 20
174.2731705311845
 10
228.7382520114431
 20
174.2731704899971
 10
228.7382520114431
 20
179.988822131866
  0
LWPOLYLINE
  5
224E
330
1F
100
AcDbEntity
  8
SOLBET_Bloczki
100
AcDbPolyline
 90
        4
 70
     0
 43
0.0
 10
216.7382520114425
 20
120.5496787291907
 10
216.7382520114425
 20
126.2731705311844
 10
228.7382520114431
 20
126.2731705311844
 10
228.7382520114431
 20
120.5496786927551
  0
HATCH
  5
2272
102
{ACAD_XDICTIONARY
360
2580
102
}
330
1F
100
AcDbEntity
  8
SOLBET_Zbrojenie_Konstrukcja
 62
     7
100
AcDbHatch
 10
0.0
 20
0.0
 30
0.0
210
0.0
220
0.0
230
1.0
  2
SOLID
 70
     1
 71
     1
 91
        2
 92
        1
 93
       16
 72
     2
 10
69.43596601189213
 20
150.4520292795618
 40
0.1527030440125176
 50
232.4805170884664
 51
252.3561576054618
 73
     1
 72
     2
 10
69.48915798734737
 20
150.6192675180653
 40
0.3281966754370635
 50
252.3561576028207
 51
262.4947782683767
 73
     1
 72
     2
 10
69.52442597317388
 20
150.8869659381764
 40
0.5982082954726878
 50
262.4947782694562
 51
270.0000000005512
 73
     1
 72
     2
 10
69.52442597319258
 20
150.8869659382888
 40
0.5982082955850104
 50
269.99999999876
 51
277.5052217298377
 73
     1
 72
     2
 10
69.5596939590268
 20
150.6192675180637
 40
0.3281966754354397
 50
277.5052217315981
 51
287.6438423972045
 73
     1
 72
     2
 10
69.61288593447331
 20
150.4520292795224
 40
0.1527030439774604
 50
287.6438424020175
 51
307.5194829187087
 73
     1
 72
     2
 10
69.69171741080993
 20
150.3493664003949
 40
0.0232655362288987
 50
307.5194829213265
 51
360.0000000079793
 73
     1
 72
     2
 10
69.69171741080796
 20
150.3493664004022
 40
0.0232655362308805
 50
359.9999999899209
 51
412.4805170762646
 73
     1
 72
     2
 10
69.61288593447983
 20
150.2467035212773
 40
0.1527030439722062
 50
52.48051708286226
 51
72.35615759992372
 73
     1
 72
     2
 10
69.55969395902537
 20
150.0794652827261
 40
0.3281966754419953
 50
72.35615760289665
 51
82.49477826829995
 73
     1
 72
     2
 10
69.52442597317911
 20
149.8117668625145
 40
0.5982082955797809
 50
82.49477826879489
 51
89.99999999994965
 73
     1
 72
     2
 10
69.5244259731883
 20
149.8117668626121
 40
0.5982082954821806
 50
90.00000000083025
 51
97.50522173181751
 73
     1
 72
     2
 10
69.48915798734661
 20
150.0794652827343
 40
0.3281966754336126
 50
97.50522173157007
 51
107.643842397233
 73
     1
 72
     2
 10
69.43596601188804
 20
150.2467035212332
 40
0.1527030440124141
 50
107.643842392939
 51
127.5194829096271
 73
     1
 72
     2
 10
69.35713453554898
 20
150.3493664003974
 40
0.0232655362332359
 50
127.5194829120216
 51
174.8627062185139
 73
     1
 72
     2
 10
69.35713453554723
 20
150.3493664003995
 40
0.0232655362313159
 50
174.8627062232872
 51
232.4805170897727
 73
     1
 97
        1
330
2156
 92
        1
 93
       16
 72
     2
 10
74.87166898181655
 20
150.4520292795618
 40
0.1527030440125176
 50
52.48051708846642
 51
72.35615760546181
 73
     0
 72
     2
 10
74.81847700636859
 20
150.6192675179833
 40
0.3281966753566917
 50
72.3561575996908
 51
82.49477826524698
 73
     0
 72
     2
 10
74.78320902054209
 20
150.8869659382874
 40
0.5982082955836177
 50
82.49477827015303
 51
90.0000000012481
 73
     0
 72
     2
 10
74.78320902052338
 20
150.8869659381779
 40
0.5982082954740804
 50
89.99999999945691
 51
97.50522173053449
 73
     0
 72
     2
 10
74.74794103469644
 20
150.6192675180637
 40
0.3281966754354397
 50
97.50522173159811
 51
107.6438423972044
 73
     0
 72
     2
 10
74.69474905924265
 20
150.4520292795639
 40
0.1527030440148529
 50
107.6438423946903
 51
127.5194829113786
 73
     0
 72
     2
 10
74.61591758289876
 20
150.3493664003949
 40
0.0232655362288987
 50
127.5194829213265
 51
180.0000000079793
 73
     0
 72
     2
 10
74.61591758290073
 20
150.3493664004022
 40
0.0232655362308805
 50
179.9999999899209
 51
232.4805170762646
 73
     0
 72
     2
 10
74.69474905923613
 20
150.2467035212358
 40
0.1527030440095721
 50
232.4805170901858
 51
252.3561576072477
 73
     0
 72
     2
 10
74.74794103469787
 20
150.0794652827261
 40
0.3281966754419953
 50
252.3561576028967
 51
262.4947782683
 73
     0
 72
     2
 10
74.78320902053686
 20
149.8117668626254
 40
0.598208295468851
 50
262.4947782680981
 51
269.9999999992527
 73
     0
 72
     2
 10
74.78320902052766
 20
149.8117668625012
 40
0.5982082955931105
 50
270.0000000001334
 51
277.5052217311207
 73
     0
 72
     2
 10
74.81847700636935
 20
150.0794652828163
 40
0.3281966753532687
 50
277.5052217346992
 51
287.6438424003613
 73
     0
 72
     2
 10
74.87166898182064
 20
150.2467035212332
 40
0.1527030440124141
 50
287.6438423929391
 51
307.5194829096272
 73
     0
 72
     2
 10
74.95050045815971
 20
150.3493664003974
 40
0.0232655362332359
 50
307.5194829120216
 51
354.8627062185139
 73
     0
 72
     2
 10
74.95050045816146
 20
150.3493664003995
 40
0.0232655362313159
 50
354.8627062232872
 51
412.4805170897727
 73
     0
 97
        1
330
2154
 75
     0
 76
     1
 98
        1
 10
963.9754106799689
 20
16.35289683583414
1001
ACAD
1010
0.0
1020
0.0
1030
0.0
  0
LINE
  5
2274
330
1F
100
AcDbEntity
  8
SOLBET_Tynki_Posadzki
100
AcDbLine
 10
139.1026876824714
 20
152.2731705311844
 30
0.0
 11
139.1026876824712
 21
150.2731705311844
 31
0.0
  0
LINE
  5
2276
330
1F
100
AcDbEntity
  8
SOLBET_Tynki_Posadzki
100
AcDbLine
 10
79.60376620655984
 20
150.2731705311844
 30
0.0
 11
79.60376620655984
 21
152.2731705262804
 31
0.0
  0
LINE
  5
2278
330
1F
100
AcDbEntity
  8
SOLBET_Izolacja
100
AcDbLine
 10
78.60376638230832
 20
152.2731705311844
 30
0.0
 11
79.60376620655984
 21
152.2731705262804
 31
0.0
  0
LINE
  5
2279
330
1F
100
AcDbEntity
  8
SOLBET_Izolacja
100
AcDbLine
 10
79.60376620655984
 20
152.2731705262804
 30
0.0
 11
79.60376620655984
 21
150.2731705311844
 31
0.0
  0
LINE
  5
227A
330
1F
100
AcDbEntity
  8
SOLBET_Izolacja
100
AcDbLine
 10
79.60376620655984
 20
150.2731705311844
 30
0.0
 11
78.60376620657439
 21
150.2731705262804
 31
0.0
  0
LINE
  5
227B
330
1F
100
AcDbEntity
  8
SOLBET_Izolacja
  6
BATTING
 48
0.049
100
AcDbLine
 10
79.10376620655984
 20
152.2731705311844
 30
0.0
 11
79.10376620656712
 21
150.3002766166351
 31
0.0
  0
LINE
  5
227D
330
1F
100
AcDbEntity
  8
SOLBET_Izolacja
100
AcDbLine
 10
228.7382520114431
 20
152.2731705262804
 30
0.0
 11
229.2382520114431
 21
152.2731705311844
 31
0.0
  0
LINE
  5
227E
330
1F
100
AcDbEntity
  8
SOLBET_Izolacja
100
AcDbLine
 10
228.7382520114431
 20
137.5231705311844
 30
0.0
 11
229.2382520114431
 21
137.5231705311844
 31
0.0
  0
LINE
  5
227F
330
1F
100
AcDbEntity
  8
SOLBET_Izolacja
100
AcDbLine
 10
228.7382520114431
 20
152.2731705262804
 30
0.0
 11
228.7382520114431
 21
137.5231705311844
 31
0.0
  0
LINE
  5
2280
330
1F
100
AcDbEntity
  8
SOLBET_Izolacja
  6
BATTING
 48
0.024
100
AcDbLine
 10
228.9882520114431
 20
137.5231705311844
 30
0.0
 11
228.9882520114431
 21
152.2731705311844
 31
0.0
  0
LINE
  5
2281
330
1F
100
AcDbEntity
  8
SOLBET_Izolacja
100
AcDbLine
 10
289.2371734873402
 20
148.2731705311844
 30
0.0
 11
289.2371734873402
 21
138.2731705311844
 31
0.0
  0
LINE
  5
2282
330
1F
100
AcDbEntity
  8
SOLBET_Izolacja
  6
BATTING
 48
0.47
100
AcDbLine
 10
289.2371734873402
 20
143.2731705311844
 30
0.0
 11
229.2382520114431
 21
143.2731705311844
 31
0.0
  0
LINE
  5
2283
330
1F
100
AcDbEntity
  8
SOLBET_Izolacja
100
AcDbLine
 10
209.2382520114431
 20
179.988822131866
 30
0.0
 11
216.7382520114425
 21
179.9888221683028
 31
0.0
  0
LINE
  5
2284
330
1F
100
AcDbEntity
  8
SOLBET_Izolacja
100
AcDbLine
 10
209.2382520114431
 20
120.5496786927551
 30
0.0
 11
216.7382520114425
 21
120.5496787291907
 31
0.0
  0
LINE
  5
2285
330
1F
100
AcDbEntity
  8
SOLBET_Izolacja
  6
BATTING
 48
0.35
100
AcDbLine
 10
212.9882520114428
 20
120.5496787109729
 30
0.0
 11
212.9882520114428
 21
179.988822131866
 31
0.0
  0
MTEXT
  5
22A7
330
1F
100
AcDbEntity
  8
SOLBET_Wymiary_Opisy
100
AcDbMText
 10
48.04790379950555
 20
175.880442417842
 30
0.0
 40
2.5
 41
0.0
 71
     3
 72
     1
  1
Zbrojenie MURFOR
  7
Solbet_2_5
 73
     1
 44
1.0
1001
ACAD
1000
MTEXTBEGIN
1070
    73
1070
     1
1070
    44
1040
1.0
1070
    74
1070
     0
1000
MTEXTEND
  0
LEADER
  5
22A8
330
1F
100
AcDbEntity
  8
SOLBET_Wymiary_Opisy
100
AcDbLeader
  3
Solbet$7
 73
     0
 75
     1
 40
3.25
 41
23.25
 76
     3
 10
67.95580702398706
 20
142.5480658482624
 30
0.0
 10
48.78367906115591
 20
159.7658991708754
 30
0.0
 10
46.28367906115591
 20
159.7658991708754
 30
0.0
340
22A9
213
1.177601578005123
223
-0.1753245211093599
233
0.0
1001
ACAD
1000
DSTYLE
1002
{
1070
   147
1040
0.625
1070
    77
1070
     1
1002
}
  0
MTEXT
  5
22A9
102
{ACAD_XDICTIONARY
360
2582
102
}
102
{ACAD_REACTORS
330
22A8
102
}
330
1F
100
AcDbEntity
  8
SOLBET_Wymiary_Opisy
100
AcDbMText
 10
44.48107748315078
 20
163.8162236919847
 30
0.0
 40
2.5
 41
0.0
 71
     3
 72
     1
  1
P\U+0142ytka SOLBET
  7
Solbet_2_5
 73
     1
 44
1.0
1001
ACAD
1000
MTEXTBEGIN
1070
    73
1070
     1
1070
    44
1040
1.0
1070
    74
1070
     0
1000
MTEXTEND
  0
LEADER
  5
22AA
330
1F
100
AcDbEntity
  8
SOLBET_Wymiary_Opisy
100
AcDbLeader
  3
Solbet$7
 73
     0
 75
     1
 40
3.25
 41
24.25
 76
     3
 10
72.12225765812878
 20
146.2695258345624
 30
0.0
 10
49.96487350871302
 20
122.4047505330272
 30
0.0
 10
47.46487350871302
 20
122.4047505330272
 30
0.0
340
22AB
213
1.177601578005123
223
-0.1753245211093599
233
0.0
1001
ACAD
1000
DSTYLE
1002
{
1070
   147
1040
0.625
1070
    77
1070
     1
1002
}
  0
MTEXT
  5
22AB
102
{ACAD_XDICTIONARY
360
2584
102
}
102
{ACAD_REACTORS
330
22AA
102
}
330
1F
100
AcDbEntity
  8
SOLBET_Wymiary_Opisy
100
AcDbMText
 10
45.6622719307079
 20
126.4550750541366
 30
0.0
 40
2.5
 41
0.0
 71
     3
 72
     1
  1
Blacha mocuj\U+0105ca
  7
Solbet_2_5
 73
     1
 44
1.0
1001
ACAD
1000
MTEXTBEGIN
1070
    73
1070
     1
1070
    44
1040
1.0
1070
    74
1070
     0
1000
MTEXTEND
  0
LEADER
  5
22AC
330
1F
100
AcDbEntity
  8
SOLBET_Wymiary_Opisy
100
AcDbLeader
  3
Solbet$7
 73
     0
 75
     1
 40
6.668560606060606
 41
40.0
 76
     3
 10
71.11915683287747
 20
131.1151309816205
 30
0.0
 10
51.97366915432962
 20
110.3422464638413
 30
0.0
 10
49.47366915432962
 20
110.3422464638413
 30
0.0
340
22AD
213
1.177601578005123
223
-0.1753245211093599
233
0.0
1001
ACAD
1000
DSTYLE
1002
{
1070
   147
1040
0.625
1070
    77
1070
     1
1002
}
  0
MTEXT
  5
22AD
102
{ACAD_XDICTIONARY
360
2586
102
}
102
{ACAD_REACTORS
330
22AC
102
}
330
1F
100
AcDbEntity
  8
SOLBET_Wymiary_Opisy
100
AcDbMText
 10
7.671067576324503
 20
117.8111315910113
 30
0.0
 40
2.5
 41
0.0
 71
     1
 72
     1
  1
Wieniec opuszczony\P w kszta\U+0142tkach U SOLBET
  7
Solbet_2_5
 73
     1
 44
1.0
1001
ACAD
1000
MTEXTBEGIN
1070
    73
1070
     1
1070
    44
1040
1.0
1070
    74
1070
     0
1000
MTEXTEND
  0
LEADER
  5
22AF
330
1F
100
AcDbEntity
  8
SOLBET_Wymiary_Opisy
100
AcDbLeader
  3
Solbet$7
 73
     0
 75
     1
 40
6.668560606060606
 41
38.5
 76
     3
 10
221.6971312868134
 20
131.5809325685959
 30
0.0
 10
208.4177502960106
 20
97.69543068254179
 30
0.0
 10
205.9177502960106
 20
97.69543068254179
 30
0.0
340
22B0
213
1.177601578005123
223
-0.1753245211093599
233
0.0
1001
ACAD
1000
DSTYLE
1002
{
1070
   147
1040
0.625
1070
    77
1070
     1
1002
}
  0
MTEXT
  5
22B0
102
{ACAD_XDICTIONARY
360
2588
102
}
102
{ACAD_REACTORS
330
22AF
102
}
330
1F
100
AcDbEntity
  8
SOLBET_Wymiary_Opisy
100
AcDbMText
 10
165.6151487180054
 20
105.1643158097117
 30
0.0
 40
2.5
 41
0.0
 71
     1
 72
     1
  1
Wieniec opuszczony\Pw kszta\U+0142tkach U SOLBET
  7
Solbet_2_5
 73
     1
 44
1.0
1001
ACAD
1000
MTEXTBEGIN
1070
    73
1070
     1
1070
    44
1040
1.0
1070
    74
1070
     0
1000
MTEXTEND
  0
LINE
  5
22B1
330
1F
100
AcDbEntity
  8
SOLBET_Izolacja
100
AcDbLine
 10
59.10376620655984
 20
179.988822131866
 30
0.0
 11
66.60376620655916
 21
179.9888221683028
 31
0.0
  0
LINE
  5
22B2
330
1F
100
AcDbEntity
  8
SOLBET_Izolacja
100
AcDbLine
 10
59.10376620655984
 20
120.5496786927551
 30
0.0
 11
66.60376620655984
 21
120.5496786927551
 31
0.0
  0
LINE
  5
22B3
330
1F
100
AcDbEntity
  8
SOLBET_Izolacja
  6
BATTING
 48
0.37
100
AcDbLine
 10
62.85376620655984
 20
120.5496786927551
 30
0.0
 11
62.85376591779026
 21
179.9888221500845
 31
0.0
  0
LINE
  5
22B7
330
1F
100
AcDbEntity
  8
SOLBET_Wymiary_Opisy
100
AcDbLine
 10
49.57780502249488
 20
171.8301178967326
 30
0.0
 11
22.30439329034402
 21
171.8301178967327
 31
0.0
1001
ACAD
1000
DSTYLE
1002
{
1070
   147
1040
0.625
1070
    77
1070
     1
1002
}
  0
INSERT
  5
22BA
330
1F
100
AcDbEntity
  8
SOLBET_Wymiary_Opisy
100
AcDbBlockReference
  2
_DotSmall
 10
72.20245443368435
 20
150.6427225671743
 30
0.0
 41
2.500000000000015
 42
2.5
 43
2.5
 50
319.2435247623254
1001
ACAD
1000
DSTYLE
1002
{
1070
   147
1040
0.625
1070
    77
1070
     1
1002
}
  0
LINE
  5
22BB
330
1F
100
AcDbEntity
  8
SOLBET_Wymiary_Opisy
100
AcDbLine
 10
72.20245443368435
 20
150.6427225671743
 30
0.0
 11
49.57780502249488
 21
171.8301178967326
 31
0.0
1001
ACAD
1000
DSTYLE
1002
{
1070
   147
1040
0.625
1070
    77
1070
     1
1002
}
  0
LWPOLYLINE
  5
234C
102
{ACAD_REACTORS
330
234F
102
}
330
1F
100
AcDbEntity
  8
SOLBET_Tynki_Posadzki
100
AcDbPolyline
 90
        4
 70
     1
 43
0.0
 10
79.60376620655984
 20
152.2731705262804
 10
139.1026876824714
 20
152.2731705311844
 10
139.1026876824712
 20
150.2731705311844
 10
79.60376620655984
 20
150.2731705262804
  0
LWPOLYLINE
  5
234D
330
1F
100
AcDbEntity
  8
SOLBET_Tynki_Posadzki
100
AcDbPolyline
 90
        2
 70
     0
 43
0.0
 10
79.60376620655984
 20
152.2731705311844
 10
79.60376620655984
 20
150.2731705311844
  0
HATCH
  5
234F
330
1F
100
AcDbEntity
  8
SOLBET_Tynki_Posadzki
100
AcDbHatch
 10
0.0
 20
0.0
 30
0.0
210
0.0
220
0.0
230
1.0
  2
AR-CONC
 70
     0
 71
     1
 91
        1
 92
        1
 93
        4
 72
     1
 10
79.60376620655984
 20
152.2731705262804
 11
139.1026876824714
 21
152.2731705311844
 72
     1
 10
139.1026876824714
 20
152.2731705311844
 11
139.1026876824712
 21
150.2731705311844
 72
     1
 10
139.1026876824712
 20
150.2731705311844
 11
79.60376620655984
 21
150.2731705262804
 72
     1
 10
79.60376620655984
 20
150.2731705262804
 11
79.60376620655984
 21
152.2731705262804
 97
        1
330
234C
 75
     0
 76
     1
 52
0.0
 41
0.048
 77
     0
 78
    13
 53
50.0
 43
0.0
 44
0.0
 45
8.744864111808192
 46
-0.7650761058673483
 79
     2
 49
0.9144000000000001
 49
-10.0584
 53
355.0
 43
0.0
 44
0.0
 45
-1.691655646832015
 46
9.170718858344638
 79
     2
 49
0.7315200000000001
 49
-8.046719999999998
 53
100.451
 43
0.7287360000000001
 44
-0.063756
 45
7.053240079966044
 46
8.40560101537401
 79
     2
 49
0.7771200000000001
 49
-8.54832
 53
46.1842
 43
0.0
 44
2.4384
 45
13.01179396282223
 46
-2.018031740770902
 79
     2
 49
1.371599999999999
 49
-15.0876
 53
96.6356
 43
1.0843152
 44
2.270232
 45
11.39540325437938
 46
11.87642668272236
 79
     2
 49
1.16568
 49
-12.82248
 53
351.184
 43
0.0
 44
2.4384
 45
11.39542107906883
 46
11.87640565730869
 79
     2
 49
1.09728
 49
-12.07008
 53
21.0
 43
1.2192
 44
1.8288
 45
7.277514232098397
 46
-4.9087448888046
 79
     2
 49
0.9144000000000001
 49
-10.0584
 53
326.0
 43
1.2192
 44
1.8288
 45
2.966497360687059
 46
8.841022373871325
 79
     2
 49
0.7315200000000001
 49
-8.046719999999998
 53
71.45140000000001
 43
1.825656
 44
1.419739199999999
 45
10.24399155696597
 46
3.932297170370757
 79
     2
 49
0.7771200000000001
 49
-8.54832
 53
37.5
 43
0.0
 44
0.0
 45
0.1482529560284072
 46
4.058641865911349
 79
     6
 49
0.0
 49
-7.949184
 49
0.0
 49
-8.168639999999999
 49
0.0
 49
-8.077200000000001
 53
7.499999999999999
 43
0.0
 44
0.0
 45
3.207343800494675
 46
4.808667591269736
 79
     6
 49
0.0
 49
-4.657343999999999
 49
0.0
 49
-7.766303999999999
 49
0.0
 49
-3.07848
 53
327.5
 43
-2.718815999999999
 44
0.0
 45
6.508348568009827
 46
-0.2749797116483259
 79
     6
 49
0.0
 49
-3.048
 49
0.0
 49
-9.509759999999999
 49
0.0
 49
-12.61872
 53
317.5
 43
-3.938016
 44
0.0
 45
7.110200706528866
 46
1.220471569599984
 79
     6
 49
0.0
 49
-3.9624
 49
0.0
 49
-6.315456
 49
0.0
 49
-8.961119999999999
 98
        1
 10
0.0
 20
0.0
1001
ACAD
1010
0.0
1020
0.0
1030
0.0
  0
LWPOLYLINE
  5
2356
102
{ACAD_REACTORS
330
2358
102
}
330
1F
100
AcDbEntity
  8
SOLBET_Tynki_Posadzki
100
AcDbPolyline
 90
        5
 70
     0
 43
0.0
 10
229.2382520114431
 20
152.2731705311844
 10
289.2371734873402
 20
152.2731705311844
 10
289.2371734873402
 20
150.2731705311844
 10
229.2382520114431
 20
150.2731705311844
 10
229.2382520114431
 20
152.2731705311844
  0
HATCH
  5
2358
330
1F
100
AcDbEntity
  8
SOLBET_Tynki_Posadzki
100
AcDbHatch
 10
0.0
 20
0.0
 30
0.0
210
0.0
220
0.0
230
1.0
  2
AR-CONC
 70
     0
 71
     1
 91
        1
 92
        1
 93
        4
 72
     1
 10
229.2382520114431
 20
152.2731705311844
 11
289.2371734873402
 21
152.2731705311844
 72
     1
 10
289.2371734873402
 20
152.2731705311844
 11
289.2371734873402
 21
150.2731705311844
 72
     1
 10
289.2371734873402
 20
150.2731705311844
 11
229.2382520114431
 21
150.2731705311844
 72
     1
 10
229.2382520114431
 20
150.2731705311844
 11
229.2382520114431
 21
152.2731705311844
 97
        1
330
2356
 75
     0
 76
     1
 52
0.0
 41
0.048
 77
     0
 78
    13
 53
50.0
 43
0.0
 44
0.0
 45
8.744864111808192
 46
-0.7650761058673483
 79
     2
 49
0.9144000000000001
 49
-10.0584
 53
355.0
 43
0.0
 44
0.0
 45
-1.691655646832015
 46
9.170718858344638
 79
     2
 49
0.7315200000000001
 49
-8.046719999999998
 53
100.451
 43
0.7287360000000001
 44
-0.063756
 45
7.053240079966044
 46
8.40560101537401
 79
     2
 49
0.7771200000000001
 49
-8.54832
 53
46.1842
 43
0.0
 44
2.4384
 45
13.01179396282223
 46
-2.018031740770902
 79
     2
 49
1.371599999999999
 49
-15.0876
 53
96.6356
 43
1.0843152
 44
2.270232
 45
11.39540325437938
 46
11.87642668272236
 79
     2
 49
1.16568
 49
-12.82248
 53
351.184
 43
0.0
 44
2.4384
 45
11.39542107906883
 46
11.87640565730869
 79
     2
 49
1.09728
 49
-12.07008
 53
21.0
 43
1.2192
 44
1.8288
 45
7.277514232098397
 46
-4.9087448888046
 79
     2
 49
0.9144000000000001
 49
-10.0584
 53
326.0
 43
1.2192
 44
1.8288
 45
2.966497360687059
 46
8.841022373871325
 79
     2
 49
0.7315200000000001
 49
-8.046719999999998
 53
71.45140000000001
 43
1.825656
 44
1.419739199999999
 45
10.24399155696597
 46
3.932297170370757
 79
     2
 49
0.7771200000000001
 49
-8.54832
 53
37.5
 43
0.0
 44
0.0
 45
0.1482529560284072
 46
4.058641865911349
 79
     6
 49
0.0
 49
-7.949184
 49
0.0
 49
-8.168639999999999
 49
0.0
 49
-8.077200000000001
 53
7.499999999999999
 43
0.0
 44
0.0
 45
3.207343800494675
 46
4.808667591269736
 79
     6
 49
0.0
 49
-4.657343999999999
 49
0.0
 49
-7.766303999999999
 49
0.0
 49
-3.07848
 53
327.5
 43
-2.718815999999999
 44
0.0
 45
6.508348568009827
 46
-0.2749797116483259
 79
     6
 49
0.0
 49
-3.048
 49
0.0
 49
-9.509759999999999
 49
0.0
 49
-12.61872
 53
317.5
 43
-3.938016
 44
0.0
 45
7.110200706528866
 46
1.220471569599984
 79
     6
 49
0.0
 49
-3.9624
 49
0.0
 49
-6.315456
 49
0.0
 49
-8.961119999999999
 98
        1
 10
0.0
 20
0.0
1001
ACAD
1010
0.0
1020
0.0
1030
0.0
  0
LWPOLYLINE
  5
23C6
330
1F
100
AcDbEntity
  8
SOLBET_Zbrojenie_Konstrukcja
100
AcDbPolyline
 90
        4
 70
     1
 43
0.0
 10
220.712323466835
 20
137.4183097744744
 10
225.0912559240485
 20
137.4183097744744
 10
225.0912559240485
 20
129.9564833015784
 10
220.712323466835
 20
129.9564833015784
  0
LWPOLYLINE
  5
23CD
330
1F
100
AcDbEntity
  8
SOLBET_Zbrojenie_Konstrukcja
100
AcDbPolyline
 90
        4
 70
     1
 43
0.0
 10
70.57783766195166
 20
137.4183097744744
 10
74.95677011916519
 20
137.4183097744744
 10
74.95677011916519
 20
129.9564833015784
 10
70.57783766195166
 20
129.9564833015784
  0
LINE
  5
23E5
330
1F
100
AcDbEntity
  8
SOLBET_Zbrojenie_Konstrukcja
100
AcDbLine
 10
69.71498294703883
 20
150.3493664003949
 30
0.0
 11
74.59265204666985
 21
150.3493664003949
 31
0.0
  0
INSERT
  5
24B4
330
1F
100
AcDbEntity
  8
SOLBET_Bloczki
100
AcDbBlockReference
  2
SOLBET_Ksztaltka_U_240x240x500_KG600_PRA
 10
66.60376638194612
 20
138.2731707219068
 30
0.0
 50
270.0
  0
INSERT
  5
24E0
330
1F
100
AcDbEntity
  8
SOLBET_Bloczki
100
AcDbBlockReference
  2
SOLBET_Ksztaltka_U_240x240x500_KG600_PRA
 10
216.7382521868294
 20
138.2731707219068
 30
0.0
 50
270.0
  0
INSERT
  5
24EF
330
1F
100
AcDbEntity
  8
SOLBET_Bloczki
100
AcDbBlockReference
  2
SOLBET_Plytka_60x240x590_KG600_PRA
 10
66.60376620655984
 20
138.2731705311844
 30
0.0
  0
INSERT
  5
24FF
330
1F
100
AcDbEntity
  8
SOLBET_Bloczki
100
AcDbBlockReference
  2
SOLBET_Bloczek_Optimal_240x240x590_G_KG600_PRA
 10
66.60376612465324
 20
150.2731706229219
 30
0.0
  0
INSERT
  5
2500
330
1F
100
AcDbEntity
  8
SOLBET_Bloczki
100
AcDbBlockReference
  2
SOLBET_Bloczek_Optimal_240x240x590_G_KG600_PRA
 10
66.60376630040173
 20
162.2731705817346
 30
0.0
  0
INSERT
  5
2501
330
1F
100
AcDbEntity
  8
SOLBET_Bloczki
100
AcDbBlockReference
  2
SOLBET_Bloczek_Optimal_240x240x590_G_KG600_PRA
 10
216.7382520114431
 20
138.2731705311844
 30
0.0
  0
INSERT
  5
2502
330
1F
100
AcDbEntity
  8
SOLBET_Bloczki
100
AcDbBlockReference
  2
SOLBET_Bloczek_Optimal_240x240x590_G_KG600_PRA
 10
216.7382521871916
 20
150.273170489997
 30
0.0
  0
INSERT
  5
2503
330
1F
100
AcDbEntity
  8
SOLBET_Bloczki
100
AcDbBlockReference
  2
SOLBET_Bloczek_Optimal_240x240x590_G_KG600_PRA
 10
216.7382523629401
 20
162.2731704488096
 30
0.0
  0
MTEXT
  5
253F
102
{ACAD_XDICTIONARY
360
2540
102
}
330
1F
100
AcDbEntity
  8
SOLBET_Wymiary_Opisy
100
AcDbMText
 10
301.4089451801028
 20
7.273150535415481
 30
0.0
 40
5.0
 41
0.0
 71
     1
 72
     5
  1
Skala 1:20
  7
Solbet_5
 73
     1
 44
1.0
1001
ACAD
1000
MTEXTBEGIN
1070
    73
1070
     1
1070
    44
1040
1.0
1070
    74
1070
     0
1000
MTEXTEND
1000
ACAD_MTEXT_DEFINED_HEIGHT_BEGIN
1070
    46
1040
5.395147572682731
1000
ACAD_MTEXT_DEFINED_HEIGHT_END
  0
LWPOLYLINE
  5
2542
330
1F
100
AcDbEntity
  8
SOLBET_Ramka_05
100
AcDbPolyline
 90
        4
 70
     1
 43
0.0
 10
298.390279059189
 20
9.804221198935408
 10
334.5064559466111
 20
9.804221198935408
 10
334.5064559466111
 20
-0.0000000000000568
 10
298.390279059189
 20
-0.0000000000000568
  0
ENDSEC
  0
SECTION
  2
OBJECTS
  0
DICTIONARY
  5
C
330
0
100
AcDbDictionary
281
     1
  3
ACAD_COLOR
350
6B
  3
ACAD_GROUP
350
D
  3
ACAD_LAYOUT
350
1A
  3
ACAD_MATERIAL
350
6A
  3
ACAD_MLEADERSTYLE
350
12D
  3
ACAD_MLINESTYLE
350
17
  3
ACAD_PLOTSETTINGS
350
19
  3
ACAD_PLOTSTYLENAME
350
E
  3
ACAD_SCALELIST
350
10C
  3
ACAD_TABLESTYLE
350
7E
  3
ACAD_VISUALSTYLE
350
EF
  3
ACDB_RECOMPOSE_DATA
350
15D
  3
AcDbVariableDictionary
350
5E
  3
DWGPROPS
350
2570
  0
DICTIONARY
  5
443
330
8
100
AcDbDictionary
280
     1
281
     1
  0
DICTIONARY
  5
3E5
330
2
100
AcDbDictionary
280
     1
281
     1
  3
ACAD_LAYERFILTERS
360
2251
  3
ACLYDICTIONARY
360
2250
  0
DICTIONARY
  5
13C
330
10
100
AcDbDictionary
280
     1
281
     1
  3
ADSK_XREC_LAYER_RECONCILED
360
3F4
  0
DICTIONARY
  5
403
330
3DD
100
AcDbDictionary
280
     1
281
     1
  3
ADSK_XREC_LAYER_RECONCILED
360
404
  0
DICTIONARY
  5
405
330
3DF
100
AcDbDictionary
280
     1
281
     1
  3
ADSK_XREC_LAYER_RECONCILED
360
406
  0
DICTIONARY
  5
409
330
3E1
100
AcDbDictionary
280
     1
281
     1
  3
ADSK_XREC_LAYER_RECONCILED
360
40A
  0
DICTIONARY
  5
40B
330
3E2
100
AcDbDictionary
280
     1
281
     1
  3
ADSK_XREC_LAYER_RECONCILED
360
40C
  0
DICTIONARY
  5
40F
330
3E4
100
AcDbDictionary
280
     1
281
     1
  3
ADSK_XREC_LAYER_RECONCILED
360
410
  0
DICTIONARY
  5
411
330
3E8
100
AcDbDictionary
280
     1
281
     1
  3
ADSK_XREC_LAYER_RECONCILED
360
412
  0
DICTIONARY
  5
246F
330
246E
100
AcDbDictionary
280
     1
281
     1
  3
ASDK_XREC_ANNO_SCALE_INFO
360
2470
  0
DICTIONARY
  5
4A3
330
1F
100
AcDbDictionary
280
     1
281
     1
  3
ACAD_SORTENTS
360
4A4
  0
DICTIONARY
  5
220A
330
21FF
100
AcDbDictionary
280
     1
281
     1
  3
ACAD_SORTENTS
360
220B
  0
DICTIONARY
  5
223D
330
222F
100
AcDbDictionary
280
     1
281
     1
  3
ACAD_SORTENTS
360
223E
  0
DICTIONARY
  5
226C
330
2262
100
AcDbDictionary
280
     1
281
     1
  3
ACAD_SORTENTS
360
226D
  0
DICTIONARY
  5
24B0
330
24A2
100
AcDbDictionary
280
     1
281
     1
  3
ACAD_SORTENTS
360
24B1
  0
DICTIONARY
  5
24EB
330
24E1
100
AcDbDictionary
280
     1
281
     1
  3
ACAD_SORTENTS
360
24EC
  0
DICTIONARY
  5
24FB
330
24F0
100
AcDbDictionary
280
     1
281
     1
  3
ACAD_SORTENTS
360
24FC
  0
DICTIONARY
  5
21DF
330
21DE
100
AcDbDictionary
280
     1
281
     1
  3
ACAD_MTEXT_RT
360
257D
  3
AcDbContextDataManager
360
21E0
  0
DICTIONARY
  5
21F4
330
21F3
100
AcDbDictionary
280
     1
281
     1
  3
ACAD_MTEXT_RT
360
257E
  3
AcDbContextDataManager
360
21F5
  0
DICTIONARY
  5
21F9
330
21F8
100
AcDbDictionary
280
     1
281
     1
  3
ACAD_MTEXT_RT
360
257F
  3
AcDbContextDataManager
360
21FA
  0
DICTIONARY
  5
2580
330
2272
100
AcDbDictionary
280
     1
281
     1
  3
ACAD_XREC_ROUNDTRIP
360
2581
  0
DICTIONARY
  5
2582
330
22A9
100
AcDbDictionary
280
     1
281
     1
  3
ACAD_MTEXT_RT
360
2583
  0
DICTIONARY
  5
2584
330
22AB
100
AcDbDictionary
280
     1
281
     1
  3
ACAD_MTEXT_RT
360
2585
  0
DICTIONARY
  5
2586
330
22AD
100
AcDbDictionary
280
     1
281
     1
  3
ACAD_MTEXT_RT
360
2587
  0
DICTIONARY
  5
2588
330
22B0
100
AcDbDictionary
280
     1
281
     1
  3
ACAD_MTEXT_RT
360
2589
  0
DICTIONARY
  5
2540
330
253F
100
AcDbDictionary
280
     1
281
     1
  3
ACAD_MTEXT_2008_RT
360
2541
  0
DICTIONARY
  5
6B
102
{ACAD_REACTORS
330
C
102
}
330
C
100
AcDbDictionary
281
     1
  0
DICTIONARY
  5
D
102
{ACAD_REACTORS
330
C
102
}
330
C
100
AcDbDictionary
281
     1
  0
DICTIONARY
  5
1A
102
{ACAD_REACTORS
330
C
102
}
330
C
100
AcDbDictionary
281
     1
  3
Arkusz1
350
D3
  3
Arkusz2
350
D7
  3
Model
350
22
  0
DICTIONARY
  5
6A
102
{ACAD_REACTORS
330
C
102
}
330
C
100
AcDbDictionary
281
     1
  3
ByBlock
350
ED
  3
ByLayer
350
EC
  3
Global
350
EE
  0
DICTIONARY
  5
12D
102
{ACAD_REACTORS
330
C
102
}
330
C
100
AcDbDictionary
281
     1
  3
Standard
350
12E
  0
DICTIONARY
  5
17
102
{ACAD_REACTORS
330
C
102
}
330
C
100
AcDbDictionary
281
     1
  3
SOLBET_IZOLACJA
350
7E9
  3
Standard
350
18
  0
DICTIONARY
  5
19
102
{ACAD_REACTORS
330
C
102
}
330
C
100
AcDbDictionary
281
     1
  0
ACDBDICTIONARYWDFLT
  5
E
102
{ACAD_REACTORS
330
C
102
}
330
C
100
AcDbDictionary
281
     1
  3
Normal
350
F
100
AcDbDictionaryWithDefault
340
F
  0
DICTIONARY
  5
10C
102
{ACAD_REACTORS
330
C
102
}
330
C
100
AcDbDictionary
281
     1
  3
A0
350
10D
  3
A1
350
188
  3
A2
350
189
  3
A3
350
18A
  3
A4
350
18B
  3
A5
350
18C
  3
A6
350
18D
  3
A7
350
18E
  3
A8
350
18F
  3
A9
350
190
  3
B0
350
191
  3
B1
350
192
  3
B2
350
193
  3
B3
350
194
  3
B4
350
195
  3
B5
350
196
  3
B6
350
197
  3
B7
350
198
  3
B8
350
199
  3
B9
350
19A
  3
C0
350
19B
  3
C1
350
19C
  3
C2
350
19D
  3
C3
350
19E
  3
C4
350
19F
  3
C5
350
1A0
  3
C6
350
1A1
  3
C7
350
1A2
  3
C8
350
1A3
  3
C9
350
1A4
  3
D0
350
1A5
  3
D1
350
1A6
  3
D2
350
1A7
  0
DICTIONARY
  5
7E
102
{ACAD_REACTORS
330
C
102
}
330
C
100
AcDbDictionary
281
     1
  3
Standard
350
7F
  0
DICTIONARY
  5
EF
102
{ACAD_REACTORS
330
C
102
}
330
C
100
AcDbDictionary
281
     1
  3
2dWireframe
350
F5
  3
3D Hidden
350
F7
  3
3dWireframe
350
F6
  3
Basic
350
F4
  3
Brighten
350
FB
  3
ColorChange
350
FF
  3
Conceptual
350
F8
  3
Dim
350
FA
  3
Facepattern
350
FE
  3
Flat
350
F0
  3
FlatWithEdges
350
F1
  3
Gouraud
350
F2
  3
GouraudWithEdges
350
F3
  3
Linepattern
350
FD
  3
Realistic
350
F9
  3
Thicken
350
FC
  0
XRECORD
  5
15D
102
{ACAD_REACTORS
330
C
102
}
330
C
100
AcDbXrecord
280
     1
 90
        1
330
7F
330
21DE
330
21F3
330
21F8
  0
DICTIONARY
  5
5E
102
{ACAD_REACTORS
330
C
102
}
330
C
100
AcDbDictionary
281
     1
  3
CANNOSCALE
350
146
  3
CMLEADERSTYLE
350
145
  3
CTABLESTYLE
350
84
  3
DIMASSOC
350
5F
  3
HIDETEXT
350
63
  3
INDEXCTL
350
466
  3
LIGHTINGUNITS
350
464
  3
MSLTSCALE
350
463
  3
PSOLHEIGHT
350
256F
  3
PSOLWIDTH
350
256E
  3
SORTENTS
350
465
  0
XRECORD
  5
2570
102
{ACAD_REACTORS
330
C
102
}
330
C
100
AcDbXrecord
280
     1
  1
DWGPROPS COOKIE
  2

  3

  4

  6

  7

  8
Olus
  9

300
=
301
=
302
=
303
=
304
=
305
=
306
=
307
=
308
=
309
=
 40
0.4854790277777778
 41
2454690.075573148
 42
2454848.880338993
  1

 90
        0
  0
DICTIONARY
  5
2251
102
{ACAD_REACTORS
330
3E5
102
}
330
3E5
100
AcDbDictionary
281
     1
  0
DICTIONARY
  5
2250
102
{ACAD_REACTORS
330
3E5
102
}
330
3E5
100
AcDbDictionary
281
     1
1001
ACAD
1000
<All
  0
XRECORD
  5
3F4
102
{ACAD_REACTORS
330
13C
102
}
330
13C
100
AcDbXrecord
280
     1
290
     1
  0
XRECORD
  5
404
102
{ACAD_REACTORS
330
403
102
}
330
403
100
AcDbXrecord
280
     1
290
     1
  0
XRECORD
  5
406
102
{ACAD_REACTORS
330
405
102
}
330
405
100
AcDbXrecord
280
     1
290
     1
  0
XRECORD
  5
40A
102
{ACAD_REACTORS
330
409
102
}
330
409
100
AcDbXrecord
280
     1
290
     1
  0
XRECORD
  5
40C
102
{ACAD_REACTORS
330
40B
102
}
330
40B
100
AcDbXrecord
280
     1
290
     1
  0
XRECORD
  5
410
102
{ACAD_REACTORS
330
40F
102
}
330
40F
100
AcDbXrecord
280
     1
290
     1
  0
XRECORD
  5
412
102
{ACAD_REACTORS
330
411
102
}
330
411
100
AcDbXrecord
280
     1
290
     1
  0
XRECORD
  5
2470
102
{ACAD_REACTORS
330
246F
102
}
330
246F
100
AcDbXrecord
280
     1
 70
     1
340
10D
340
3DF
 70
    -1
  0
SORTENTSTABLE
  5
4A4
102
{ACAD_REACTORS
330
4A3
102
}
330
4A3
100
AcDbSortentsTable
330
1F
331
22A9
  5
22AB
331
22B1
  5
22B3
331
218F
  5
218C
331
21D6
  5
21D6
331
2197
  5
2199
331
2160
  5
2157
331
21DE
  5
21F3
331
219F
  5
21A0
331
2168
  5
2167
331
21A7
  5
21A8
331
2272
  5
2152
331
227A
  5
224D
331
2282
  5
2277
331
2170
  5
216F
331
2178
  5
2177
331
2141
  5
234D
331
21BF
  5
21C4
331
2149
  5
2147
331
21C7
  5
21C6
331
22AA
  5
22AC
331
22B2
  5
22B4
331
2188
  5
2186
331
2190
  5
218E
331
21D7
  5
21DB
331
2198
  5
219A
331
21A0
  5
21A1
331
2169
  5
2168
331
22BA
  5
2350
331
227B
  5
224E
331
2283
  5
2278
331
21A8
  5
21A9
331
21B0
  5
21B9
331
2179
  5
2178
331
22AB
  5
22AD
331
224C
  5
22B7
331
22B3
  5
22B5
331
21C8
  5
21C7
331
2189
  5
2187
331
2191
  5
218F
331
22BB
  5
2353
331
2274
  5
221A
331
2284
  5
2279
331
21A9
  5
21AA
331
21F8
  5
2211
331
217A
  5
2179
331
21B9
  5
21BA
331
21C1
  5
2284
331
214B
  5
2149
331
2245
  5
22B6
331
22AC
  5
22AF
331
224D
  5
2281
331
21C9
  5
21C8
331
21D1
  5
21D0
331
215B
  5
234E
331
2192
  5
2190
331
219A
  5
219B
331
21A2
  5
21A3
331
234C
  5
2217
331
227D
  5
2271
331
2285
  5
227A
331
21AA
  5
21AB
331
217B
  5
217A
331
21BA
  5
21BB
331
2144
  5
2142
331
2183
  5
2181
331
22AD
  5
22B0
331
224E
  5
2282
331
21CA
  5
21CD
331
2154
  5
2153
331
21D2
  5
21D1
331
219B
  5
219C
331
2164
  5
2163
331
21A3
  5
21A4
331
2276
  5
2244
331
234D
  5
2354
331
227E
  5
2272
331
21AB
  5
21AC
331
2174
  5
2173
331
217C
  5
217B
331
21BB
  5
21BC
331
2145
  5
2143
331
2184
  5
2183
331
214D
  5
214B
331
21CB
  5
21CE
331
21D3
  5
21D2
331
219C
  5
219D
331
2165
  5
2164
331
21A4
  5
21A5
331
227F
  5
2273
331
2356
  5
2358
331
21F3
  5
220E
331
21AC
  5
21B4
331
2175
  5
2174
331
217D
  5
217C
331
21BC
  5
21BD
331
2185
  5
2184
331
21C4
  5
2285
331
22A7
  5
22A9
331
22AF
  5
22B1
331
22B7
  5
22A8
331
21CC
  5
21CF
331
2156
  5
2156
331
218D
  5
218A
331
21D4
  5
21D3
331
219D
  5
219E
331
2166
  5
2165
331
21A5
  5
21A6
331
216E
  5
2169
331
2278
  5
2245
331
234F
  5
2214
331
2280
  5
2274
331
2176
  5
2175
331
217E
  5
217D
331
21BD
  5
21C2
331
2186
  5
2185
331
22A8
  5
22AA
331
22B0
  5
22B2
331
21D5
  5
21D5
331
21DD
  5
21DC
331
219E
  5
219F
331
2167
  5
2166
331
21A6
  5
21A7
331
216F
  5
216A
331
2279
  5
224C
331
2358
  5
2357
331
2281
  5
2276
331
21AE
  5
21B5
331
2177
  5
2176
331
2140
  5
234F
331
21BE
  5
21C3
331
2187
  5
2283
  0
SORTENTSTABLE
  5
220B
102
{ACAD_REACTORS
330
220A
102
}
330
220A
100
AcDbSortentsTable
330
21FF
  0
SORTENTSTABLE
  5
223E
102
{ACAD_REACTORS
330
223D
102
}
330
223D
100
AcDbSortentsTable
330
222F
  0
SORTENTSTABLE
  5
226D
102
{ACAD_REACTORS
330
226C
102
}
330
226C
100
AcDbSortentsTable
330
2262
  0
SORTENTSTABLE
  5
24B1
102
{ACAD_REACTORS
330
24B0
102
}
330
24B0
100
AcDbSortentsTable
330
24A2
  0
SORTENTSTABLE
  5
24EC
102
{ACAD_REACTORS
330
24EB
102
}
330
24EB
100
AcDbSortentsTable
330
24E1
  0
SORTENTSTABLE
  5
24FC
102
{ACAD_REACTORS
330
24FB
102
}
330
24FB
100
AcDbSortentsTable
330
24F0
  0
XRECORD
  5
257D
102
{ACAD_REACTORS
330
21DF
102
}
330
21DF
100
AcDbXrecord
280
     1
 40
294336.0
  1
{\LDETAL 70\P}Oparcie stropu na belkach drewnianych na ścianie warstwowej
  0
DICTIONARY
  5
21E0
102
{ACAD_REACTORS
330
21DF
102
}
330
21DF
100
AcDbDictionary
281
     1
  3
ACDB_ANNOTATIONSCALES
350
21E1
  0
XRECORD
  5
257E
102
{ACAD_REACTORS
330
21F4
102
}
330
21F4
100
AcDbXrecord
280
     1
 40
297666.0
  1
Na ścianie zewnętrznej\Pprostopadłej do kierunku oparcia belek
  0
DICTIONARY
  5
21F5
102
{ACAD_REACTORS
330
21F4
102
}
330
21F4
100
AcDbDictionary
281
     1
  3
ACDB_ANNOTATIONSCALES
350
21F6
  0
XRECORD
  5
257F
102
{ACAD_REACTORS
330
21F9
102
}
330
21F9
100
AcDbXrecord
280
     1
 40
325626.0
  1
Na ścianie zewnętrznej\Prównoległej do kierunku oparcia belek
  0
DICTIONARY
  5
21FA
102
{ACAD_REACTORS
330
21F9
102
}
330
21F9
100
AcDbDictionary
281
     1
  3
ACDB_ANNOTATIONSCALES
350
21FB
  0
XRECORD
  5
2581
102
{ACAD_REACTORS
330
2580
102
}
330
2580
100
AcDbXrecord
280
     1
102
Gradient1
1004
7B0000000200000001000000000000000000000000000000000000000000000001000000000000000000F03F0200000000000000000000001800000001000000FFFFFFC2000000000000000000000000000000000000F03F1800000001000000FFFFFFC2000000000000000000000000070000004C494E45415200
  0
XRECORD
  5
2583
102
{ACAD_REACTORS
330
2582
102
}
330
2582
100
AcDbXrecord
280
     1
 40
14518.0
  1
Płytka SOLBET
  0
XRECORD
  5
2585
102
{ACAD_REACTORS
330
2584
102
}
330
2584
100
AcDbXrecord
280
     1
 40
18235.0
  1
Blacha mocująca
  0
XRECORD
  5
2587
102
{ACAD_REACTORS
330
2586
102
}
330
2586
100
AcDbXrecord
280
     1
 40
100924.0
  1
Wieniec opuszczony\P w kształtkach U SOLBET
  0
XRECORD
  5
2589
102
{ACAD_REACTORS
330
2588
102
}
330
2588
100
AcDbXrecord
280
     1
 40
97996.0
  1
Wieniec opuszczony\Pw kształtkach U SOLBET
  0
XRECORD
  5
2541
102
{ACAD_REACTORS
330
2540
102
}
330
2540
100
AcDbXrecord
280
     1
 40
24748.0
  1
\pxqc;C\P(5 : 1)
  0
LAYOUT
  5
D3
102
{ACAD_XDICTIONARY
360
2574
102
}
102
{ACAD_REACTORS
330
1A
102
}
330
1A
100
AcDbPlotSettings
  1

  2
C:\Documents and Settings\basas\Application Data\Autodesk\AutoCAD 2005\R16.1\enu\plotters\Default Windows System Printer.pc3
  4

  6

 40
0.0
 41
0.0
 42
0.0
 43
0.0
 44
0.0
 45
0.0
 46
0.0
 47
0.0
 48
0.0
 49
0.0
140
0.0
141
0.0
142
1.0
143
1.0
 70
   688
 72
     0
 73
     0
 74
     5
  7

 75
    16
147
1.0
148
0.0
149
0.0
100
AcDbLayout
  1
Arkusz1
 70
     1
 71
     1
 10
0.0
 20
0.0
 11
12.0
 21
9.0
 12
0.0
 22
0.0
 32
0.0
 14
0.0
 24
0.0
 34
0.0
 15
0.0
 25
0.0
 35
0.0
146
0.0
 13
0.0
 23
0.0
 33
0.0
 16
1.0
 26
0.0
 36
0.0
 17
0.0
 27
1.0
 37
0.0
 76
     0
330
D2
  0
LAYOUT
  5
D7
102
{ACAD_XDICTIONARY
360
2576
102
}
102
{ACAD_REACTORS
330
1A
102
}
330
1A
100
AcDbPlotSettings
  1

  2
C:\Documents and Settings\basas\Application Data\Autodesk\AutoCAD 2005\R16.1\enu\plotters\Default Windows System Printer.pc3
  4

  6

 40
0.0
 41
0.0
 42
0.0
 43
0.0
 44
0.0
 45
0.0
 46
0.0
 47
0.0
 48
0.0
 49
0.0
140
0.0
141
0.0
142
1.0
143
1.0
 70
   688
 72
     0
 73
     0
 74
     5
  7

 75
    16
147
1.0
148
0.0
149
0.0
100
AcDbLayout
  1
Arkusz2
 70
     1
 71
     2
 10
0.0
 20
0.0
 11
12.0
 21
9.0
 12
0.0
 22
0.0
 32
0.0
 14
0.0
 24
0.0
 34
0.0
 15
0.0
 25
0.0
 35
0.0
146
0.0
 13
0.0
 23
0.0
 33
0.0
 16
1.0
 26
0.0
 36
0.0
 17
0.0
 27
1.0
 37
0.0
 76
     0
330
D6
  0
LAYOUT
  5
22
102
{ACAD_XDICTIONARY
360
2571
102
}
102
{ACAD_REACTORS
330
1A
102
}
330
1A
100
AcDbPlotSettings
  1

  2
none_device
  4
Letter_(8.50_x_11.00_Inches)
  6

 40
6.349999904632568
 41
6.349999904632568
 42
6.350006103515625
 43
6.350006103515625
 44
215.8999938964844
 45
279.3999938964844
 46
11.54999923706054
 47
-13.65000009536743
 48
0.0
 49
0.0
140
210.0
141
297.0
142
1.0
143
1.0
 70
 11936
 72
     1
 73
     0
 74
     4
  7

 75
     0
147
0.9999999999999998
148
0.0
149
0.0
100
AcDbLayout
  1
Model
 70
     1
 71
     0
 10
0.0
 20
0.0
 11
12.0
 21
9.0
 12
0.0
 22
0.0
 32
0.0
 14
0.0
 24
0.0
 34
0.0
 15
0.0
 25
0.0
 35
0.0
146
0.0
 13
0.0
 23
0.0
 33
0.0
 16
1.0
 26
0.0
 36
0.0
 17
0.0
 27
1.0
 37
0.0
 76
     0
330
1F
331
EA
1001
ACAD_PSEXT
1000
Brak
1000
Brak
1000
Nie można zastosować.
1000
Arkusz nie zostanie wydrukowany dopóki nie wybrano konfiguracji plotera.
1070
     0
  0
MATERIAL
  5
ED
102
{ACAD_XDICTIONARY
360
257A
102
}
102
{ACAD_REACTORS
330
6A
102
}
330
6A
100
AcDbMaterial
  1
ByBlock
 73
     2
 78
     2
172
     2
176
     2
270
     2
274
     2
  0
MATERIAL
  5
EC
102
{ACAD_XDICTIONARY
360
2578
102
}
102
{ACAD_REACTORS
330
6A
102
}
330
6A
100
AcDbMaterial
  1
ByLayer
 73
     2
 78
     2
172
     2
176
     2
270
     2
274
     2
  0
MATERIAL
  5
EE
102
{ACAD_XDICTIONARY
360
173
102
}
102
{ACAD_REACTORS
330
6A
102
}
330
6A
100
AcDbMaterial
  1
Global
 73
     2
 43
0.0007999999797903
 43
0.0
 43
0.0
 43
0.0
 43
0.0
 43
0.0007999999797903
 43
0.0
 43
0.0
 43
0.0
 43
0.0
 43
1.0
 43
0.0
 43
0.0
 43
0.0
 43
0.0
 43
1.0
 78
     2
172
     2
 49
0.0007999999797903
 49
0.0
 49
0.0
 49
0.0
 49
0.0
 49
0.0007999999797903
 49
0.0
 49
0.0
 49
0.0
 49
0.0
 49
1.0
 49
0.0
 49
0.0
 49
0.0
 49
0.0
 49
1.0
176
     2
142
0.0007999999797903
142
0.0
142
0.0
142
0.0
142
0.0
142
0.0007999999797903
142
0.0
142
0.0
142
0.0
142
0.0
142
1.0
142
0.0
142
0.0
142
0.0
142
0.0
142
1.0
270
     2
144
0.0007999999797903
144
0.0
144
0.0
144
0.0
144
0.0
144
0.0007999999797903
144
0.0
144
0.0
144
0.0
144
0.0
144
1.0
144
0.0
144
0.0
144
0.0
144
0.0
144
1.0
274
     2
1001
ACAD
1070
    -1
1070
     3
1070
     0
1000

1071
        0
1070
     0
  0
ACAD_PROXY_OBJECT
  5
12E
102
{ACAD_REACTORS
330
12D
102
}
330
12D
100
AcDbProxyObject
 90
      499
 91
      508
 95
       23
 70
     0
 93
      618
310
40901902A4063FBFFFFFE0000000000000020400000000000020404254DD185B99185C99000000000000000104090140501A0000000000000410000000000000004102576400000000000003903F
340
14
340
0
340
11
340
0
 94
        0
1001
ACAD_MLEADERVER
1070
     2
1001
ACAD
1000
AcRTDxfName
1000
MLEADERSTYLE
1000
AcRTDxfName
1000
MLEADERSTYLE
  0
MLINESTYLE
  5
7E9
102
{ACAD_REACTORS
330
17
102
}
330
17
100
AcDbMlineStyle
  2
SOLBET_IZOLACJA
 70
   272
  3

 62
   256
 51
90.0
 52
90.0
 71
     2
 49
0.008
 62
   256
  6
BYLAYER
 49
-0.008
 62
   256
  6
BYLAYER
  0
MLINESTYLE
  5
18
102
{ACAD_REACTORS
330
17
102
}
330
17
100
AcDbMlineStyle
  2
STANDARD
 70
     0
  3

 62
   256
 51
90.0
 52
90.0
 71
     2
 49
0.5
 62
   256
  6
BYLAYER
 49
-0.5
 62
   256
  6
BYLAYER
  0
ACDBPLACEHOLDER
  5
F
102
{ACAD_REACTORS
330
E
102
}
330
E
  0
ACAD_PROXY_OBJECT
  5
10D
102
{ACAD_REACTORS
330
10C
102
}
330
10C
100
AcDbProxyObject
 90
      499
 91
      507
 95
       23
 70
     0
 93
       49
310
904313A31005FF
 94
        0
1001
ACAD
1000
AcRTDxfName
1000
SCALE
1000
AcRTDxfName
1000
SCALE
  0
ACAD_PROXY_OBJECT
  5
188
102
{ACAD_REACTORS
330
10C
102
}
330
10C
100
AcDbProxyObject
 90
      499
 91
      507
 95
       23
 70
     0
 93
      113
310
904313A3200400000000000000407F
 94
        0
1001
ACAD
1000
AcRTDxfName
1000
SCALE
1000
AcRTDxfName
1000
SCALE
  0
ACAD_PROXY_OBJECT
  5
189
102
{ACAD_REACTORS
330
10C
102
}
330
10C
100
AcDbProxyObject
 90
      499
 91
      507
 95
       23
 70
     0
 93
      113
310
904313A3400400000000000010407F
 94
        0
1001
ACAD
1000
AcRTDxfName
1000
SCALE
1000
AcRTDxfName
1000
SCALE
  0
ACAD_PROXY_OBJECT
  5
18A
102
{ACAD_REACTORS
330
10C
102
}
330
10C
100
AcDbProxyObject
 90
      499
 91
      507
 95
       23
 70
     0
 93
      113
310
904313A3500400000000000014407F
 94
        0
1001
ACAD
1000
AcRTDxfName
1000
SCALE
1000
AcRTDxfName
1000
SCALE
  0
ACAD_PROXY_OBJECT
  5
18B
102
{ACAD_REACTORS
330
10C
102
}
330
10C
100
AcDbProxyObject
 90
      499
 91
      507
 95
       23
 70
     0
 93
      113
310
904313A3800400000000000020407F
 94
        0
1001
ACAD
1000
AcRTDxfName
1000
SCALE
1000
AcRTDxfName
1000
SCALE
  0
ACAD_PROXY_OBJECT
  5
18C
102
{ACAD_REACTORS
330
10C
102
}
330
10C
100
AcDbProxyObject
 90
      499
 91
      507
 95
       23
 70
     0
 93
      121
310
905313A313000400000000000024407F
 94
        0
1001
ACAD
1000
AcRTDxfName
1000
SCALE
1000
AcRTDxfName
1000
SCALE
  0
ACAD_PROXY_OBJECT
  5
18D
102
{ACAD_REACTORS
330
10C
102
}
330
10C
100
AcDbProxyObject
 90
      499
 91
      507
 95
       23
 70
     0
 93
      121
310
905313A313600400000000000030407F
 94
        0
1001
ACAD
1000
AcRTDxfName
1000
SCALE
1000
AcRTDxfName
1000
SCALE
  0
ACAD_PROXY_OBJECT
  5
18E
102
{ACAD_REACTORS
330
10C
102
}
330
10C
100
AcDbProxyObject
 90
      499
 91
      507
 95
       23
 70
     0
 93
      121
310
905313A323000400000000000034407F
 94
        0
1001
ACAD
1000
AcRTDxfName
1000
SCALE
1000
AcRTDxfName
1000
SCALE
  0
ACAD_PROXY_OBJECT
  5
18F
102
{ACAD_REACTORS
330
10C
102
}
330
10C
100
AcDbProxyObject
 90
      499
 91
      507
 95
       23
 70
     0
 93
      121
310
905313A33300040000000000003E407F
 94
        0
1001
ACAD
1000
AcRTDxfName
1000
SCALE
1000
AcRTDxfName
1000
SCALE
  0
ACAD_PROXY_OBJECT
  5
190
102
{ACAD_REACTORS
330
10C
102
}
330
10C
100
AcDbProxyObject
 90
      499
 91
      507
 95
       23
 70
     0
 93
      121
310
905313A343000400000000000044407F
 94
        0
1001
ACAD
1000
AcRTDxfName
1000
SCALE
1000
AcRTDxfName
1000
SCALE
  0
ACAD_PROXY_OBJECT
  5
191
102
{ACAD_REACTORS
330
10C
102
}
330
10C
100
AcDbProxyObject
 90
      499
 91
      507
 95
       23
 70
     0
 93
      121
310
905313A353000400000000000049407F
 94
        0
1001
ACAD
1000
AcRTDxfName
1000
SCALE
1000
AcRTDxfName
1000
SCALE
  0
ACAD_PROXY_OBJECT
  5
192
102
{ACAD_REACTORS
330
10C
102
}
330
10C
100
AcDbProxyObject
 90
      499
 91
      507
 95
       23
 70
     0
 93
      129
310
906313A31303000400000000000059407F
 94
        0
1001
ACAD
1000
AcRTDxfName
1000
SCALE
1000
AcRTDxfName
1000
SCALE
  0
ACAD_PROXY_OBJECT
  5
193
102
{ACAD_REACTORS
330
10C
102
}
330
10C
100
AcDbProxyObject
 90
      499
 91
      507
 95
       23
 70
     0
 93
      113
310
904323A3100000000000000001017F
 94
        0
1001
ACAD
1000
AcRTDxfName
1000
SCALE
1000
AcRTDxfName
1000
SCALE
  0
ACAD_PROXY_OBJECT
  5
194
102
{ACAD_REACTORS
330
10C
102
}
330
10C
100
AcDbProxyObject
 90
      499
 91
      507
 95
       23
 70
     0
 93
      113
310
904343A3100000000000000041017F
 94
        0
1001
ACAD
1000
AcRTDxfName
1000
SCALE
1000
AcRTDxfName
1000
SCALE
  0
ACAD_PROXY_OBJECT
  5
195
102
{ACAD_REACTORS
330
10C
102
}
330
10C
100
AcDbProxyObject
 90
      499
 91
      507
 95
       23
 70
     0
 93
      113
310
904383A3100000000000000081017F
 94
        0
1001
ACAD
1000
AcRTDxfName
1000
SCALE
1000
AcRTDxfName
1000
SCALE
  0
ACAD_PROXY_OBJECT
  5
196
102
{ACAD_REACTORS
330
10C
102
}
330
10C
100
AcDbProxyObject
 90
      499
 91
      507
 95
       23
 70
     0
 93
      121
310
90531303A3100000000000000091017F
 94
        0
1001
ACAD
1000
AcRTDxfName
1000
SCALE
1000
AcRTDxfName
1000
SCALE
  0
ACAD_PROXY_OBJECT
  5
197
102
{ACAD_REACTORS
330
10C
102
}
330
10C
100
AcDbProxyObject
 90
      499
 91
      507
 95
       23
 70
     0
 93
      129
310
9063130303A3100000000000000165017F
 94
        0
1001
ACAD
1000
AcRTDxfName
1000
SCALE
1000
AcRTDxfName
1000
SCALE
  0
ACAD_PROXY_OBJECT
  5
198
102
{ACAD_REACTORS
330
10C
102
}
330
10C
100
AcDbProxyObject
 90
      499
 91
      507
 95
       23
 70
     0
 93
      265
310
90F312F31323822203D2031272D302200000000000000200FC00000000000028407F
 94
        0
1001
ACAD
1000
AcRTDxfName
1000
SCALE
1000
AcRTDxfName
1000
SCALE
  0
ACAD_PROXY_OBJECT
  5
199
102
{ACAD_REACTORS
330
10C
102
}
330
10C
100
AcDbProxyObject
 90
      499
 91
      507
 95
       23
 70
     0
 93
      257
310
90E312F363422203D2031272D302200000000000000240FC00000000000028407F
 94
        0
1001
ACAD
1000
AcRTDxfName
1000
SCALE
1000
AcRTDxfName
1000
SCALE
  0
ACAD_PROXY_OBJECT
  5
19A
102
{ACAD_REACTORS
330
10C
102
}
330
10C
100
AcDbProxyObject
 90
      499
 91
      507
 95
       23
 70
     0
 93
      257
310
90E312F333222203D2031272D302200000000000000280FC00000000000028407F
 94
        0
1001
ACAD
1000
AcRTDxfName
1000
SCALE
1000
AcRTDxfName
1000
SCALE
  0
ACAD_PROXY_OBJECT
  5
19B
102
{ACAD_REACTORS
330
10C
102
}
330
10C
100
AcDbProxyObject
 90
      499
 91
      507
 95
       23
 70
     0
 93
      257
310
90E312F313622203D2031272D3022000000000000002C0FC00000000000028407F
 94
        0
1001
ACAD
1000
AcRTDxfName
1000
SCALE
1000
AcRTDxfName
1000
SCALE
  0
ACAD_PROXY_OBJECT
  5
19C
102
{ACAD_REACTORS
330
10C
102
}
330
10C
100
AcDbProxyObject
 90
      499
 91
      507
 95
       23
 70
     0
 93
      257
310
90E332F333222203D2031272D3022000000000000002E0FC00000000000028407F
 94
        0
1001
ACAD
1000
AcRTDxfName
1000
SCALE
1000
AcRTDxfName
1000
SCALE
  0
ACAD_PROXY_OBJECT
  5
19D
102
{ACAD_REACTORS
330
10C
102
}
330
10C
100
AcDbProxyObject
 90
      499
 91
      507
 95
       23
 70
     0
 93
      249
310
90D312F3822203D2031272D302200000000000000300FC00000000000028407F
 94
        0
1001
ACAD
1000
AcRTDxfName
1000
SCALE
1000
AcRTDxfName
1000
SCALE
  0
ACAD_PROXY_OBJECT
  5
19E
102
{ACAD_REACTORS
330
10C
102
}
330
10C
100
AcDbProxyObject
 90
      499
 91
      507
 95
       23
 70
     0
 93
      257
310
90E332F313622203D2031272D302200000000000000320FC00000000000028407F
 94
        0
1001
ACAD
1000
AcRTDxfName
1000
SCALE
1000
AcRTDxfName
1000
SCALE
  0
ACAD_PROXY_OBJECT
  5
19F
102
{ACAD_REACTORS
330
10C
102
}
330
10C
100
AcDbProxyObject
 90
      499
 91
      507
 95
       23
 70
     0
 93
      249
310
90D312F3422203D2031272D302200000000000000340FC00000000000028407F
 94
        0
1001
ACAD
1000
AcRTDxfName
1000
SCALE
1000
AcRTDxfName
1000
SCALE
  0
ACAD_PROXY_OBJECT
  5
1A0
102
{ACAD_REACTORS
330
10C
102
}
330
10C
100
AcDbProxyObject
 90
      499
 91
      507
 95
       23
 70
     0
 93
      249
310
90D332F3822203D2031272D302200000000000000360FC00000000000028407F
 94
        0
1001
ACAD
1000
AcRTDxfName
1000
SCALE
1000
AcRTDxfName
1000
SCALE
  0
ACAD_PROXY_OBJECT
  5
1A1
102
{ACAD_REACTORS
330
10C
102
}
330
10C
100
AcDbProxyObject
 90
      499
 91
      507
 95
       23
 70
     0
 93
      249
310
90D312F3222203D2031272D302200000000000000380FC00000000000028407F
 94
        0
1001
ACAD
1000
AcRTDxfName
1000
SCALE
1000
AcRTDxfName
1000
SCALE
  0
ACAD_PROXY_OBJECT
  5
1A2
102
{ACAD_REACTORS
330
10C
102
}
330
10C
100
AcDbProxyObject
 90
      499
 91
      507
 95
       23
 70
     0
 93
      249
310
90D332F3422203D2031272D3022000000000000003A0FC00000000000028407F
 94
        0
1001
ACAD
1000
AcRTDxfName
1000
SCALE
1000
AcRTDxfName
1000
SCALE
  0
ACAD_PROXY_OBJECT
  5
1A3
102
{ACAD_REACTORS
330
10C
102
}
330
10C
100
AcDbProxyObject
 90
      499
 91
      507
 95
       23
 70
     0
 93
      169
310
90B3122203D2031272D302200400000000000028407F
 94
        0
1001
ACAD
1000
AcRTDxfName
1000
SCALE
1000
AcRTDxfName
1000
SCALE
  0
ACAD_PROXY_OBJECT
  5
1A4
102
{ACAD_REACTORS
330
10C
102
}
330
10C
100
AcDbProxyObject
 90
      499
 91
      507
 95
       23
 70
     0
 93
      265
310
90F312D312F3222203D2031272D3022000000000000003E0FC00000000000028407F
 94
        0
1001
ACAD
1000
AcRTDxfName
1000
SCALE
1000
AcRTDxfName
1000
SCALE
  0
ACAD_PROXY_OBJECT
  5
1A5
102
{ACAD_REACTORS
330
10C
102
}
330
10C
100
AcDbProxyObject
 90
      499
 91
      507
 95
       23
 70
     0
 93
      233
310
90B3322203D2031272D3022000000000000000210000000000000028407F
 94
        0
1001
ACAD
1000
AcRTDxfName
1000
SCALE
1000
AcRTDxfName
1000
SCALE
  0
ACAD_PROXY_OBJECT
  5
1A6
102
{ACAD_REACTORS
330
10C
102
}
330
10C
100
AcDbProxyObject
 90
      499
 91
      507
 95
       23
 70
     0
 93
      233
310
90B3622203D2031272D3022000000000000000610000000000000028407F
 94
        0
1001
ACAD
1000
AcRTDxfName
1000
SCALE
1000
AcRTDxfName
1000
SCALE
  0
ACAD_PROXY_OBJECT
  5
1A7
102
{ACAD_REACTORS
330
10C
102
}
330
10C
100
AcDbProxyObject
 90
      499
 91
      507
 95
       23
 70
     0
 93
      257
310
90E31272D3022203D2031272D3022000000000000000A10000000000000028407F
 94
        0
1001
ACAD
1000
AcRTDxfName
1000
SCALE
1000
AcRTDxfName
1000
SCALE
  0
TABLESTYLE
  5
7F
102
{ACAD_XDICTIONARY
360
162
102
}
102
{ACAD_REACTORS
330
7E
102
}
330
7E
100
AcDbTableStyle
  3
Standard
 70
     0
 71
     0
 40
1.5
 41
1.5
280
     0
281
     0
  7
Standard
140
4.5
170
     2
 62
     0
 63
     7
283
     0
274
    -2
284
     1
 64
     0
275
    -2
285
     1
 65
     0
276
    -2
286
     1
 66
     0
277
    -2
287
     1
 67
     0
278
    -2
288
     1
 68
     0
279
    -2
289
     1
 69
     0
  7
Standard
140
6.0
170
     5
 62
     0
 63
     7
283
     0
274
    -2
284
     1
 64
     0
275
    -2
285
     1
 65
     0
276
    -2
286
     1
 66
     0
277
    -2
287
     1
 67
     0
278
    -2
288
     1
 68
     0
279
    -2
289
     1
 69
     0
  7
Standard
140
4.5
170
     5
 62
     0
 63
     7
283
     0
274
    -2
284
     1
 64
     0
275
    -2
285
     1
 65
     0
276
    -2
286
     1
 66
     0
277
    -2
287
     1
 67
     0
278
    -2
288
     1
 68
     0
279
    -2
289
     1
 69
     0
  0
VISUALSTYLE
  5
F5
102
{ACAD_REACTORS
330
EF
102
}
330
EF
100
AcDbVisualStyle
  2
2dWireframe
 70
     4
 71
     0
 72
     2
 73
     1
 90
        0
 40
-0.6
 41
-30.0
 62
     5
 63
     7
 74
     1
 91
        4
 64
     7
 65
   257
 75
     1
175
     1
 42
1.0
 92
        0
 66
   257
 43
1.0
 76
     1
 77
     6
 78
     2
 67
     7
 79
     5
170
     0
171
     0
290
     0
174
     0
 93
        1
 44
0.0
173
     0
291
     0
 45
0.0
1001
ACAD
1000
AcDbSavedByObjectVersion
1070
     0
  0
VISUALSTYLE
  5
F7
102
{ACAD_REACTORS
330
EF
102
}
330
EF
100
AcDbVisualStyle
  2
3D Hidden
 70
     6
 71
     1
 72
     2
 73
     2
 90
        0
 40
-0.6
 41
-30.0
 62
     5
 63
     7
 74
     2
 91
        2
 64
     7
 65
   257
 75
     2
175
     1
 42
40.0
 92
        0
 66
   257
 43
1.0
 76
     1
 77
     6
 78
     2
 67
     7
 79
     3
170
     0
171
     0
290
     0
174
     0
 93
        1
 44
0.0
173
     0
291
     0
 45
0.0
1001
ACAD
1000
AcDbSavedByObjectVersion
1070
     0
  0
VISUALSTYLE
  5
F6
102
{ACAD_REACTORS
330
EF
102
}
330
EF
100
AcDbVisualStyle
  2
3dWireframe
 70
     5
 71
     0
 72
     2
 73
     1
 90
        0
 40
-0.6
 41
-30.0
 62
     5
 63
     7
 74
     1
 91
        4
 64
     7
 65
   257
 75
     1
175
     1
 42
1.0
 92
        0
 66
   257
 43
1.0
 76
     1
 77
     6
 78
     2
 67
     7
 79
     5
170
     0
171
     0
290
     0
174
     0
 93
        1
 44
0.0
173
     0
291
     0
 45
0.0
1001
ACAD
1000
AcDbSavedByObjectVersion
1070
     0
  0
VISUALSTYLE
  5
F4
102
{ACAD_REACTORS
330
EF
102
}
330
EF
100
AcDbVisualStyle
  2
Basic
 70
     7
 71
     1
 72
     0
 73
     1
 90
        0
 40
-0.6
 41
-30.0
 62
     5
 63
     7
 74
     0
 91
        4
 64
     7
 65
   257
 75
     1
175
     1
 42
1.0
 92
        8
 66
     7
 43
1.0
 76
     1
 77
     6
 78
     2
 67
     7
 79
     5
170
     0
171
     0
290
     0
174
     0
 93
        1
 44
0.0
173
     0
291
     1
 45
0.0
1001
ACAD
1000
AcDbSavedByObjectVersion
1070
     0
  0
VISUALSTYLE
  5
FB
102
{ACAD_REACTORS
330
EF
102
}
330
EF
100
AcDbVisualStyle
  2
Brighten
 70
    12
 71
     2
 72
     2
 73
     1
 90
        0
 40
-0.6
 41
-30.0
 62
     5
 63
     7
 74
     1
 91
        4
 64
     7
 65
   257
 75
     1
175
     1
 42
1.0
 92
        8
 66
     7
 43
1.0
 76
     1
 77
     6
 78
     2
 67
     7
 79
     5
170
     0
171
     0
290
     0
174
     0
 93
        1
 44
50.0
173
     0
291
     1
 45
0.0
1001
ACAD
1000
AcDbSavedByObjectVersion
1070
     0
  0
VISUALSTYLE
  5
FF
102
{ACAD_REACTORS
330
EF
102
}
330
EF
100
AcDbVisualStyle
  2
ColorChange
 70
    16
 71
     2
 72
     2
 73
     3
 90
        0
 40
-0.6
 41
-30.0
 62
     5
 63
     8
 74
     1
 91
        4
 64
     7
 65
   257
 75
     1
175
     1
 42
1.0
 92
        8
 66
     8
 43
1.0
 76
     1
 77
     6
 78
     2
 67
     7
 79
     5
170
     0
171
     0
290
     0
174
     0
 93
        1
 44
0.0
173
     0
291
     1
 45
0.0
1001
ACAD
1000
AcDbSavedByObjectVersion
1070
     0
  0
VISUALSTYLE
  5
F8
102
{ACAD_REACTORS
330
EF
102
}
330
EF
100
AcDbVisualStyle
  2
Conceptual
 70
     9
 71
     3
 72
     2
 73
     1
 90
        0
 40
-0.6
 41
-30.0
 62
     5
 63
     7
 74
     2
 91
        2
 64
     7
 65
   257
 75
     1
175
     1
 42
40.0
 92
        8
 66
     7
 43
1.0
 76
     1
 77
     6
 78
     2
 67
     7
 79
     3
170
     0
171
     0
290
     0
174
     0
 93
        1
 44
0.0
173
     0
291
     0
 45
0.0
1001
ACAD
1000
AcDbSavedByObjectVersion
1070
     0
  0
VISUALSTYLE
  5
FA
102
{ACAD_REACTORS
330
EF
102
}
330
EF
100
AcDbVisualStyle
  2
Dim
 70
    11
 71
     2
 72
     2
 73
     1
 90
        0
 40
-0.6
 41
-30.0
 62
     5
 63
     7
 74
     1
 91
        4
 64
     7
 65
   257
 75
     1
175
     1
 42
1.0
 92
        8
 66
     7
 43
1.0
 76
     1
 77
     6
 78
     2
 67
     7
 79
     5
170
     0
171
     0
290
     0
174
     0
 93
        1
 44
-50.0
173
     0
291
     1
 45
0.0
1001
ACAD
1000
AcDbSavedByObjectVersion
1070
     0
  0
VISUALSTYLE
  5
FE
102
{ACAD_REACTORS
330
EF
102
}
330
EF
100
AcDbVisualStyle
  2
Facepattern
 70
    15
 71
     2
 72
     2
 73
     1
 90
        0
 40
-0.6
 41
-30.0
 62
     5
 63
     7
 74
     1
 91
        4
 64
     7
 65
   257
 75
     1
175
     1
 42
1.0
 92
        8
 66
     7
 43
1.0
 76
     1
 77
     6
 78
     2
 67
     7
 79
     5
170
     0
171
     0
290
     0
174
     0
 93
        1
 44
0.0
173
     0
291
     1
 45
0.0
1001
ACAD
1000
AcDbSavedByObjectVersion
1070
     0
  0
VISUALSTYLE
  5
F0
102
{ACAD_REACTORS
330
EF
102
}
330
EF
100
AcDbVisualStyle
  2
Flat
 70
     0
 71
     2
 72
     1
 73
     1
 90
        2
 40
-0.6
 41
30.0
 62
     5
 63
     7
 74
     0
 91
        4
 64
     7
 65
   257
 75
     1
175
     1
 42
1.0
 92
        8
 66
     7
 43
1.0
 76
     1
 77
     6
 78
     2
 67
     7
 79
     5
170
     0
171
     0
290
     0
174
     0
 93
        1
 44
0.0
173
     0
291
     1
 45
0.0
1001
ACAD
1000
AcDbSavedByObjectVersion
1070
     0
  0
VISUALSTYLE
  5
F1
102
{ACAD_REACTORS
330
EF
102
}
330
EF
100
AcDbVisualStyle
  2
FlatWithEdges
 70
     1
 71
     2
 72
     1
 73
     1
 90
        2
 40
-0.6
 41
30.0
 62
     5
 63
     7
 74
     1
 91
        4
 64
     7
 65
   257
 75
     1
175
     1
 42
1.0
 92
        0
 66
   257
 43
1.0
 76
     1
 77
     6
 78
     2
 67
     7
 79
     5
170
     0
171
     0
290
     0
174
     0
 93
        1
 44
0.0
173
     0
291
     1
 45
0.0
1001
ACAD
1000
AcDbSavedByObjectVersion
1070
     0
  0
VISUALSTYLE
  5
F2
102
{ACAD_REACTORS
330
EF
102
}
330
EF
100
AcDbVisualStyle
  2
Gouraud
 70
     2
 71
     2
 72
     2
 73
     1
 90
        2
 40
-0.6
 41
30.0
 62
     5
 63
     7
 74
     0
 91
        4
 64
     7
 65
   257
 75
     1
175
     1
 42
1.0
 92
        0
 66
     7
 43
1.0
 76
     1
 77
     6
 78
     2
 67
     7
 79
     5
170
     0
171
     0
290
     0
174
     0
 93
        1
 44
0.0
173
     0
291
     1
 45
0.0
1001
ACAD
1000
AcDbSavedByObjectVersion
1070
     0
  0
VISUALSTYLE
  5
F3
102
{ACAD_REACTORS
330
EF
102
}
330
EF
100
AcDbVisualStyle
  2
GouraudWithEdges
 70
     3
 71
     2
 72
     2
 73
     1
 90
        2
 40
-0.6
 41
30.0
 62
     5
 63
     7
 74
     1
 91
        4
 64
     7
 65
   257
 75
     1
175
     1
 42
1.0
 92
        0
 66
   257
 43
1.0
 76
     1
 77
     6
 78
     2
 67
     7
 79
     5
170
     0
171
     0
290
     0
174
     0
 93
        1
 44
0.0
173
     0
291
     1
 45
0.0
1001
ACAD
1000
AcDbSavedByObjectVersion
1070
     0
  0
VISUALSTYLE
  5
FD
102
{ACAD_REACTORS
330
EF
102
}
330
EF
100
AcDbVisualStyle
  2
Linepattern
 70
    14
 71
     2
 72
     2
 73
     1
 90
        0
 40
-0.6
 41
-30.0
 62
     5
 63
     7
 74
     1
 91
        4
 64
     7
 65
   257
 75
     7
175
     7
 42
1.0
 92
        8
 66
     7
 43
1.0
 76
     1
 77
     6
 78
     2
 67
     7
 79
     5
170
     0
171
     0
290
     0
174
     0
 93
        1
 44
0.0
173
     0
291
     1
 45
0.0
1001
ACAD
1000
AcDbSavedByObjectVersion
1070
     0
  0
VISUALSTYLE
  5
F9
102
{ACAD_REACTORS
330
EF
102
}
330
EF
100
AcDbVisualStyle
  2
Realistic
 70
     8
 71
     2
 72
     2
 73
     1
 90
        0
 40
-0.6
 41
-30.0
 62
     5
 63
     7
 74
     1
 91
        0
 64
     7
 65
   257
 75
     1
175
     1
 42
1.0
 92
        8
 66
     8
 43
1.0
 76
     1
 77
     6
 78
     2
 67
     7
 79
     5
170
     0
171
     0
290
     0
174
     0
 93
       13
 44
0.0
173
     0
291
     0
 45
0.0
1001
ACAD
1000
AcDbSavedByObjectVersion
1070
     0
  0
VISUALSTYLE
  5
FC
102
{ACAD_REACTORS
330
EF
102
}
330
EF
100
AcDbVisualStyle
  2
Thicken
 70
    13
 71
     2
 72
     2
 73
     1
 90
        0
 40
-0.6
 41
-30.0
 62
     5
 63
     7
 74
     1
 91
        4
 64
     7
 65
   257
 75
     1
175
     1
 42
1.0
 92
       12
 66
     7
 43
1.0
 76
     1
 77
     6
 78
     2
 67
     7
 79
     5
170
     0
171
     0
290
     0
174
     0
 93
        1
 44
0.0
173
     0
291
     1
 45
0.0
1001
ACAD
1000
AcDbSavedByObjectVersion
1070
     0
  0
DICTIONARYVAR
  5
146
102
{ACAD_REACTORS
330
5E
102
}
330
5E
100
DictionaryVariables
280
     0
  1
1:1
  0
DICTIONARYVAR
  5
145
102
{ACAD_REACTORS
330
5E
102
}
330
5E
100
DictionaryVariables
280
     0
  1
STANDARD
  0
DICTIONARYVAR
  5
84
102
{ACAD_REACTORS
330
5E
102
}
330
5E
100
DictionaryVariables
280
     0
  1
STANDARD
  0
DICTIONARYVAR
  5
5F
102
{ACAD_REACTORS
330
5E
102
}
330
5E
100
DictionaryVariables
280
     0
  1
2
  0
DICTIONARYVAR
  5
63
102
{ACAD_REACTORS
330
5E
102
}
330
5E
100
DictionaryVariables
280
     0
  1
1
  0
DICTIONARYVAR
  5
466
102
{ACAD_REACTORS
330
5E
102
}
330
5E
100
DictionaryVariables
280
     0
  1
0
  0
DICTIONARYVAR
  5
464
102
{ACAD_REACTORS
330
5E
102
}
330
5E
100
DictionaryVariables
280
     0
  1
2
  0
DICTIONARYVAR
  5
463
102
{ACAD_REACTORS
330
5E
102
}
330
5E
100
DictionaryVariables
280
     0
  1
1
  0
DICTIONARYVAR
  5
256F
102
{ACAD_REACTORS
330
5E
102
}
330
5E
100
DictionaryVariables
280
     0
  1
80.000000
  0
DICTIONARYVAR
  5
256E
102
{ACAD_REACTORS
330
5E
102
}
330
5E
100
DictionaryVariables
280
     0
  1
5.000000
  0
DICTIONARYVAR
  5
465
102
{ACAD_REACTORS
330
5E
102
}
330
5E
100
DictionaryVariables
280
     0
  1
127
  0
DICTIONARY
  5
21E1
102
{ACAD_REACTORS
330
21E0
102
}
330
21E0
100
AcDbDictionary
281
     1
  0
DICTIONARY
  5
21F6
102
{ACAD_REACTORS
330
21F5
102
}
330
21F5
100
AcDbDictionary
281
     1
  0
DICTIONARY
  5
21FB
102
{ACAD_REACTORS
330
21FA
102
}
330
21FA
100
AcDbDictionary
281
     1
  0
DICTIONARY
  5
2574
330
D3
100
AcDbDictionary
280
     1
281
     1
  3
ACAD_XREC_ROUNDTRIP
360
2575
  0
DICTIONARY
  5
2576
330
D7
100
AcDbDictionary
280
     1
281
     1
  3
ACAD_XREC_ROUNDTRIP
360
2577
  0
DICTIONARY
  5
2571
330
22
100
AcDbDictionary
280
     1
281
     1
  3
ACAD_XREC_ROUNDTRIP
360
2572
  0
DICTIONARY
  5
257A
330
ED
100
AcDbDictionary
280
     1
281
     1
  3
ACAD_XREC_ROUNDTRIP
360
257B
  0
DICTIONARY
  5
2578
330
EC
100
AcDbDictionary
280
     1
281
     1
  3
ACAD_XREC_ROUNDTRIP
360
2579
  0
DICTIONARY
  5
173
330
EE
100
AcDbDictionary
280
     1
281
     1
  3
ACAD_XREC_ROUNDTRIP
360
257C
  3
BUMPTILE
360
175
  3
DIFFUSETILE
360
174
  3
OPACITYTILE
360
176
  3
REFLECTIONTILE
360
177
  0
DICTIONARY
  5
162
330
7F
100
AcDbDictionary
280
     1
281
     1
  3
ACAD_ROUNDTRIP_2008_TABLESTYLE_CELLSTYLEMAP
360
246D
  3
ACAD_XREC_ROUNDTRIP
360
2573
  0
XRECORD
  5
2575
102
{ACAD_REACTORS
330
2574
102
}
330
2574
100
AcDbXrecord
280
     1
102
SHADEPLOT
 70
     0
102
SHADEPLOTRESLEVEL
 70
     2
102
SHADEPLOTCUSTOMDPI
 70
   300
  0
XRECORD
  5
2577
102
{ACAD_REACTORS
330
2576
102
}
330
2576
100
AcDbXrecord
280
     1
102
SHADEPLOT
 70
     0
102
SHADEPLOTRESLEVEL
 70
     2
102
SHADEPLOTCUSTOMDPI
 70
   300
  0
XRECORD
  5
2572
102
{ACAD_REACTORS
330
2571
102
}
330
2571
100
AcDbXrecord
280
     1
102
SHADEPLOT
 70
     0
102
SHADEPLOTRESLEVEL
 70
     2
102
SHADEPLOTCUSTOMDPI
 70
   300
  0
XRECORD
  5
257B
102
{ACAD_REACTORS
330
257A
102
}
330
257A
100
AcDbXrecord
280
     1
102
MATERIAL
148
0.0
149
0.0
149
0.0
 93
        0
 94
       63
282
     0
 72
     1
 77
     1
171
     1
175
     1
179
     1
273
     0
  0
XRECORD
  5
2579
102
{ACAD_REACTORS
330
2578
102
}
330
2578
100
AcDbXrecord
280
     1
102
MATERIAL
148
0.0
149
0.0
149
0.0
 93
        0
 94
       63
282
     0
 72
     1
 77
     1
171
     1
175
     1
179
     1
273
     0
  0
XRECORD
  5
257C
102
{ACAD_REACTORS
330
173
102
}
330
173
100
AcDbXrecord
280
     1
102
MATERIAL
148
0.0
149
0.0
149
0.0
 93
        0
 94
       63
282
     0
 72
     1
 77
     1
171
     1
175
     1
179
     1
273
     0
  0
XRECORD
  5
175
102
{ACAD_REACTORS
330
173
102
}
330
173
100
AcDbXrecord
280
     1
270
     1
271
     1
  0
XRECORD
  5
174
102
{ACAD_REACTORS
330
173
102
}
330
173
100
AcDbXrecord
280
     1
270
     1
271
     1
  0
XRECORD
  5
176
102
{ACAD_REACTORS
330
173
102
}
330
173
100
AcDbXrecord
280
     1
270
     1
271
     1
  0
XRECORD
  5
177
102
{ACAD_REACTORS
330
173
102
}
330
173
100
AcDbXrecord
280
     1
270
     1
271
     1
  0
ACAD_PROXY_OBJECT
  5
246D
102
{ACAD_REACTORS
330
162
102
}
330
162
100
AcDbProxyObject
 90
      499
 91
      509
 95
       23
 70
     0
 93
     5304
310
40D054060020000020000003200101A000080002A5058000000C10000000000000006101010000000000003E0FC000000000000F83F0000000000003E0FC000000000000F83F02B5E8DC0F42B1CFC0AD7A3703D0AC73F419019018000000C1003FBFFFFFE0000000000003C8FD029018000000C1003FBFFFFFE00000000000
310
03C8FD049018000000C1003FBFFFFFE0000000000003C8FD089018000000C1003FBFFFFFE0000000000003C8FD109018000000C1003FBFFFFFE0000000000003C8FD209018000000C1003FBFFFFFE0000000000003C8FD01405075F5449544C450041501A8000000C800406800020000A94160000003040000000000000012
310
40404000000000000F83F0000000000003E0FC000000000000F83F0000000000003E0FC0AD7A3703D0AC73F02B5E8DC0F42B1CFD0640640600000030400FEFFFFFF8000000000000F23F40A40600000030400FEFFFFFF8000000000000F23F41240600000030400FEFFFFFF8000000000000F23F42240600000030400FEFFF
310
FFF8000000000000F23F44240600000030400FEFFFFFF8000000000000F23F48240600000030400FEFFFFFF8000000000000F23F409014217D2115051115480105406A0000003200101A000080002A5028000000C10000000000000004901010000000000003E0FC000000000000F83F0000000000003E0FC000000000000F
310
83F02B5E8DC0F42B1CFC0AD7A3703D0AC73F419019018000000C1003FBFFFFFE0000000000003C8FD029018000000C1003FBFFFFFE0000000000003C8FD049018000000C1003FBFFFFFE0000000000003C8FD089018000000C1003FBFFFFFE0000000000003C8FD109018000000C1003FBFFFFFE0000000000003C8FD20901
310
8000000C1003FBFFFFFE0000000000003C8FD03409065F444154410000
340
11
340
14
340
14
340
14
340
14
340
14
340
14
340
11
340
14
340
14
340
14
340
14
340
14
340
14
340
11
340
14
340
14
340
14
340
14
340
14
340
14
 94
        0
1001
ACAD
1000
AcRTDxfName
1000
CELLSTYLEMAP
1000
AcRTDxfName
1000
CELLSTYLEMAP
  0
XRECORD
  5
2573
102
{ACAD_REACTORS
330
162
102
}
330
162
100
AcDbXrecord
280
     1
102
ACAD_ROUNDTRIP_PRE2007_TABLESTYLE
 90
      512
 91
        0
  1

 92
      512
 93
        0
  2

 94
      512
 95
        0
  3

  0
ENDSEC
  0
EOF
