  0
SECTION
  2
HEADER
  9
$ACADVER
  1
AC1015
  9
$ACADMAINTVER
 70
    20
  9
$DWGCODEPAGE
  3
ANSI_1250
  9
$INSBASE
 10
0.0
 20
0.0
 30
0.0
  9
$EXTMIN
 10
2.164968367267192
 20
-0.004528679247187
 30
-0.0000000000112498
  9
$EXTMAX
 10
336.5269435745273
 20
297.0045328285427
 30
0.0000000000002956
  9
$LIMMIN
 10
2.17006658928949
 20
0.0
  9
$LIMMAX
 10
336.5218406813795
 20
297.0
  9
$ORTHOMODE
 70
     1
  9
$REGENMODE
 70
     1
  9
$FILLMODE
 70
     1
  9
$QTEXTMODE
 70
     0
  9
$MIRRTEXT
 70
     0
  9
$LTSCALE
 40
1.0
  9
$ATTMODE
 70
     2
  9
$TEXTSIZE
 40
5.0
  9
$TRACEWID
 40
1.0
  9
$TEXTSTYLE
  7
Solbet_5
  9
$CLAYER
  8
SOLBET_Bloczki
  9
$CELTYPE
  6
ByLayer
  9
$CECOLOR
 62
   256
  9
$CELTSCALE
 40
1.0
  9
$DISPSILH
 70
     0
  9
$DIMSCALE
 40
1.0
  9
$DIMASZ
 40
2.5
  9
$DIMEXO
 40
0.0
  9
$DIMDLI
 40
3.75
  9
$DIMRND
 40
0.0
  9
$DIMDLE
 40
0.0
  9
$DIMEXE
 40
1.25
  9
$DIMTP
 40
0.0
  9
$DIMTM
 40
0.0
  9
$DIMTXT
 40
2.5
  9
$DIMCEN
 40
2.5
  9
$DIMTSZ
 40
0.0
  9
$DIMTOL
 70
     0
  9
$DIMLIM
 70
     0
  9
$DIMTIH
 70
     0
  9
$DIMTOH
 70
     0
  9
$DIMSE1
 70
     0
  9
$DIMSE2
 70
     0
  9
$DIMTAD
 70
     1
  9
$DIMZIN
 70
     8
  9
$DIMBLK
  1

  9
$DIMASO
 70
     1
  9
$DIMSHO
 70
     1
  9
$DIMPOST
  1

  9
$DIMAPOST
  1

  9
$DIMALT
 70
     0
  9
$DIMALTD
 70
     3
  9
$DIMALTF
 40
0.03937007874016
  9
$DIMLFAC
 40
1.0
  9
$DIMTOFL
 70
     1
  9
$DIMTVP
 40
0.0
  9
$DIMTIX
 70
     0
  9
$DIMSOXD
 70
     0
  9
$DIMSAH
 70
     0
  9
$DIMBLK1
  1

  9
$DIMBLK2
  1

  9
$DIMSTYLE
  2
Solbet
  9
$DIMCLRD
 70
     0
  9
$DIMCLRE
 70
     0
  9
$DIMCLRT
 70
     0
  9
$DIMTFAC
 40
1.0
  9
$DIMGAP
 40
0.625
  9
$DIMJUST
 70
     0
  9
$DIMSD1
 70
     0
  9
$DIMSD2
 70
     0
  9
$DIMTOLJ
 70
     0
  9
$DIMTZIN
 70
     8
  9
$DIMALTZ
 70
     0
  9
$DIMALTTZ
 70
     0
  9
$DIMUPT
 70
     0
  9
$DIMDEC
 70
     2
  9
$DIMTDEC
 70
     2
  9
$DIMALTU
 70
     2
  9
$DIMALTTD
 70
     3
  9
$DIMTXSTY
  7
Solbet_2_5
  9
$DIMAUNIT
 70
     0
  9
$DIMADEC
 70
     0
  9
$DIMALTRND
 40
0.0
  9
$DIMAZIN
 70
     0
  9
$DIMDSEP
 70
    44
  9
$DIMATFIT
 70
     3
  9
$DIMFRAC
 70
     0
  9
$DIMLDRBLK
  1

  9
$DIMLUNIT
 70
     2
  9
$DIMLWD
 70
    -2
  9
$DIMLWE
 70
    -2
  9
$DIMTMOVE
 70
     0
  9
$LUNITS
 70
     2
  9
$LUPREC
 70
     4
  9
$SKETCHINC
 40
1.0
  9
$FILLETRAD
 40
0.0
  9
$AUNITS
 70
     0
  9
$AUPREC
 70
     0
  9
$MENU
  1
.
  9
$ELEVATION
 40
0.0
  9
$PELEVATION
 40
0.0
  9
$THICKNESS
 40
0.0
  9
$LIMCHECK
 70
     0
  9
$CHAMFERA
 40
0.0
  9
$CHAMFERB
 40
0.0
  9
$CHAMFERC
 40
0.0
  9
$CHAMFERD
 40
0.0
  9
$SKPOLY
 70
     0
  9
$TDCREATE
 40
2454690.075573148
  9
$TDUCREATE
 40
2454690.033906482
  9
$TDUPDATE
 40
2454848.880739016
  9
$TDUUPDATE
 40
2454848.839072350
  9
$TDINDWG
 40
0.4547727315
  9
$TDUSRTIMER
 40
0.4547682060
  9
$USRTIMER
 70
     1
  9
$ANGBASE
 50
0.0
  9
$ANGDIR
 70
     0
  9
$PDMODE
 70
     0
  9
$PDSIZE
 40
0.0
  9
$PLINEWID
 40
0.0
  9
$SPLFRAME
 70
     0
  9
$SPLINETYPE
 70
     6
  9
$SPLINESEGS
 70
     8
  9
$HANDSEED
  5
250A
  9
$SURFTAB1
 70
     6
  9
$SURFTAB2
 70
     6
  9
$SURFTYPE
 70
     6
  9
$SURFU
 70
     6
  9
$SURFV
 70
     6
  9
$UCSBASE
  2

  9
$UCSNAME
  2

  9
$UCSORG
 10
0.0
 20
0.0
 30
0.0
  9
$UCSXDIR
 10
1.0
 20
0.0
 30
0.0
  9
$UCSYDIR
 10
0.0
 20
1.0
 30
0.0
  9
$UCSORTHOREF
  2

  9
$UCSORTHOVIEW
 70
     0
  9
$UCSORGTOP
 10
0.0
 20
0.0
 30
0.0
  9
$UCSORGBOTTOM
 10
0.0
 20
0.0
 30
0.0
  9
$UCSORGLEFT
 10
0.0
 20
0.0
 30
0.0
  9
$UCSORGRIGHT
 10
0.0
 20
0.0
 30
0.0
  9
$UCSORGFRONT
 10
0.0
 20
0.0
 30
0.0
  9
$UCSORGBACK
 10
0.0
 20
0.0
 30
0.0
  9
$PUCSBASE
  2

  9
$PUCSNAME
  2

  9
$PUCSORG
 10
0.0
 20
0.0
 30
0.0
  9
$PUCSXDIR
 10
1.0
 20
0.0
 30
0.0
  9
$PUCSYDIR
 10
0.0
 20
1.0
 30
0.0
  9
$PUCSORTHOREF
  2

  9
$PUCSORTHOVIEW
 70
     0
  9
$PUCSORGTOP
 10
0.0
 20
0.0
 30
0.0
  9
$PUCSORGBOTTOM
 10
0.0
 20
0.0
 30
0.0
  9
$PUCSORGLEFT
 10
0.0
 20
0.0
 30
0.0
  9
$PUCSORGRIGHT
 10
0.0
 20
0.0
 30
0.0
  9
$PUCSORGFRONT
 10
0.0
 20
0.0
 30
0.0
  9
$PUCSORGBACK
 10
0.0
 20
0.0
 30
0.0
  9
$USERI1
 70
     0
  9
$USERI2
 70
     0
  9
$USERI3
 70
     0
  9
$USERI4
 70
     0
  9
$USERI5
 70
     0
  9
$USERR1
 40
0.0
  9
$USERR2
 40
0.0
  9
$USERR3
 40
0.0
  9
$USERR4
 40
0.0
  9
$USERR5
 40
0.0
  9
$WORLDVIEW
 70
     1
  9
$SHADEDGE
 70
     3
  9
$SHADEDIF
 70
    70
  9
$TILEMODE
 70
     1
  9
$MAXACTVP
 70
    64
  9
$PINSBASE
 10
0.0
 20
0.0
 30
0.0
  9
$PLIMCHECK
 70
     0
  9
$PEXTMIN
 10
0.0
 20
0.0
 30
0.0
  9
$PEXTMAX
 10
0.0
 20
0.0
 30
0.0
  9
$PLIMMIN
 10
0.0
 20
0.0
  9
$PLIMMAX
 10
12.0
 20
9.0
  9
$UNITMODE
 70
     0
  9
$VISRETAIN
 70
     1
  9
$PLINEGEN
 70
     0
  9
$PSLTSCALE
 70
     1
  9
$TREEDEPTH
 70
  3020
  9
$CMLSTYLE
  2
SOLBET_IZOLACJA
  9
$CMLJUST
 70
     0
  9
$CMLSCALE
 40
20.0
  9
$PROXYGRAPHICS
 70
     1
  9
$MEASUREMENT
 70
     1
  9
$CELWEIGHT
370
    -1
  9
$ENDCAPS
280
     0
  9
$JOINSTYLE
280
     0
  9
$LWDISPLAY
290
     1
  9
$INSUNITS
 70
     4
  9
$HYPERLINKBASE
  1

  9
$STYLESHEET
  1

  9
$XEDIT
290
     1
  9
$CEPSNTYPE
380
     0
  9
$PSTYLEMODE
290
     1
  9
$FINGERPRINTGUID
  2
{6B12AB33-8E39-428E-8E85-461C8D99A3CB}
  9
$VERSIONGUID
  2
{8663C4C4-05C3-45A5-BE3B-D1638A78F630}
  9
$EXTNAMES
290
     1
  9
$PSVPSCALE
 40
0.0
  9
$OLESTARTUP
290
     0
  0
ENDSEC
  0
SECTION
  2
CLASSES
  0
CLASS
  1
ACDBDICTIONARYWDFLT
  2
AcDbDictionaryWithDefault
  3
ObjectDBX Classes
 90
        0
280
     0
281
     0
  0
CLASS
  1
ACDBPLACEHOLDER
  2
AcDbPlaceHolder
  3
ObjectDBX Classes
 90
        0
280
     0
281
     0
  0
CLASS
  1
LAYOUT
  2
AcDbLayout
  3
ObjectDBX Classes
 90
        0
280
     0
281
     0
  0
CLASS
  1
DICTIONARYVAR
  2
AcDbDictionaryVar
  3
ObjectDBX Classes
 90
        0
280
     0
281
     0
  0
CLASS
  1
TABLESTYLE
  2
AcDbTableStyle
  3
ObjectDBX Classes
 90
     4095
280
     0
281
     0
  0
CLASS
  1
MATERIAL
  2
AcDbMaterial
  3
ObjectDBX Classes
 90
     1024
280
     0
281
     0
  0
CLASS
  1
VISUALSTYLE
  2
AcDbVisualStyle
  3
ObjectDBX Classes
 90
     4095
280
     0
281
     0
  0
CLASS
  1
SCALE
  2
AcDbScale
  3
ObjectDBX Classes
 90
     1153
280
     0
281
     0
  0
CLASS
  1
MLEADERSTYLE
  2
AcDbMLeaderStyle
  3
ACDB_MLEADERSTYLE_CLASS
 90
     4095
280
     0
281
     0
  0
CLASS
  1
CELLSTYLEMAP
  2
AcDbCellStyleMap
  3
ObjectDBX Classes
 90
     1152
280
     0
281
     0
  0
CLASS
  1
DIMASSOC
  2
AcDbDimAssoc
  3
"AcDbDimAssoc|Product Desc:     AcDim ARX App For Dimension|Company:          Autodesk, Inc.|WEB Address:      www.autodesk.com"
 90
    32768
280
     0
281
     0
  0
CLASS
  1
SORTENTSTABLE
  2
AcDbSortentsTable
  3
ObjectDBX Classes
 90
        0
280
     0
281
     0
  0
CLASS
  1
MULTILEADER
  2
AcDbMLeader
  3
ACDB_MLEADER_CLASS
 90
    33793
280
     0
281
     1
  0
CLASS
  1
ACDB_MTEXTOBJECTCONTEXTDATA_CLASS
  2
AcDbMTextObjectContextData
  3
ObjectDBX Classes
 90
    33921
280
     0
281
     0
  0
ENDSEC
  0
SECTION
  2
TABLES
  0
TABLE
  2
VPORT
  5
8
102
{ACAD_XDICTIONARY
360
443
102
}
330
0
100
AcDbSymbolTable
 70
     1
  0
VPORT
  5
EA
330
8
100
AcDbSymbolTableRecord
100
AcDbViewportTableRecord
  2
*Active
 70
     0
 10
0.0
 20
0.0
 11
1.0
 21
1.0
 12
169.3459559708972
 22
148.5000020746477
 13
0.0
 23
0.0
 14
10.0
 24
10.0
 15
10.0
 25
10.0
 16
0.0
 26
0.0
 36
1.0
 17
0.0
 27
0.0
 37
0.0
 40
300.3091621912098
 41
1.74582560296846
 42
50.0
 43
0.0
 44
0.0
 50
0.0
 51
0.0
 71
     0
 72
  1000
 73
     1
 74
     3
 75
     0
 76
     0
 77
     0
 78
     0
281
     0
 65
     1
110
0.0
120
0.0
130
0.0
111
1.0
121
0.0
131
0.0
112
0.0
122
1.0
132
0.0
 79
     0
146
0.0
  0
ENDTAB
  0
TABLE
  2
LTYPE
  5
5
330
0
100
AcDbSymbolTable
 70
     3
  0
LTYPE
  5
14
330
5
100
AcDbSymbolTableRecord
100
AcDbLinetypeTableRecord
  2
ByBlock
 70
     0
  3

 72
    65
 73
     0
 40
0.0
  0
LTYPE
  5
15
330
5
100
AcDbSymbolTableRecord
100
AcDbLinetypeTableRecord
  2
ByLayer
 70
     0
  3

 72
    65
 73
     0
 40
0.0
  0
LTYPE
  5
16
330
5
100
AcDbSymbolTableRecord
100
AcDbLinetypeTableRecord
  2
Continuous
 70
     0
  3
Solid line
 72
    65
 73
     0
 40
0.0
  0
LTYPE
  5
982
330
5
100
AcDbSymbolTableRecord
100
AcDbLinetypeTableRecord
  2
BATTING
 70
     0
  3
Batting SSSSSSSSSSSSSSSSSSSSSSSSSSSSSSSSSSSSSSSSSSSSSSS
 72
    65
 73
     4
 40
10.16254
 49
0.00254
 74
     0
 49
-2.54
 74
     4
 75
   134
340
7E7
 46
2.54
 50
0.0
 44
-2.54
 45
0.0
 49
-5.08
 74
     4
 75
   134
340
7E7
 46
2.54
 50
180.0
 44
2.54
 45
0.0
 49
-2.54
 74
     0
  0
LTYPE
  5
2083
330
5
100
AcDbSymbolTableRecord
100
AcDbLinetypeTableRecord
  2
STRICHPUNKT
 70
     0
  3
__ . __ . __ . __ . __ . __ . __ . __ . __ . __
 72
    65
 73
     4
 40
1.0
 49
0.5
 74
     0
 49
-0.25
 74
     0
 49
0.0
 74
     0
 49
-0.25
 74
     0
  0
ENDTAB
  0
TABLE
  2
LAYER
  5
2
102
{ACAD_XDICTIONARY
360
3E5
102
}
330
0
100
AcDbSymbolTable
 70
    11
  0
LAYER
  5
10
102
{ACAD_XDICTIONARY
360
13C
102
}
330
2
100
AcDbSymbolTableRecord
100
AcDbLayerTableRecord
  2
0
 70
     0
 62
     7
  6
Continuous
370
    -3
390
F
  0
LAYER
  5
2BB
330
2
100
AcDbSymbolTableRecord
100
AcDbLayerTableRecord
  2
DEFPOINTS
 70
     0
 62
     7
  6
Continuous
290
     0
370
    -3
390
F
  0
LAYER
  5
3DD
102
{ACAD_XDICTIONARY
360
403
102
}
330
2
100
AcDbSymbolTableRecord
100
AcDbLayerTableRecord
  2
SOLBET_Bloczki
 70
     0
 62
   140
  6
Continuous
370
    -3
390
F
1001
AcAecLayerStandard
1000

1000

  0
LAYER
  5
3DF
102
{ACAD_XDICTIONARY
360
405
102
}
330
2
100
AcDbSymbolTableRecord
100
AcDbLayerTableRecord
  2
SOLBET_Wymiary_Opisy
 70
     0
 62
     1
  6
Continuous
370
    -3
390
F
1001
AcAecLayerStandard
1000

1000

  0
LAYER
  5
3E1
102
{ACAD_XDICTIONARY
360
409
102
}
330
2
100
AcDbSymbolTableRecord
100
AcDbLayerTableRecord
  2
SOLBET_Izolacja
 70
     0
 62
    40
  6
Continuous
370
    -3
390
F
1001
AcAecLayerStandard
1000

1000

  0
LAYER
  5
3E2
102
{ACAD_XDICTIONARY
360
40B
102
}
330
2
100
AcDbSymbolTableRecord
100
AcDbLayerTableRecord
  2
SOLBET_Zbrojenie_Konstrukcja
 70
     0
 62
     7
  6
Continuous
370
    -3
390
F
1001
AcAecLayerStandard
1000

1000

  0
LAYER
  5
3E4
102
{ACAD_XDICTIONARY
360
40F
102
}
330
2
100
AcDbSymbolTableRecord
100
AcDbLayerTableRecord
  2
SOLBET_Tynki_Posadzki
 70
     0
 62
     3
  6
Continuous
370
    -3
390
F
1001
AcAecLayerStandard
1000

1000

  0
LAYER
  5
3E8
102
{ACAD_XDICTIONARY
360
411
102
}
330
2
100
AcDbSymbolTableRecord
100
AcDbLayerTableRecord
  2
SOLBET_Ramka_05
 70
     0
 62
     2
  6
Continuous
370
    -3
390
F
1001
AcAecLayerStandard
1000

1000

  0
LAYER
  5
472
330
2
100
AcDbSymbolTableRecord
100
AcDbLayerTableRecord
  2
SOLBET_Zaprawy
 70
     0
 62
     4
  6
Continuous
370
    -3
390
F
1001
AcAecLayerStandard
1000

1000

  0
LAYER
  5
2270
330
2
100
AcDbSymbolTableRecord
100
AcDbLayerTableRecord
  2
SOLBET_Stolarka_Okna
 70
     0
 62
     2
  6
Continuous
370
    -3
390
F
1001
AcAecLayerStandard
1000

1000

  0
LAYER
  5
241B
102
{ACAD_XDICTIONARY
360
241C
102
}
330
2
100
AcDbSymbolTableRecord
100
AcDbLayerTableRecord
  2
SOLBET_Wymiary_Opisy @ 1
 70
     0
 62
     1
  6
Continuous
370
    -3
390
F
1001
AcAecLayerStandard
1000

1000

1001
AcadAnnotativeDecomposition
1000
AnnotativeData
1002
{
1070
     1
1070
     1
1002
}
  0
ENDTAB
  0
TABLE
  2
STYLE
  5
3
330
0
100
AcDbSymbolTable
 70
     5
  0
STYLE
  5
11
330
3
100
AcDbSymbolTableRecord
100
AcDbTextStyleTableRecord
  2
Standard
 70
     0
 40
0.0
 41
1.0
 50
0.0
 71
     0
 42
2.5
  3
txt.shx
  4

  0
STYLE
  5
7D7
330
3
100
AcDbSymbolTableRecord
100
AcDbTextStyleTableRecord
  2
Solbet_5
 70
     0
 40
5.0
 41
1.0
 50
0.0
 71
     0
 42
5.0
  3
isocpeur.ttf
  4

1001
ACAD
1000
ISOCPEUR
1071
       34
  0
STYLE
  5
7D9
330
3
100
AcDbSymbolTableRecord
100
AcDbTextStyleTableRecord
  2
Solbet_2_5
 70
     0
 40
2.5
 41
1.0
 50
0.0
 71
     0
 42
2.5
  3
isocpeur.ttf
  4

1001
ACAD
1000
ISOCPEUR
1071
       34
  0
STYLE
  5
7E7
330
3
100
AcDbSymbolTableRecord
100
AcDbTextStyleTableRecord
  2

 70
     1
 40
0.0
 41
1.0
 50
0.0
 71
     0
 42
2.5
  3
ltypeshp.shx
  4

  0
STYLE
  5
2232
330
3
100
AcDbSymbolTableRecord
100
AcDbTextStyleTableRecord
  2
Solbet_1
 70
     0
 40
1.0
 41
1.0
 50
0.0
 71
     0
 42
2.5
  3
isocpeur.ttf
  4

1001
ACAD
1000
ISOCPEUR
1071
       34
  0
ENDTAB
  0
TABLE
  2
VIEW
  5
6
330
0
100
AcDbSymbolTable
 70
     0
  0
ENDTAB
  0
TABLE
  2
UCS
  5
7
330
0
100
AcDbSymbolTable
 70
     0
  0
ENDTAB
  0
TABLE
  2
APPID
  5
9
330
0
100
AcDbSymbolTable
 70
    13
  0
APPID
  5
12
330
9
100
AcDbSymbolTableRecord
100
AcDbRegAppTableRecord
  2
ACAD
 70
     0
  0
APPID
  5
9E
330
9
100
AcDbSymbolTableRecord
100
AcDbRegAppTableRecord
  2
ACAD_PSEXT
 70
     0
  0
APPID
  5
133
330
9
100
AcDbSymbolTableRecord
100
AcDbRegAppTableRecord
  2
AcadAnnoPO
 70
     0
  0
APPID
  5
134
330
9
100
AcDbSymbolTableRecord
100
AcDbRegAppTableRecord
  2
AcadAnnotative
 70
     0
  0
APPID
  5
135
330
9
100
AcDbSymbolTableRecord
100
AcDbRegAppTableRecord
  2
ACAD_DSTYLE_DIMJAG
 70
     0
  0
APPID
  5
136
330
9
100
AcDbSymbolTableRecord
100
AcDbRegAppTableRecord
  2
ACAD_DSTYLE_DIMTALN
 70
     0
  0
APPID
  5
165
330
9
100
AcDbSymbolTableRecord
100
AcDbRegAppTableRecord
  2
ACAD_MLEADERVER
 70
     0
  0
APPID
  5
2C4
330
9
100
AcDbSymbolTableRecord
100
AcDbRegAppTableRecord
  2
ASO_SCHRAFF
 70
     0
  0
APPID
  5
3DE
330
9
100
AcDbSymbolTableRecord
100
AcDbRegAppTableRecord
  2
AcAecLayerStandard
 70
     0
  0
APPID
  5
7DE
330
9
100
AcDbSymbolTableRecord
100
AcDbRegAppTableRecord
  2
ACAD_EXEMPT_FROM_CAD_STANDARDS
 70
     0
  0
APPID
  5
948
330
9
100
AcDbSymbolTableRecord
100
AcDbRegAppTableRecord
  2
ACAD_DSTYLE_DIMBREAK
 70
     0
  0
APPID
  5
1D0A
330
9
100
AcDbSymbolTableRecord
100
AcDbRegAppTableRecord
  2
AcadAnnotativeDecomposition
 70
     0
  0
APPID
  5
2233
330
9
100
AcDbSymbolTableRecord
100
AcDbRegAppTableRecord
  2
AcDbAttr
 70
     0
  0
ENDTAB
  0
TABLE
  2
DIMSTYLE
  5
A
330
0
100
AcDbSymbolTable
 70
     2
100
AcDbDimStyleTable
 71
     1
340
949
  0
DIMSTYLE
105
949
330
A
100
AcDbSymbolTableRecord
100
AcDbDimStyleTableRecord
  2
Solbet
 70
     0
 41
2.5
 42
0.0
 43
3.75
 44
1.25
 73
     0
 74
     0
 77
     1
 78
     8
140
2.5
141
2.5
143
0.03937007874016
147
0.625
171
     3
172
     1
271
     2
272
     2
274
     3
278
    44
283
     0
284
     8
340
7D9
1001
ACAD_DSTYLE_DIMBREAK
1070
   391
1040
3.75
1001
ACAD_DSTYLE_DIMJAG
1070
   388
1040
1.5
1001
ACAD_DSTYLE_DIMTALN
1070
   392
1070
     0
  0
DIMSTYLE
105
954
330
A
100
AcDbSymbolTableRecord
100
AcDbDimStyleTableRecord
  2
Solbet$7
 70
     0
 41
2.5
 42
0.0
 43
3.75
 44
1.25
 73
     0
 74
     0
 77
     1
 78
     8
140
2.5
141
2.5
143
0.03937007874016
147
0.625
171
     3
172
     1
271
     2
272
     2
274
     3
278
    44
283
     0
284
     8
340
7D9
341
958
1001
ACAD_DSTYLE_DIMBREAK
1070
   391
1040
3.75
1001
ACAD_DSTYLE_DIMJAG
1070
   388
1040
1.5
1001
ACAD_DSTYLE_DIMTALN
1070
   392
1070
     0
  0
ENDTAB
  0
TABLE
  2
BLOCK_RECORD
  5
1
330
0
100
AcDbSymbolTable
 70
     7
  0
BLOCK_RECORD
  5
1F
102
{ACAD_XDICTIONARY
360
4A3
102
}
330
1
100
AcDbSymbolTableRecord
100
AcDbBlockTableRecord
  2
*Model_Space
340
22
  0
BLOCK_RECORD
  5
D2
330
1
100
AcDbSymbolTableRecord
100
AcDbBlockTableRecord
  2
*Paper_Space
340
D3
  0
BLOCK_RECORD
  5
D6
330
1
100
AcDbSymbolTableRecord
100
AcDbBlockTableRecord
  2
*Paper_Space0
340
D7
  0
BLOCK_RECORD
  5
958
330
1
100
AcDbSymbolTableRecord
100
AcDbBlockTableRecord
  2
_DotSmall
340
0
102
{BLKREFS
331
22B5
331
22B9
102
}
  0
BLOCK_RECORD
  5
2234
102
{ACAD_XDICTIONARY
360
223F
102
}
330
1
100
AcDbSymbolTableRecord
100
AcDbBlockTableRecord
  2
SOLBET_Bloczek_OPTIMAL_240x240x590_PRA
340
0
1001
ACAD
1000
DesignCenter Data
1002
{
1070
     1
1070
     4
1002
}
  0
BLOCK_RECORD
  5
2252
102
{ACAD_XDICTIONARY
360
2260
102
}
330
1
100
AcDbSymbolTableRecord
100
AcDbBlockTableRecord
  2
SOLBET_Ksztaltka_U_240x240x500_PRA
340
0
1001
ACAD
1000
DesignCenter Data
1002
{
1070
     1
1070
     4
1002
}
  0
BLOCK_RECORD
  5
246E
102
{ACAD_XDICTIONARY
360
247C
102
}
330
1
100
AcDbSymbolTableRecord
100
AcDbBlockTableRecord
  2
SOLBET_Ksztaltka_U_240x240x500_KG600_PRA
340
0
102
{BLKREFS
331
2480
331
2481
102
}
1001
ACAD
1000
DesignCenter Data
1002
{
1070
     1
1070
     4
1002
}
  0
BLOCK_RECORD
  5
2482
102
{ACAD_XDICTIONARY
360
248D
102
}
330
1
100
AcDbSymbolTableRecord
100
AcDbBlockTableRecord
  2
SOLBET_Bloczek_Optimal_240x240x590_G_KG600_PRA
340
0
102
{BLKREFS
331
2491
331
2492
331
2493
331
2494
331
2495
102
}
1001
ACAD
1000
DesignCenter Data
1002
{
1070
     1
1070
     4
1002
}
  0
ENDTAB
  0
ENDSEC
  0
SECTION
  2
BLOCKS
  0
BLOCK
  5
20
330
1F
100
AcDbEntity
  8
0
100
AcDbBlockBegin
  2
*Model_Space
 70
     0
 10
0.0
 20
0.0
 30
0.0
  3
*Model_Space
  1

  0
ENDBLK
  5
21
330
1F
100
AcDbEntity
  8
0
100
AcDbBlockEnd
  0
BLOCK
  5
D4
330
D2
100
AcDbEntity
 67
     1
  8
0
100
AcDbBlockBegin
  2
*Paper_Space
 70
     0
 10
0.0
 20
0.0
 30
0.0
  3
*Paper_Space
  1

  0
ENDBLK
  5
D5
330
D2
100
AcDbEntity
 67
     1
  8
0
100
AcDbBlockEnd
  0
BLOCK
  5
D8
330
D6
100
AcDbEntity
 67
     1
  8
0
100
AcDbBlockBegin
  2
*Paper_Space0
 70
     0
 10
0.0
 20
0.0
 30
0.0
  3
*Paper_Space0
  1

  0
ENDBLK
  5
D9
330
D6
100
AcDbEntity
 67
     1
  8
0
100
AcDbBlockEnd
  0
BLOCK
  5
95A
330
958
100
AcDbEntity
  8
0
100
AcDbBlockBegin
  2
_DotSmall
 70
     0
 10
0.0
 20
0.0
 30
0.0
  3
_DotSmall
  1

  0
LWPOLYLINE
  5
959
330
958
100
AcDbEntity
  8
0
  6
ByBlock
 62
     0
100
AcDbPolyline
 90
        2
 70
     1
 43
0.5
 10
-0.0625
 20
0.0
 42
1.0
 10
0.0625
 20
0.0
 42
1.0
  0
ENDBLK
  5
95B
330
958
100
AcDbEntity
  8
0
100
AcDbBlockEnd
  0
BLOCK
  5
2241
330
2234
100
AcDbEntity
  8
0
100
AcDbBlockBegin
  2
SOLBET_Bloczek_OPTIMAL_240x240x590_PRA
 70
     2
 10
0.0
 20
0.0
 30
0.0
  3
SOLBET_Bloczek_OPTIMAL_240x240x590_PRA
  1

  0
ATTDEF
  5
2235
330
2234
100
AcDbEntity
  8
SOLBET_Wymiary_Opisy
100
AcDbText
 10
0.0000001757484824
 20
4.927022981232882
 30
0.0
 40
0.9913121336814832
  1
240x240x590
  7
Solbet_1
100
AcDbAttributeDefinition
  3

  2
WYMIARY
 70
     3
1001
AcDbAttr
1070
     0
1070
     1
  0
ATTDEF
  5
2236
330
2234
100
AcDbEntity
  8
SOLBET_Wymiary_Opisy
100
AcDbText
 10
0.0000001757484824
 20
3.414503573516785
 30
0.0
 40
0.9913121336814832
  1
400, 500, 600, 700
  7
Solbet_1
100
AcDbAttributeDefinition
  3

  2
KLASA_GĘSTOŚCI
 70
     9
1001
AcDbAttr
1070
     0
1070
     1
  0
ATTDEF
  5
2237
330
2234
100
AcDbEntity
  8
SOLBET_Wymiary_Opisy
100
AcDbText
 10
-0.0000000878742412
 20
0.2448647517692188
 30
0.0
 40
0.9913121336814832
  1
SOLBET
  7
Solbet_1
100
AcDbAttributeDefinition
  3

  2
FIRMA
 70
     3
1001
AcDbAttr
1070
     0
1070
     1
  0
ATTDEF
  5
2238
330
2234
100
AcDbEntity
  8
SOLBET_Wymiary_Opisy
100
AcDbText
 10
0.0000001757484824
 20
7.957332979580714
 30
0.0
 40
0.9913121336814832
  1
Bloczek
  7
Solbet_1
100
AcDbAttributeDefinition
  3
Nazwa
  2
NAZWA
 70
     3
1001
AcDbAttr
1070
     0
1070
     1
  0
ATTDEF
  5
2239
330
2234
100
AcDbEntity
  8
SOLBET_Wymiary_Opisy
100
AcDbText
 10
0.0000001757484824
 20
6.418284799346509
 30
0.0
 40
0.9913121336814832
  1
SOLBET OPTIMAL
  7
Solbet_1
100
AcDbAttributeDefinition
  3

  2
SYSTEM
 70
     3
1001
AcDbAttr
1070
     0
1070
     1
  0
ATTDEF
  5
223A
330
2234
100
AcDbEntity
  8
SOLBET_Wymiary_Opisy
100
AcDbText
 10
-0.0000000878742412
 20
1.744181511296331
 30
0.0
 40
0.9913121336814832
  1
Prawo
  7
Solbet_1
100
AcDbAttributeDefinition
  3

  2
WIDOK
 70
    11
1001
AcDbAttr
1070
     0
1070
     1
  0
LINE
  5
223B
330
2234
100
AcDbEntity
  8
SOLBET_Bloczki
100
AcDbLine
 10
12.00000017574848
 20
11.99999995881262
 30
0.0
 11
12.00000017574848
 21
-0.0000000411874908
 31
0.0
  0
LINE
  5
223C
330
2234
100
AcDbEntity
  8
SOLBET_Bloczki
100
AcDbLine
 10
12.00000017574848
 20
11.99999995881262
 30
0.0
 11
0.0000001757484824
 21
11.99999995881262
 31
0.0
  0
LINE
  5
223D
330
2234
100
AcDbEntity
  8
SOLBET_Bloczki
100
AcDbLine
 10
0.0000001757484824
 20
11.99999995881262
 30
0.0
 11
0.0000001757484824
 21
-0.0000000411873771
 31
0.0
  0
LINE
  5
223E
330
2234
100
AcDbEntity
  8
SOLBET_Bloczki
100
AcDbLine
 10
0.0000001757484824
 20
-0.0000000411873771
 30
0.0
 11
12.00000017574848
 21
-0.0000000411874908
 31
0.0
  0
ENDBLK
  5
2242
330
2234
100
AcDbEntity
  8
0
100
AcDbBlockEnd
  0
BLOCK
  5
2262
330
2252
100
AcDbEntity
  8
0
100
AcDbBlockBegin
  2
SOLBET_Ksztaltka_U_240x240x500_PRA
 70
     2
 10
0.0
 20
0.0
 30
0.0
  3
SOLBET_Ksztaltka_U_240x240x500_PRA
  1

  0
ATTDEF
  5
2253
330
2252
100
AcDbEntity
  8
SOLBET_Wymiary_Opisy
100
AcDbText
 10
-0.0000000476806008
 20
4.790718044940628
 30
0.0
 40
0.9913121336814832
  1
240x240x500
  7
Solbet_1
100
AcDbAttributeDefinition
  3

  2
WYMIARY
 70
     3
1001
AcDbAttr
1070
     0
1070
     1
  0
ATTDEF
  5
2254
330
2252
100
AcDbEntity
  8
SOLBET_Wymiary_Opisy
100
AcDbText
 10
-0.0000000476806008
 20
3.27819863722453
 30
0.0
 40
0.9913121336814832
  1
600
  7
Solbet_1
100
AcDbAttributeDefinition
  3

  2
KLASA_GĘSTOŚCI
 70
     3
1001
AcDbAttr
1070
     0
1070
     1
  0
ATTDEF
  5
2255
330
2252
100
AcDbEntity
  8
SOLBET_Wymiary_Opisy
100
AcDbText
 10
-0.0000000476806008
 20
0.2448648003876223
 30
0.0
 40
0.9913121336814832
  1
SOLBET
  7
Solbet_1
100
AcDbAttributeDefinition
  3

  2
FIRMA
 70
     3
1001
AcDbAttr
1070
     0
1070
     1
  0
ATTDEF
  5
2256
330
2252
100
AcDbEntity
  8
SOLBET_Wymiary_Opisy
100
AcDbText
 10
-0.0000000476806008
 20
6.347422594011662
 30
0.0
 40
0.9913121336814832
  1
Kształtka U
  7
Solbet_1
100
AcDbAttributeDefinition
  3
Nazwa
  2
NAZWA
 70
     3
1001
AcDbAttr
1070
     0
1070
     1
  0
ATTDEF
  5
2257
330
2252
100
AcDbEntity
  8
SOLBET_Wymiary_Opisy
100
AcDbText
 10
-0.0000000476806008
 20
1.744181559914735
 30
0.0
 40
0.9913121336814832
  1
Prawo
  7
Solbet_1
100
AcDbAttributeDefinition
  3

  2
WIDOK
 70
    11
1001
AcDbAttr
1070
     0
1070
     1
  0
LINE
  5
2258
330
2252
100
AcDbEntity
  8
SOLBET_Bloczki
100
AcDbLine
 10
0.0000001907224054
 20
11.99999982461372
 30
0.0
 11
12.0000001907224
 21
11.99999982461372
 31
0.0
  0
LINE
  5
2259
330
2252
100
AcDbEntity
  8
SOLBET_Bloczki
100
AcDbLine
 10
12.0000001907224
 20
11.99999982461372
 30
0.0
 11
12.0000001907224
 21
-0.0000001753862779
 31
0.0
  0
LINE
  5
225A
330
2252
100
AcDbEntity
  8
SOLBET_Bloczki
100
AcDbLine
 10
12.0000001907224
 20
-0.0000001753862779
 30
0.0
 11
0.0000001907224032
 21
-0.0000001753862762
 31
0.0
  0
LINE
  5
225B
330
2252
100
AcDbEntity
  8
SOLBET_Bloczki
100
AcDbLine
 10
0.0000001907224032
 20
-0.0000001753862762
 30
0.0
 11
0.0000001907224038
 21
2.999999824613723
 31
0.0
  0
LINE
  5
225C
330
2252
100
AcDbEntity
  8
SOLBET_Bloczki
100
AcDbLine
 10
0.0000001907224054
 20
11.99999982461372
 30
0.0
 11
0.0000001907224049
 21
8.999999824613723
 31
0.0
  0
LINE
  5
225D
330
2252
100
AcDbEntity
  8
SOLBET_Bloczki
100
AcDbLine
 10
9.000000190722403
 20
2.999999824613494
 30
0.0
 11
9.000000190722404
 21
8.999999824613722
 31
0.0
  0
LINE
  5
225E
330
2252
100
AcDbEntity
  8
SOLBET_Bloczki
100
AcDbLine
 10
0.0000001907224038
 20
2.999999824613723
 30
0.0
 11
9.000000190722403
 21
2.999999824613722
 31
0.0
  0
LINE
  5
225F
330
2252
100
AcDbEntity
  8
SOLBET_Bloczki
100
AcDbLine
 10
0.0000001907224049
 20
8.999999824613723
 30
0.0
 11
9.000000190722404
 21
8.999999824613722
 31
0.0
  0
ENDBLK
  5
2263
330
2252
100
AcDbEntity
  8
0
100
AcDbBlockEnd
  0
BLOCK
  5
247E
330
246E
100
AcDbEntity
  8
0
100
AcDbBlockBegin
  2
SOLBET_Ksztaltka_U_240x240x500_KG600_PRA
 70
     2
 10
0.0
 20
0.0
 30
0.0
  3
SOLBET_Ksztaltka_U_240x240x500_KG600_PRA
  1

  0
ATTDEF
  5
246F
330
246E
100
AcDbEntity
  8
SOLBET_Wymiary_Opisy
100
AcDbText
 10
-0.0000000476806008
 20
4.790718044940628
 30
0.0
 40
0.9913121336814832
  1
240x240x500
  7
Solbet_1
100
AcDbAttributeDefinition
  3

  2
WYMIARY
 70
    11
1001
AcDbAttr
1070
     0
1070
     1
  0
ATTDEF
  5
2470
330
246E
100
AcDbEntity
  8
SOLBET_Wymiary_Opisy
100
AcDbText
 10
-0.0000000476806008
 20
3.27819863722453
 30
0.0
 40
0.9913121336814832
  1
600
  7
Solbet_1
100
AcDbAttributeDefinition
  3

  2
KLASA_GĘSTOŚCI
 70
    11
1001
AcDbAttr
1070
     0
1070
     1
  0
ATTDEF
  5
2471
330
246E
100
AcDbEntity
  8
SOLBET_Wymiary_Opisy
100
AcDbText
 10
-0.0000000476806008
 20
0.2448648003876223
 30
0.0
 40
0.9913121336814832
  1
SOLBET
  7
Solbet_1
100
AcDbAttributeDefinition
  3

  2
FIRMA
 70
    11
1001
AcDbAttr
1070
     0
1070
     1
  0
ATTDEF
  5
2472
330
246E
100
AcDbEntity
  8
SOLBET_Wymiary_Opisy
100
AcDbText
 10
-0.0000000476806008
 20
6.347422594011662
 30
0.0
 40
0.9913121336814832
  1
Kształtka U
  7
Solbet_1
100
AcDbAttributeDefinition
  3
Nazwa
  2
NAZWA
 70
    11
1001
AcDbAttr
1070
     0
1070
     1
  0
ATTDEF
  5
2473
330
246E
100
AcDbEntity
  8
SOLBET_Wymiary_Opisy
100
AcDbText
 10
-0.0000000476806008
 20
1.744181559914735
 30
0.0
 40
0.9913121336814832
  1
Prawo
  7
Solbet_1
100
AcDbAttributeDefinition
  3

  2
WIDOK
 70
    11
1001
AcDbAttr
1070
     0
1070
     1
  0
LINE
  5
2474
330
246E
100
AcDbEntity
  8
SOLBET_Bloczki
100
AcDbLine
 10
0.0000001907224054
 20
11.99999982461372
 30
0.0
 11
12.0000001907224
 21
11.99999982461372
 31
0.0
  0
LINE
  5
2475
330
246E
100
AcDbEntity
  8
SOLBET_Bloczki
100
AcDbLine
 10
12.0000001907224
 20
11.99999982461372
 30
0.0
 11
12.0000001907224
 21
-0.0000001753862779
 31
0.0
  0
LINE
  5
2476
330
246E
100
AcDbEntity
  8
SOLBET_Bloczki
100
AcDbLine
 10
12.0000001907224
 20
-0.0000001753862779
 30
0.0
 11
0.0000001907224032
 21
-0.0000001753862762
 31
0.0
  0
LINE
  5
2477
330
246E
100
AcDbEntity
  8
SOLBET_Bloczki
100
AcDbLine
 10
0.0000001907224032
 20
-0.0000001753862762
 30
0.0
 11
0.0000001907224038
 21
2.999999824613723
 31
0.0
  0
LINE
  5
2478
330
246E
100
AcDbEntity
  8
SOLBET_Bloczki
100
AcDbLine
 10
0.0000001907224054
 20
11.99999982461372
 30
0.0
 11
0.0000001907224049
 21
8.999999824613723
 31
0.0
  0
LINE
  5
2479
330
246E
100
AcDbEntity
  8
SOLBET_Bloczki
100
AcDbLine
 10
9.000000190722403
 20
2.999999824613494
 30
0.0
 11
9.000000190722404
 21
8.999999824613722
 31
0.0
  0
LINE
  5
247A
330
246E
100
AcDbEntity
  8
SOLBET_Bloczki
100
AcDbLine
 10
0.0000001907224038
 20
2.999999824613723
 30
0.0
 11
9.000000190722403
 21
2.999999824613722
 31
0.0
  0
LINE
  5
247B
330
246E
100
AcDbEntity
  8
SOLBET_Bloczki
100
AcDbLine
 10
0.0000001907224049
 20
8.999999824613723
 30
0.0
 11
9.000000190722404
 21
8.999999824613722
 31
0.0
  0
ENDBLK
  5
247F
330
246E
100
AcDbEntity
  8
0
100
AcDbBlockEnd
  0
BLOCK
  5
248F
330
2482
100
AcDbEntity
  8
0
100
AcDbBlockBegin
  2
SOLBET_Bloczek_Optimal_240x240x590_G_KG600_PRA
 70
     2
 10
0.0
 20
0.0
 30
0.0
  3
SOLBET_Bloczek_Optimal_240x240x590_G_KG600_PRA
  1

  0
ATTDEF
  5
2483
330
2482
100
AcDbEntity
  8
SOLBET_Wymiary_Opisy
100
AcDbText
 10
0.0000001757484824
 20
4.927022981232882
 30
0.0
 40
0.9913121336814832
  1
240x240x590
  7
Solbet_1
100
AcDbAttributeDefinition
  3

  2
WYMIARY
 70
    11
1001
AcDbAttr
1070
     0
1070
     1
  0
ATTDEF
  5
2484
330
2482
100
AcDbEntity
  8
SOLBET_Wymiary_Opisy
100
AcDbText
 10
0.0000001757484824
 20
3.414503573516785
 30
0.0
 40
0.9913121336814832
  1
600
  7
Solbet_1
100
AcDbAttributeDefinition
  3

  2
KLASA_GĘSTOŚCI
 70
    11
1001
AcDbAttr
1070
     0
1070
     1
  0
ATTDEF
  5
2485
330
2482
100
AcDbEntity
  8
SOLBET_Wymiary_Opisy
100
AcDbText
 10
-0.0000000878742412
 20
0.2448647517692188
 30
0.0
 40
0.9913121336814832
  1
SOLBET
  7
Solbet_1
100
AcDbAttributeDefinition
  3

  2
FIRMA
 70
    11
1001
AcDbAttr
1070
     0
1070
     1
  0
ATTDEF
  5
2486
330
2482
100
AcDbEntity
  8
SOLBET_Wymiary_Opisy
100
AcDbText
 10
0.0000001757484824
 20
7.957332979580714
 30
0.0
 40
0.9913121336814832
  1
Bloczek
  7
Solbet_1
100
AcDbAttributeDefinition
  3
Nazwa
  2
NAZWA
 70
    11
1001
AcDbAttr
1070
     0
1070
     1
  0
ATTDEF
  5
2487
330
2482
100
AcDbEntity
  8
SOLBET_Wymiary_Opisy
100
AcDbText
 10
0.0000001757484824
 20
6.418284799346509
 30
0.0
 40
0.9913121336814832
  1
SOLBET Optimal
  7
Solbet_1
100
AcDbAttributeDefinition
  3

  2
SYSTEM
 70
    11
1001
AcDbAttr
1070
     0
1070
     1
  0
ATTDEF
  5
2488
330
2482
100
AcDbEntity
  8
SOLBET_Wymiary_Opisy
100
AcDbText
 10
-0.0000000878742412
 20
1.744181511296331
 30
0.0
 40
0.9913121336814832
  1
Prawo
  7
Solbet_1
100
AcDbAttributeDefinition
  3

  2
WIDOK
 70
    11
1001
AcDbAttr
1070
     0
1070
     1
  0
LINE
  5
2489
330
2482
100
AcDbEntity
  8
SOLBET_Bloczki
100
AcDbLine
 10
12.00000017574848
 20
11.99999995881262
 30
0.0
 11
12.00000017574848
 21
-0.0000000411874908
 31
0.0
  0
LINE
  5
248A
330
2482
100
AcDbEntity
  8
SOLBET_Bloczki
100
AcDbLine
 10
12.00000017574848
 20
11.99999995881262
 30
0.0
 11
0.0000001757484824
 21
11.99999995881262
 31
0.0
  0
LINE
  5
248B
330
2482
100
AcDbEntity
  8
SOLBET_Bloczki
100
AcDbLine
 10
0.0000001757484824
 20
11.99999995881262
 30
0.0
 11
0.0000001757484824
 21
-0.0000000411873771
 31
0.0
  0
LINE
  5
248C
330
2482
100
AcDbEntity
  8
SOLBET_Bloczki
100
AcDbLine
 10
0.0000001757484824
 20
-0.0000000411873771
 30
0.0
 11
12.00000017574848
 21
-0.0000000411874908
 31
0.0
  0
ENDBLK
  5
2490
330
2482
100
AcDbEntity
  8
0
100
AcDbBlockEnd
  0
ENDSEC
  0
SECTION
  2
ENTITIES
  0
LINE
  5
214F
330
1F
100
AcDbEntity
  8
SOLBET_Wymiary_Opisy
100
AcDbLine
 10
241.3162359452624
 20
220.1951752655291
 30
0.0
 11
241.3162359452624
 21
160.7560318264181
 31
0.0
  0
LINE
  5
2150
330
1F
100
AcDbEntity
  8
SOLBET_Wymiary_Opisy
100
AcDbLine
 10
108.3183929934464
 20
220.1951752655291
 30
0.0
 11
241.3162359452624
 21
220.1951752655291
 31
0.0
  0
LINE
  5
2153
330
1F
100
AcDbEntity
  8
SOLBET_Tynki_Posadzki
100
AcDbLine
 10
182.1153806605441
 20
192.9795236648474
 30
0.0
 11
182.1153806605441
 21
192.4795236648465
 31
0.0
  0
ARC
  5
2154
330
1F
100
AcDbEntity
  8
SOLBET_Tynki_Posadzki
100
AcDbCircle
 10
181.3173144693653
 20
192.9795236648474
 30
0.0
 40
1.5000521396288
100
AcDbArc
 50
0.0
 51
90.0
  0
LINE
  5
2158
330
1F
100
AcDbEntity
  8
SOLBET_Tynki_Posadzki
100
AcDbLine
 10
182.1153806605441
 20
192.9795236648474
 30
0.0
 11
241.3162359452624
 21
192.9795236648474
 31
0.0
  0
LINE
  5
215A
330
1F
100
AcDbEntity
  8
SOLBET_Tynki_Posadzki
100
AcDbLine
 10
181.3173144693653
 20
192.4795236648465
 30
0.0
 11
181.3173144693653
 21
220.1951752655291
 31
0.0
  0
LINE
  5
215C
330
1F
100
AcDbEntity
  8
SOLBET_Tynki_Posadzki
100
AcDbLine
 10
181.3173144693653
 20
177.2295236648465
 30
0.0
 11
181.3173144693653
 21
160.7560318264181
 31
0.0
  0
LINE
  5
215F
330
1F
100
AcDbEntity
  8
SOLBET_Wymiary_Opisy
100
AcDbLine
 10
108.3183929934464
 20
160.7560318264181
 30
0.0
 11
241.3162359452624
 21
160.7560318264181
 31
0.0
  0
LINE
  5
2164
330
1F
100
AcDbEntity
  8
SOLBET_Stolarka_Okna
100
AcDbLine
 10
172.7180421677556
 20
178.4795236648465
 30
0.0
 11
241.3162359452624
 21
178.4795236648465
 31
0.0
  0
LWPOLYLINE
  5
2168
330
1F
100
AcDbEntity
  8
SOLBET_Zbrojenie_Konstrukcja
100
AcDbPolyline
 90
        2
 70
     1
 43
0.3
 10
172.9606794158542
 20
170.5499072197458
 42
1.0
 10
173.2606794158571
 20
170.5499072197458
 42
1.0
  0
LWPOLYLINE
  5
2169
330
1F
100
AcDbEntity
  8
SOLBET_Zbrojenie_Konstrukcja
100
AcDbPolyline
 90
        2
 70
     1
 43
0.3
 10
173.0247070325647
 20
177.1582004766319
 42
1.0
 10
173.3247070325603
 20
177.1582004766319
 42
1.0
  0
LINE
  5
216A
330
1F
100
AcDbEntity
  8
SOLBET_Zbrojenie_Konstrukcja
100
AcDbLine
 10
175.4696271038344
 20
176.0692339637967
 30
0.0
 11
173.9141981594882
 21
177.6246629081374
 31
0.0
  0
LINE
  5
216B
330
1F
100
AcDbEntity
  8
SOLBET_Zbrojenie_Konstrukcja
100
AcDbLine
 10
174.2696271038228
 20
174.8692339637978
 30
0.0
 11
172.7913859247498
 21
176.347475142878
 31
0.0
  0
LWPOLYLINE
  5
216C
330
1F
100
AcDbEntity
  8
SOLBET_Zbrojenie_Konstrukcja
100
AcDbPolyline
 90
        2
 70
     1
 43
0.3
 10
177.001024890859
 20
170.5495314668876
 42
-1.0
 10
176.7010248908561
 20
170.5495314668876
 42
-1.0
  0
LWPOLYLINE
  5
216D
330
1F
100
AcDbEntity
  8
SOLBET_Zbrojenie_Konstrukcja
100
AcDbPolyline
 90
        2
 70
     1
 43
0.3
 10
176.9369972741485
 20
177.0873510924461
 42
-1.0
 10
176.6369972741529
 20
177.0873510924461
 42
-1.0
  0
LINE
  5
2171
330
1F
100
AcDbEntity
  8
SOLBET_Stolarka_Okna
100
AcDbLine
 10
172.7180421677556
 20
190.4795236648465
 30
0.0
 11
172.7180421677556
 21
178.4795236648465
 31
0.0
  0
LINE
  5
2172
330
1F
100
AcDbEntity
  8
SOLBET_Stolarka_Okna
100
AcDbLine
 10
172.7180421677556
 20
180.379523664847
 30
0.0
 11
173.7180421677556
 21
180.379523664847
 31
0.0
  0
LINE
  5
2176
330
1F
100
AcDbEntity
  8
SOLBET_Stolarka_Okna
100
AcDbLine
 10
177.7180421677556
 20
188.5795236648468
 30
0.0
 11
241.3162359452624
 21
188.5795236648468
 31
0.0
  0
LINE
  5
2177
330
1F
100
AcDbEntity
  8
SOLBET_Stolarka_Okna
100
AcDbLine
 10
177.7180421677556
 20
180.379523664847
 30
0.0
 11
241.3162359452624
 21
180.379523664847
 31
0.0
  0
LWPOLYLINE
  5
2178
330
1F
100
AcDbEntity
  8
SOLBET_Zbrojenie_Konstrukcja
100
AcDbPolyline
 90
        4
 70
     1
 43
0.0
 10
173.7180421677556
 20
178.4795236648465
 10
177.7180421677556
 20
178.4795236648465
 10
177.7180421677556
 20
190.4795236648474
 10
173.7180421677556
 20
190.4795236648474
  0
CIRCLE
  5
2179
330
1F
100
AcDbEntity
  8
SOLBET_Zbrojenie_Konstrukcja
100
AcDbCircle
 10
174.5908719189326
 20
187.8189736266899
 30
0.0
 40
0.3275921032762
  0
CIRCLE
  5
217A
330
1F
100
AcDbEntity
  8
SOLBET_Zbrojenie_Konstrukcja
100
AcDbCircle
 10
174.5908719189326
 20
185.7231722485553
 30
0.0
 40
0.3275921032762
  0
CIRCLE
  5
217B
330
1F
100
AcDbEntity
  8
SOLBET_Zbrojenie_Konstrukcja
100
AcDbCircle
 10
174.5908719189326
 20
183.6273708704197
 30
0.0
 40
0.3275921032762
  0
CIRCLE
  5
217C
330
1F
100
AcDbEntity
  8
SOLBET_Zbrojenie_Konstrukcja
100
AcDbCircle
 10
174.5908719189326
 20
181.531569492286
 30
0.0
 40
0.3275921032762
  0
CIRCLE
  5
217D
330
1F
100
AcDbEntity
  8
SOLBET_Zbrojenie_Konstrukcja
100
AcDbCircle
 10
176.8452124165785
 20
187.8189736266899
 30
0.0
 40
0.3275921032762
  0
CIRCLE
  5
217E
330
1F
100
AcDbEntity
  8
SOLBET_Zbrojenie_Konstrukcja
100
AcDbCircle
 10
176.8452124165785
 20
185.7231722485553
 30
0.0
 40
0.3275921032762
  0
CIRCLE
  5
217F
330
1F
100
AcDbEntity
  8
SOLBET_Zbrojenie_Konstrukcja
100
AcDbCircle
 10
176.8452124165785
 20
183.6273708704197
 30
0.0
 40
0.3275921032762
  0
CIRCLE
  5
2180
330
1F
100
AcDbEntity
  8
SOLBET_Zbrojenie_Konstrukcja
100
AcDbCircle
 10
176.8452124165785
 20
181.531569492286
 30
0.0
 40
0.3275921032762
  0
LINE
  5
2185
330
1F
100
AcDbEntity
  8
SOLBET_Zaprawy
100
AcDbLine
 10
180.8173144693653
 20
177.7295236648465
 30
0.0
 11
241.3162359452624
 21
177.7295236648465
 31
0.0
  0
LINE
  5
2186
330
1F
100
AcDbEntity
  8
SOLBET_Tynki_Posadzki
100
AcDbLine
 10
181.3173144693653
 20
177.2295236648465
 30
0.0
 11
241.3162359452624
 21
177.2295236648474
 31
0.0
  0
LINE
  5
2187
330
1F
100
AcDbEntity
  8
SOLBET_Stolarka_Okna
100
AcDbLine
 10
181.3173144693653
 20
177.7295236648465
 30
0.0
 11
181.3173144693653
 21
178.4795236648465
 31
0.0
  0
LINE
  5
2188
330
1F
100
AcDbEntity
  8
SOLBET_Tynki_Posadzki
100
AcDbLine
 10
181.3173144693653
 20
177.2295236648465
 30
0.0
 11
180.8173144693653
 21
177.7295236648465
 31
0.0
  0
LINE
  5
2189
330
1F
100
AcDbEntity
  8
SOLBET_Wymiary_Opisy
100
AcDbLine
 10
241.3162359452624
 20
95.15827683325369
 30
0.0
 11
241.3162359452624
 21
35.71913339414277
 31
0.0
  0
LINE
  5
218A
330
1F
100
AcDbEntity
  8
SOLBET_Tynki_Posadzki
100
AcDbLine
 10
182.1153806605368
 20
67.94262523257202
 30
0.0
 11
182.1153806605368
 21
67.44262523257112
 31
0.0
  0
ARC
  5
218B
330
1F
100
AcDbEntity
  8
SOLBET_Tynki_Posadzki
100
AcDbCircle
 10
181.3173144693435
 20
67.94262523257202
 30
0.0
 40
1.5000521396288
100
AcDbArc
 50
0.0
 51
90.0
  0
LINE
  5
218F
330
1F
100
AcDbEntity
  8
SOLBET_Tynki_Posadzki
100
AcDbLine
 10
182.1153806605368
 20
67.94262523257202
 30
0.0
 11
241.3162359452624
 21
67.94262523257202
 31
0.0
  0
LINE
  5
2191
330
1F
100
AcDbEntity
  8
SOLBET_Tynki_Posadzki
100
AcDbLine
 10
181.3173144693435
 20
67.44262523257112
 30
0.0
 11
181.3173144693435
 21
95.15827683325369
 31
0.0
  0
LINE
  5
2193
330
1F
100
AcDbEntity
  8
SOLBET_Tynki_Posadzki
100
AcDbLine
 10
181.3173144693435
 20
52.19262523257111
 30
0.0
 11
181.3173144693435
 21
35.71913339414277
 31
0.0
  0
LINE
  5
2199
330
1F
100
AcDbEntity
  8
SOLBET_Zaprawy
100
AcDbLine
 10
180.8173144693435
 20
52.69262523257111
 30
0.0
 11
241.3162359452624
 21
52.69262523257111
 31
0.0
  0
LINE
  5
219A
330
1F
100
AcDbEntity
  8
SOLBET_Tynki_Posadzki
100
AcDbLine
 10
181.3173144693435
 20
52.19262523257111
 30
0.0
 11
241.3162359452624
 21
52.19262523257203
 31
0.0
  0
LINE
  5
219C
330
1F
100
AcDbEntity
  8
SOLBET_Tynki_Posadzki
100
AcDbLine
 10
181.3173144693435
 20
52.19262523257111
 30
0.0
 11
180.8173144693435
 21
52.69262523257111
 31
0.0
  0
LWPOLYLINE
  5
219D
330
1F
100
AcDbEntity
  8
SOLBET_Zbrojenie_Konstrukcja
100
AcDbPolyline
 90
        8
 70
     1
 43
0.0
 10
181.4673144693522
 20
63.54262523257148
 10
185.667314469342
 20
63.54262523257148
 10
185.8173144693507
 20
63.69262523257112
 10
185.8173144693507
 20
65.29262523257148
 10
185.667314469342
 20
65.44262523257112
 10
181.4673144693522
 20
65.44262523257112
 10
181.3173144693435
 20
65.29262523257148
 10
181.3173144693435
 20
63.69262523257112
  0
LINE
  5
219E
330
1F
100
AcDbEntity
  8
SOLBET_Wymiary_Opisy
  6
STRICHPUNKT
100
AcDbLine
 10
183.5673144693507
 20
66.10181975937575
 30
0.0
 11
183.5673144693507
 21
51.24615315782467
 31
0.0
  0
LWPOLYLINE
  5
219F
330
1F
100
AcDbEntity
  8
SOLBET_Zbrojenie_Konstrukcja
100
AcDbPolyline
 90
        8
 70
     1
 43
0.0
 10
181.4673144693522
 20
53.44262523257111
 10
185.667314469342
 20
53.44262523257111
 10
185.8173144693507
 20
53.59262523257166
 10
185.8173144693507
 20
55.19262523257111
 10
185.667314469342
 20
55.34262523257166
 10
181.4673144693522
 20
55.34262523257166
 10
181.3173144693435
 20
55.19262523257111
 10
181.3173144693435
 20
53.59262523257166
  0
LINE
  5
21A0
330
1F
100
AcDbEntity
  8
SOLBET_Zbrojenie_Konstrukcja
100
AcDbLine
 10
183.317314469358
 20
63.54262523257148
 30
0.0
 11
183.317314469358
 21
55.34262523257166
 31
0.0
  0
LINE
  5
21A1
330
1F
100
AcDbEntity
  8
SOLBET_Zbrojenie_Konstrukcja
100
AcDbLine
 10
183.817314469358
 20
63.54262523257148
 30
0.0
 11
183.817314469358
 21
55.34262523257166
 31
0.0
  0
LINE
  5
21A4
330
1F
100
AcDbEntity
  8
SOLBET_Zbrojenie_Konstrukcja
100
AcDbLine
 10
208.817314469358
 20
63.54262523257148
 30
0.0
 11
208.817314469358
 21
55.34262523257166
 31
0.0
  0
LINE
  5
21A5
330
1F
100
AcDbEntity
  8
SOLBET_Zbrojenie_Konstrukcja
100
AcDbLine
 10
208.3173144693581
 20
63.54262523257148
 30
0.0
 11
208.3173144693581
 21
55.34262523257166
 31
0.0
  0
LWPOLYLINE
  5
21A6
330
1F
100
AcDbEntity
  8
SOLBET_Zbrojenie_Konstrukcja
100
AcDbPolyline
 90
        8
 70
     1
 43
0.0
 10
206.4673144693522
 20
53.44262523257111
 10
210.6673144693421
 20
53.44262523257111
 10
210.8173144693508
 20
53.59262523257166
 10
210.8173144693508
 20
55.19262523257111
 10
210.6673144693421
 20
55.34262523257166
 10
206.4673144693522
 20
55.34262523257166
 10
206.3173144693435
 20
55.19262523257111
 10
206.3173144693435
 20
53.59262523257166
  0
LINE
  5
21A7
330
1F
100
AcDbEntity
  8
SOLBET_Wymiary_Opisy
  6
STRICHPUNKT
100
AcDbLine
 10
208.5673144693508
 20
66.10181975937575
 30
0.0
 11
208.5673144693508
 21
51.24615315782467
 31
0.0
  0
LWPOLYLINE
  5
21A8
330
1F
100
AcDbEntity
  8
SOLBET_Zbrojenie_Konstrukcja
100
AcDbPolyline
 90
        8
 70
     1
 43
0.0
 10
206.4673144693522
 20
63.54262523257148
 10
210.6673144693421
 20
63.54262523257148
 10
210.8173144693508
 20
63.69262523257112
 10
210.8173144693508
 20
65.29262523257148
 10
210.6673144693421
 20
65.44262523257112
 10
206.4673144693522
 20
65.44262523257112
 10
206.3173144693435
 20
65.29262523257148
 10
206.3173144693435
 20
63.69262523257112
  0
LINE
  5
21A9
330
1F
100
AcDbEntity
  8
SOLBET_Zbrojenie_Konstrukcja
100
AcDbLine
 10
233.817314469358
 20
63.54262523257148
 30
0.0
 11
233.817314469358
 21
55.34262523257166
 31
0.0
  0
LINE
  5
21AA
330
1F
100
AcDbEntity
  8
SOLBET_Zbrojenie_Konstrukcja
100
AcDbLine
 10
233.3173144693581
 20
63.54262523257148
 30
0.0
 11
233.3173144693581
 21
55.34262523257166
 31
0.0
  0
LWPOLYLINE
  5
21AB
330
1F
100
AcDbEntity
  8
SOLBET_Zbrojenie_Konstrukcja
100
AcDbPolyline
 90
        8
 70
     1
 43
0.0
 10
231.4673144693522
 20
53.44262523257111
 10
235.6673144693421
 20
53.44262523257111
 10
235.8173144693508
 20
53.59262523257166
 10
235.8173144693508
 20
55.19262523257111
 10
235.6673144693421
 20
55.34262523257166
 10
231.4673144693522
 20
55.34262523257166
 10
231.3173144693435
 20
55.19262523257111
 10
231.3173144693435
 20
53.59262523257166
  0
LINE
  5
21AC
330
1F
100
AcDbEntity
  8
SOLBET_Wymiary_Opisy
  6
STRICHPUNKT
100
AcDbLine
 10
233.5673144693508
 20
66.10181975937575
 30
0.0
 11
233.5673144693508
 21
51.24615315782467
 31
0.0
  0
LWPOLYLINE
  5
21AD
330
1F
100
AcDbEntity
  8
SOLBET_Zbrojenie_Konstrukcja
100
AcDbPolyline
 90
        8
 70
     1
 43
0.0
 10
231.4673144693522
 20
63.54262523257148
 10
235.6673144693421
 20
63.54262523257148
 10
235.8173144693508
 20
63.69262523257112
 10
235.8173144693508
 20
65.29262523257148
 10
235.6673144693421
 20
65.44262523257112
 10
231.4673144693522
 20
65.44262523257112
 10
231.3173144693435
 20
65.29262523257148
 10
231.3173144693435
 20
63.69262523257112
  0
LINE
  5
21B7
330
1F
100
AcDbEntity
  8
SOLBET_Wymiary_Opisy
100
AcDbLine
 10
108.3183929934464
 20
95.15827683325369
 30
0.0
 11
241.3162359452624
 21
95.15827683325369
 31
0.0
  0
LINE
  5
21BA
330
1F
100
AcDbEntity
  8
SOLBET_Wymiary_Opisy
100
AcDbLine
 10
108.3183929934464
 20
35.71913339414277
 30
0.0
 11
241.3162359452624
 21
35.71913339414277
 31
0.0
  0
LWPOLYLINE
  5
21BD
330
1F
100
AcDbEntity
  8
SOLBET_Zbrojenie_Konstrukcja
  6
Continuous
100
AcDbPolyline
 90
        2
 70
     1
 43
0.3
 10
172.9606794158469
 20
45.51300878747042
 42
1.0
 10
173.2606794158425
 20
45.51300878747042
 42
1.0
  0
LWPOLYLINE
  5
21BE
330
1F
100
AcDbEntity
  8
SOLBET_Zbrojenie_Konstrukcja
  6
Continuous
100
AcDbPolyline
 90
        2
 70
     1
 43
0.3
 10
173.0247070325502
 20
52.12130204435652
 42
1.0
 10
173.324707032553
 20
52.12130204435652
 42
1.0
  0
LINE
  5
21BF
330
1F
100
AcDbEntity
  8
SOLBET_Zbrojenie_Konstrukcja
  6
Continuous
100
AcDbLine
 10
175.4696271038272
 20
51.03233553152131
 30
0.0
 11
173.9141981594809
 21
52.58776447586206
 31
0.0
  0
LINE
  5
21C0
330
1F
100
AcDbEntity
  8
SOLBET_Zbrojenie_Konstrukcja
  6
Continuous
100
AcDbLine
 10
174.2696271038228
 20
49.8323355315224
 30
0.0
 11
172.7913859247426
 21
51.31057671060261
 31
0.0
  0
LWPOLYLINE
  5
21C1
330
1F
100
AcDbEntity
  8
SOLBET_Zbrojenie_Konstrukcja
  6
Continuous
100
AcDbPolyline
 90
        2
 70
     1
 43
0.3
 10
177.0010248908445
 20
45.50821837666228
 42
-1.0
 10
176.7010248908489
 20
45.50821837666228
 42
-1.0
  0
LWPOLYLINE
  5
21C2
330
1F
100
AcDbEntity
  8
SOLBET_Zbrojenie_Konstrukcja
  6
Continuous
100
AcDbPolyline
 90
        2
 70
     1
 43
0.3
 10
176.9369972741412
 20
52.05045266017077
 42
-1.0
 10
176.6369972741383
 20
52.05045266017077
 42
-1.0
  0
LINE
  5
21CC
330
1F
100
AcDbEntity
  8
SOLBET_Wymiary_Opisy
100
AcDbLine
 10
108.3183929934464
 20
220.1951752655291
 30
0.0
 11
108.3183929934464
 21
160.7560318264181
 31
0.0
  0
LINE
  5
21CD
330
1F
100
AcDbEntity
  8
SOLBET_Tynki_Posadzki
100
AcDbLine
 10
167.5192482781719
 20
192.9795236648474
 30
0.0
 11
167.5192482781719
 21
192.4795236648465
 31
0.0
  0
ARC
  5
21CE
330
1F
100
AcDbEntity
  8
SOLBET_Tynki_Posadzki
100
AcDbCircle
 10
168.3173144693653
 20
192.9795236648474
 30
0.0
 40
1.5000521396288
100
AcDbArc
 50
90.0
 51
180.0
  0
LINE
  5
21D1
330
1F
100
AcDbEntity
  8
SOLBET_Tynki_Posadzki
100
AcDbLine
 10
167.5192482781719
 20
192.9795236648474
 30
0.0
 11
108.3183929934464
 21
192.9795236648474
 31
0.0
  0
LINE
  5
21D3
330
1F
100
AcDbEntity
  8
SOLBET_Tynki_Posadzki
100
AcDbLine
 10
168.3173144693508
 20
192.4795236648465
 30
0.0
 11
168.3173144693508
 21
220.1951752655291
 31
0.0
  0
LINE
  5
21D5
330
1F
100
AcDbEntity
  8
SOLBET_Tynki_Posadzki
100
AcDbLine
 10
168.3173144693508
 20
177.2295236648465
 30
0.0
 11
168.3173144693508
 21
160.7560318264181
 31
0.0
  0
LINE
  5
21D6
330
1F
100
AcDbEntity
  8
SOLBET_Stolarka_Okna
100
AcDbLine
 10
176.9165867709532
 20
178.4795236648465
 30
0.0
 11
108.3183929934464
 21
178.4795236648465
 31
0.0
  0
LINE
  5
21D9
330
1F
100
AcDbEntity
  8
SOLBET_Stolarka_Okna
100
AcDbLine
 10
172.7180421677556
 20
188.5795236648468
 30
0.0
 11
108.3183929934464
 21
188.5795236648468
 31
0.0
  0
LINE
  5
21DA
330
1F
100
AcDbEntity
  8
SOLBET_Stolarka_Okna
100
AcDbLine
 10
172.7180421677556
 20
180.379523664847
 30
0.0
 11
108.3183929934464
 21
180.379523664847
 31
0.0
  0
LINE
  5
21DE
330
1F
100
AcDbEntity
  8
SOLBET_Zaprawy
100
AcDbLine
 10
168.8173144693653
 20
177.7295236648465
 30
0.0
 11
108.3183929934464
 21
177.7295236648465
 31
0.0
  0
LINE
  5
21DF
330
1F
100
AcDbEntity
  8
SOLBET_Tynki_Posadzki
100
AcDbLine
 10
168.3173144693508
 20
177.2295236648465
 30
0.0
 11
108.3183929934464
 21
177.2295236648474
 31
0.0
  0
LINE
  5
21E0
330
1F
100
AcDbEntity
  8
SOLBET_Stolarka_Okna
100
AcDbLine
 10
168.3173144693508
 20
177.7295236648465
 30
0.0
 11
168.3173144693508
 21
178.4795236648465
 31
0.0
  0
LINE
  5
21E1
330
1F
100
AcDbEntity
  8
SOLBET_Tynki_Posadzki
100
AcDbLine
 10
168.3173144693508
 20
177.2295236648465
 30
0.0
 11
168.8173144693653
 21
177.7295236648465
 31
0.0
  0
LINE
  5
21E7
330
1F
100
AcDbEntity
  8
SOLBET_Tynki_Posadzki
100
AcDbLine
 10
167.5192482781574
 20
67.94262523257202
 30
0.0
 11
167.5192482781574
 21
67.44262523257112
 31
0.0
  0
ARC
  5
21E8
330
1F
100
AcDbEntity
  8
SOLBET_Tynki_Posadzki
100
AcDbCircle
 10
168.3173144693435
 20
67.94262523257202
 30
0.0
 40
1.5000521396288
100
AcDbArc
 50
90.0
 51
180.0
  0
LINE
  5
21EC
330
1F
100
AcDbEntity
  8
SOLBET_Tynki_Posadzki
100
AcDbLine
 10
167.5192482781574
 20
67.94262523257202
 30
0.0
 11
108.3183929934464
 21
67.94262523257202
 31
0.0
  0
LINE
  5
21EE
330
1F
100
AcDbEntity
  8
SOLBET_Tynki_Posadzki
100
AcDbLine
 10
168.3173144693435
 20
67.44262523257112
 30
0.0
 11
168.3173144693435
 21
95.15827683325369
 31
0.0
  0
LINE
  5
21F0
330
1F
100
AcDbEntity
  8
SOLBET_Tynki_Posadzki
100
AcDbLine
 10
168.3173144693435
 20
52.19262523257111
 30
0.0
 11
168.3173144693435
 21
35.71913339414277
 31
0.0
  0
LINE
  5
21F6
330
1F
100
AcDbEntity
  8
SOLBET_Zaprawy
100
AcDbLine
 10
168.8173144693435
 20
52.69262523257111
 30
0.0
 11
108.3183929934464
 21
52.69262523257111
 31
0.0
  0
LINE
  5
21F7
330
1F
100
AcDbEntity
  8
SOLBET_Tynki_Posadzki
100
AcDbLine
 10
168.3173144693435
 20
52.19262523257111
 30
0.0
 11
108.3183929934464
 21
52.19262523257203
 31
0.0
  0
LINE
  5
21F9
330
1F
100
AcDbEntity
  8
SOLBET_Tynki_Posadzki
100
AcDbLine
 10
168.3173144693435
 20
52.19262523257111
 30
0.0
 11
168.8173144693435
 21
52.69262523257111
 31
0.0
  0
LWPOLYLINE
  5
21FA
330
1F
100
AcDbEntity
  8
SOLBET_Zbrojenie_Konstrukcja
100
AcDbPolyline
 90
        8
 70
     1
 43
0.0
 10
168.1673144693493
 20
63.54262523257148
 10
163.9673144693449
 20
63.54262523257148
 10
163.8173144693507
 20
63.69262523257112
 10
163.8173144693507
 20
65.29262523257148
 10
163.9673144693449
 20
65.44262523257112
 10
168.1673144693493
 20
65.44262523257112
 10
168.3173144693435
 20
65.29262523257148
 10
168.3173144693435
 20
63.69262523257112
  0
LINE
  5
21FB
330
1F
100
AcDbEntity
  8
SOLBET_Wymiary_Opisy
  6
STRICHPUNKT
100
AcDbLine
 10
166.0673144693508
 20
66.10181975937575
 30
0.0
 11
166.0673144693508
 21
51.24615315782467
 31
0.0
  0
LWPOLYLINE
  5
21FC
330
1F
100
AcDbEntity
  8
SOLBET_Zbrojenie_Konstrukcja
100
AcDbPolyline
 90
        8
 70
     1
 43
0.0
 10
168.1673144693493
 20
53.44262523257111
 10
163.9673144693449
 20
53.44262523257111
 10
163.8173144693507
 20
53.59262523257166
 10
163.8173144693507
 20
55.19262523257111
 10
163.9673144693449
 20
55.34262523257166
 10
168.1673144693493
 20
55.34262523257166
 10
168.3173144693435
 20
55.19262523257111
 10
168.3173144693435
 20
53.59262523257166
  0
LINE
  5
21FD
330
1F
100
AcDbEntity
  8
SOLBET_Zbrojenie_Konstrukcja
100
AcDbLine
 10
166.3173144693508
 20
63.54262523257148
 30
0.0
 11
166.3173144693508
 21
55.34262523257166
 31
0.0
  0
LINE
  5
21FE
330
1F
100
AcDbEntity
  8
SOLBET_Zbrojenie_Konstrukcja
100
AcDbLine
 10
165.8173144693507
 20
63.54262523257148
 30
0.0
 11
165.8173144693507
 21
55.34262523257166
 31
0.0
  0
LINE
  5
2201
330
1F
100
AcDbEntity
  8
SOLBET_Zbrojenie_Konstrukcja
100
AcDbLine
 10
140.8173144693507
 20
63.54262523257148
 30
0.0
 11
140.8173144693507
 21
55.34262523257166
 31
0.0
  0
LINE
  5
2202
330
1F
100
AcDbEntity
  8
SOLBET_Zbrojenie_Konstrukcja
100
AcDbLine
 10
141.3173144693508
 20
63.54262523257148
 30
0.0
 11
141.3173144693508
 21
55.34262523257166
 31
0.0
  0
LWPOLYLINE
  5
2203
330
1F
100
AcDbEntity
  8
SOLBET_Zbrojenie_Konstrukcja
100
AcDbPolyline
 90
        8
 70
     1
 43
0.0
 10
143.1673144693493
 20
53.44262523257111
 10
138.9673144693449
 20
53.44262523257111
 10
138.8173144693507
 20
53.59262523257166
 10
138.8173144693507
 20
55.19262523257111
 10
138.9673144693449
 20
55.34262523257166
 10
143.1673144693493
 20
55.34262523257166
 10
143.3173144693435
 20
55.19262523257111
 10
143.3173144693435
 20
53.59262523257166
  0
LINE
  5
2204
330
1F
100
AcDbEntity
  8
SOLBET_Wymiary_Opisy
  6
STRICHPUNKT
100
AcDbLine
 10
141.0673144693507
 20
66.10181975937575
 30
0.0
 11
141.0673144693507
 21
51.24615315782467
 31
0.0
  0
LWPOLYLINE
  5
2205
330
1F
100
AcDbEntity
  8
SOLBET_Zbrojenie_Konstrukcja
100
AcDbPolyline
 90
        8
 70
     1
 43
0.0
 10
143.1673144693493
 20
63.54262523257148
 10
138.9673144693449
 20
63.54262523257148
 10
138.8173144693507
 20
63.69262523257112
 10
138.8173144693507
 20
65.29262523257148
 10
138.9673144693449
 20
65.44262523257112
 10
143.1673144693493
 20
65.44262523257112
 10
143.3173144693435
 20
65.29262523257148
 10
143.3173144693435
 20
63.69262523257112
  0
LINE
  5
2206
330
1F
100
AcDbEntity
  8
SOLBET_Zbrojenie_Konstrukcja
100
AcDbLine
 10
115.8173144693507
 20
63.54262523257148
 30
0.0
 11
115.8173144693507
 21
55.34262523257166
 31
0.0
  0
LINE
  5
2207
330
1F
100
AcDbEntity
  8
SOLBET_Zbrojenie_Konstrukcja
100
AcDbLine
 10
116.3173144693508
 20
63.54262523257148
 30
0.0
 11
116.3173144693508
 21
55.34262523257166
 31
0.0
  0
LWPOLYLINE
  5
2208
330
1F
100
AcDbEntity
  8
SOLBET_Zbrojenie_Konstrukcja
100
AcDbPolyline
 90
        8
 70
     1
 43
0.0
 10
118.1673144693493
 20
53.44262523257111
 10
113.9673144693449
 20
53.44262523257111
 10
113.8173144693507
 20
53.59262523257166
 10
113.8173144693507
 20
55.19262523257111
 10
113.9673144693449
 20
55.34262523257166
 10
118.1673144693493
 20
55.34262523257166
 10
118.3173144693435
 20
55.19262523257111
 10
118.3173144693435
 20
53.59262523257166
  0
LINE
  5
2209
330
1F
100
AcDbEntity
  8
SOLBET_Wymiary_Opisy
  6
STRICHPUNKT
100
AcDbLine
 10
116.0673144693507
 20
66.10181975937575
 30
0.0
 11
116.0673144693507
 21
51.24615315782467
 31
0.0
  0
LWPOLYLINE
  5
220A
330
1F
100
AcDbEntity
  8
SOLBET_Zbrojenie_Konstrukcja
100
AcDbPolyline
 90
        8
 70
     1
 43
0.0
 10
118.1673144693493
 20
63.54262523257148
 10
113.9673144693449
 20
63.54262523257148
 10
113.8173144693507
 20
63.69262523257112
 10
113.8173144693507
 20
65.29262523257148
 10
113.9673144693449
 20
65.44262523257112
 10
118.1673144693493
 20
65.44262523257112
 10
118.3173144693435
 20
65.29262523257148
 10
118.3173144693435
 20
63.69262523257112
  0
LINE
  5
2211
330
1F
100
AcDbEntity
  8
SOLBET_Wymiary_Opisy
100
AcDbLine
 10
108.3183929934464
 20
95.15827683325369
 30
0.0
 11
108.3183929934464
 21
35.71913339414277
 31
0.0
  0
LWPOLYLINE
  5
2212
330
1F
100
AcDbEntity
  8
SOLBET_Ramka_05
100
AcDbPolyline
 90
        4
 70
     1
 43
0.0
 10
2.17006658928949
 20
0.0
 10
336.5218406813795
 20
0.0
 10
336.5218406813795
 20
297.0
 10
2.17006658928949
 20
297.0
  0
MTEXT
  5
2213
102
{ACAD_XDICTIONARY
360
2214
102
}
330
1F
100
AcDbEntity
  8
SOLBET_Wymiary_Opisy @ 1
100
AcDbMText
 10
17.62660022163595
 20
289.8967110907779
 30
0.0
 40
5.0
 41
243.0262433897278
 71
     1
 72
     5
  1
{\LDETAL 71\P}Oparcie stropu na belkach drewnianych na \U+015Bcianie wewn\U+0119trznej
  7
Solbet_5
 73
     1
 44
1.0
1001
AcadAnnotative
1000
AnnotativeData
1002
{
1070
     1
1070
     0
1002
}
1001
ACAD
1000
MTEXTBEGIN
1070
    73
1070
     1
1070
    44
1040
1.0
1070
    74
1070
     0
1000
MTEXTEND
  0
MTEXT
  5
2228
102
{ACAD_XDICTIONARY
360
2229
102
}
330
1F
100
AcDbEntity
  8
SOLBET_Wymiary_Opisy @ 1
100
AcDbMText
 10
105.7132823783902
 20
244.4663067510181
 30
0.0
 40
5.0
 41
124.2624847080697
 71
     1
 72
     5
  1
Na \U+015Bcianie wewn\U+0119trznej\Pprostopad\U+0142ej do kierunku oparcia belek
  7
Solbet_5
 73
     1
 44
1.0
1001
AcadAnnotative
1000
AnnotativeData
1002
{
1070
     1
1070
     0
1002
}
1001
ACAD
1000
MTEXTBEGIN
1070
    73
1070
     1
1070
    44
1040
1.0
1070
    74
1070
     0
1000
MTEXTEND
  0
MTEXT
  5
222D
102
{ACAD_XDICTIONARY
360
222E
102
}
330
1F
100
AcDbEntity
  8
SOLBET_Wymiary_Opisy @ 1
100
AcDbMText
 10
105.7132823783902
 20
119.2932110851637
 30
0.0
 40
5.0
 41
124.2624847080697
 71
     1
 72
     5
  1
Na \U+015Bcianie wewn\U+0119trznej\Pr\U+00F3wnoleg\U+0142ej do kierunku oparcia belek
  7
Solbet_5
 73
     1
 44
1.0
1001
AcadAnnotative
1000
AnnotativeData
1002
{
1070
     1
1070
     0
1002
}
1001
ACAD
1000
MTEXTBEGIN
1070
    73
1070
     1
1070
    44
1040
1.0
1070
    74
1070
     0
1000
MTEXTEND
  0
LWPOLYLINE
  5
2266
330
1F
100
AcDbEntity
  8
SOLBET_Bloczki
100
AcDbPolyline
 90
        4
 70
     0
 43
0.0
 10
168.8173144693653
 20
220.1951752655291
 10
168.8173146451138
 20
214.47952362366
 10
180.8173144693653
 20
214.4795239926436
 10
180.8173144693653
 20
220.1951752655291
  0
LWPOLYLINE
  5
226D
330
1F
100
AcDbEntity
  8
SOLBET_Bloczki
100
AcDbPolyline
 90
        4
 70
     0
 43
0.0
 10
168.8173144693653
 20
160.7560318264181
 10
168.8173144693653
 20
166.4795236648474
 10
180.8173144693653
 20
166.4795236648474
 10
180.8173144693653
 20
160.7560318264181
  0
LWPOLYLINE
  5
226E
330
1F
100
AcDbEntity
  8
SOLBET_Bloczki
100
AcDbPolyline
 90
        4
 70
     0
 43
0.0
 10
168.8173144693435
 20
95.15827683325369
 10
168.8173146451137
 20
89.44262519138463
 10
180.8173144693435
 20
89.44262519138463
 10
180.8173144693435
 20
95.15827683325369
  0
LWPOLYLINE
  5
226F
330
1F
100
AcDbEntity
  8
SOLBET_Bloczki
100
AcDbPolyline
 90
        4
 70
     0
 43
0.0
 10
168.8173144693435
 20
35.71913339414277
 10
168.8173144693653
 20
41.45098947784345
 10
180.8173144693435
 20
41.44262523257203
 10
180.8173144693435
 20
35.71913339414277
  0
LINE
  5
2275
330
1F
100
AcDbEntity
  8
SOLBET_Izolacja
100
AcDbLine
 10
168.8173144693653
 20
192.4795236648465
 30
0.0
 11
167.8173144693507
 21
192.4795236599425
 31
0.0
  0
LINE
  5
2276
330
1F
100
AcDbEntity
  8
SOLBET_Izolacja
100
AcDbLine
 10
167.8173144693507
 20
192.4795236599425
 30
0.0
 11
167.8173144693507
 21
190.4795236599434
 31
0.0
  0
LINE
  5
2277
330
1F
100
AcDbEntity
  8
SOLBET_Izolacja
100
AcDbLine
 10
167.8173144693507
 20
190.4795236599434
 30
0.0
 11
168.8173146450967
 21
190.4795236236599
 31
0.0
  0
LINE
  5
2278
330
1F
100
AcDbEntity
  8
SOLBET_Izolacja
  6
BATTING
 48
0.048
100
AcDbLine
 10
168.3173144693508
 20
192.4795236648465
 30
0.0
 11
168.3173145572237
 21
190.5499374239507
 31
0.0
  0
LINE
  5
2279
330
1F
100
AcDbEntity
  8
SOLBET_Izolacja
100
AcDbLine
 10
180.8173146450967
 20
192.4795236648465
 30
0.0
 11
181.817314469358
 21
192.4795236599425
 31
0.0
  0
LINE
  5
227A
330
1F
100
AcDbEntity
  8
SOLBET_Izolacja
100
AcDbLine
 10
181.817314469358
 20
192.4795236599425
 30
0.0
 11
181.817314469358
 21
190.4795236648474
 31
0.0
  0
LINE
  5
227B
330
1F
100
AcDbEntity
  8
SOLBET_Izolacja
100
AcDbLine
 10
181.817314469358
 20
190.4795236648474
 30
0.0
 11
180.8173146450967
 21
190.4795236648474
 31
0.0
  0
LINE
  5
227C
330
1F
100
AcDbEntity
  8
SOLBET_Izolacja
  6
BATTING
 48
0.048
100
AcDbLine
 10
181.3173144693617
 20
192.4795236648465
 30
0.0
 11
181.3249976795484
 21
190.5346533189831
 31
0.0
  0
LINE
  5
2297
330
1F
100
AcDbEntity
  8
SOLBET_Izolacja
100
AcDbLine
 10
168.8173146451137
 20
67.44262523257112
 30
0.0
 11
168.3173144693435
 21
67.44262522766712
 31
0.0
  0
LINE
  5
2298
330
1F
100
AcDbEntity
  8
SOLBET_Izolacja
100
AcDbLine
 10
168.3173144693435
 20
67.44262522766712
 30
0.0
 11
168.3173144693436
 21
52.69262523257111
 31
0.0
  0
LINE
  5
2299
330
1F
100
AcDbEntity
  8
SOLBET_Izolacja
100
AcDbLine
 10
168.3173144693436
 20
52.69262523257111
 30
0.0
 11
168.8173144693435
 21
52.69262523257111
 31
0.0
  0
LINE
  5
229A
330
1F
100
AcDbEntity
  8
SOLBET_Izolacja
  6
BATTING
 48
0.024
100
AcDbLine
 10
168.5673144693435
 20
52.69262523257111
 30
0.0
 11
168.5673145572286
 21
67.44262523011911
 31
0.0
  0
LINE
  5
229B
330
1F
100
AcDbEntity
  8
SOLBET_Izolacja
100
AcDbLine
 10
180.8173144693435
 20
67.44262523257112
 30
0.0
 11
181.3173144693435
 21
67.44262523257112
 31
0.0
  0
LINE
  5
229C
330
1F
100
AcDbEntity
  8
SOLBET_Izolacja
100
AcDbLine
 10
181.3173144693435
 20
67.44262523257112
 30
0.0
 11
181.3173144693435
 21
52.69262523257111
 31
0.0
  0
LINE
  5
229D
330
1F
100
AcDbEntity
  8
SOLBET_Izolacja
100
AcDbLine
 10
181.3173144693435
 20
52.69262523257111
 30
0.0
 11
180.8173144693653
 21
52.69262523257111
 31
0.0
  0
LINE
  5
229E
330
1F
100
AcDbEntity
  8
SOLBET_Izolacja
  6
BATTING
 48
0.024
100
AcDbLine
 10
181.0673144693544
 20
52.69262523257111
 30
0.0
 11
181.0673144693544
 21
67.44262523257112
 31
0.0
  0
LINE
  5
229F
330
1F
100
AcDbEntity
  8
SOLBET_Tynki_Posadzki
100
AcDbLine
 10
108.3183929934464
 20
67.44262523257112
 30
0.0
 11
168.3173144693435
 21
67.44262522766712
 31
0.0
  0
LINE
  5
22A0
330
1F
100
AcDbEntity
  8
SOLBET_Tynki_Posadzki
100
AcDbLine
 10
168.3173144693435
 20
67.44262522766712
 30
0.0
 11
168.3173144691436
 21
65.44262522771714
 31
0.0
  0
LINE
  5
22A1
330
1F
100
AcDbEntity
  8
SOLBET_Tynki_Posadzki
100
AcDbLine
 10
168.3173144691436
 20
65.44262522771714
 30
0.0
 11
108.3183929934464
 21
65.44262523257202
 31
0.0
  0
LINE
  5
22A2
330
1F
100
AcDbEntity
  8
SOLBET_Tynki_Posadzki
100
AcDbLine
 10
108.3183929934464
 20
65.44262523257202
 30
0.0
 11
108.31839299361
 21
67.44262523257112
 31
0.0
  0
LINE
  5
22A4
330
1F
100
AcDbEntity
  8
SOLBET_Tynki_Posadzki
100
AcDbLine
 10
181.3173144693435
 20
67.44262522766712
 30
0.0
 11
181.3173144693435
 21
65.44262522771714
 31
0.0
  0
LINE
  5
22A6
330
1F
100
AcDbEntity
  8
SOLBET_Tynki_Posadzki
100
AcDbLine
 10
241.3162359452624
 20
66.54262523257148
 30
0.0
 11
241.3162359452624
 21
67.44262523257112
 31
0.0
  0
LINE
  5
22A8
330
1F
100
AcDbEntity
  8
SOLBET_Tynki_Posadzki
100
AcDbLine
 10
181.3173144693435
 20
65.44262522771714
 30
0.0
 11
241.3162359452624
 21
65.44262523257202
 31
0.0
  0
LINE
  5
22A9
330
1F
100
AcDbEntity
  8
SOLBET_Tynki_Posadzki
100
AcDbLine
 10
241.3162359452624
 20
65.44262523257202
 30
0.0
 11
241.3162359452624
 21
66.54262523257148
 31
0.0
  0
LINE
  5
22AA
330
1F
100
AcDbEntity
  8
SOLBET_Izolacja
100
AcDbLine
 10
108.3183929934464
 20
63.44262523257111
 30
0.0
 11
168.3173144693435
 21
63.44262523257111
 31
0.0
  0
LINE
  5
22AB
330
1F
100
AcDbEntity
  8
SOLBET_Izolacja
100
AcDbLine
 10
108.3183929934464
 20
53.44262523257111
 30
0.0
 11
168.3173144693436
 21
53.44262523257111
 31
0.0
  0
LINE
  5
22AC
330
1F
100
AcDbEntity
  8
SOLBET_Izolacja
100
AcDbLine
 10
183.817314469358
 20
63.44262523257111
 30
0.0
 11
181.3173144693435
 21
63.44262523257111
 31
0.0
  0
LINE
  5
22AD
330
1F
100
AcDbEntity
  8
SOLBET_Izolacja
100
AcDbLine
 10
181.3173144693435
 20
63.44262523257111
 30
0.0
 11
241.3162359452624
 21
63.44262523257111
 31
0.0
  0
LINE
  5
22AE
330
1F
100
AcDbEntity
  8
SOLBET_Izolacja
100
AcDbLine
 10
241.3162359452624
 20
53.44262523257111
 30
0.0
 11
181.3173144693435
 21
53.44262523257111
 31
0.0
  0
LINE
  5
22AF
330
1F
100
AcDbEntity
  8
SOLBET_Izolacja
100
AcDbLine
 10
108.3183929934464
 20
63.44262523257111
 30
0.0
 11
108.3183929934464
 21
53.44262523257111
 31
0.0
  0
LINE
  5
22B0
330
1F
100
AcDbEntity
  8
SOLBET_Izolacja
  6
BATTING
 48
0.47
100
AcDbLine
 10
108.3183929934464
 20
58.44262523257111
 30
0.0
 11
168.3173144693435
 21
58.44262523257111
 31
0.0
  0
LINE
  5
22B1
330
1F
100
AcDbEntity
  8
SOLBET_Izolacja
100
AcDbLine
 10
241.3162359452624
 20
63.44262523257111
 30
0.0
 11
241.3162359452624
 21
53.44262523257111
 31
0.0
  0
LINE
  5
22B2
330
1F
100
AcDbEntity
  8
SOLBET_Izolacja
  6
BATTING
 48
0.47
100
AcDbLine
 10
241.3162359452624
 20
58.44262523257111
 30
0.0
 11
181.3173144693435
 21
58.44262523257111
 31
0.0
  0
MTEXT
  5
22B4
330
1F
100
AcDbEntity
  8
SOLBET_Wymiary_Opisy
100
AcDbMText
 10
197.5813894187574
 20
211.8233298860623
 30
0.0
 40
2.5
 41
0.0
 71
     1
 72
     1
  1
Belki oparte mijankowo
  7
Solbet_2_5
 73
     1
 44
1.0
1001
ACAD
1000
MTEXTBEGIN
1070
    73
1070
     1
1070
    44
1040
1.0
1070
    74
1070
     0
1000
MTEXTEND
  0
INSERT
  5
22B5
330
1F
100
AcDbEntity
  8
SOLBET_Wymiary_Opisy
100
AcDbBlockReference
  2
_DotSmall
 10
183.1533619676936
 20
184.4980089486398
 30
0.0
 41
2.499999999999981
 42
2.5
 43
2.5
 50
241.7986894498155
1001
ACAD
1000
DSTYLE
1002
{
1070
   147
1040
0.625
1070
    77
1070
     1
1002
}
  0
LINE
  5
22B7
330
1F
100
AcDbEntity
  8
SOLBET_Wymiary_Opisy
100
AcDbLine
 10
183.1533619676936
 20
184.4980089486398
 30
0.0
 11
195.6339909967626
 21
207.773005364953
 31
0.0
1001
ACAD
1000
DSTYLE
1002
{
1070
   147
1040
0.625
1070
    77
1070
     1
1002
}
  0
LINE
  5
22B8
330
1F
100
AcDbEntity
  8
SOLBET_Wymiary_Opisy
100
AcDbLine
 10
195.6339909967626
 20
207.773005364953
 30
0.0
 11
233.7589909967626
 21
207.773005364953
 31
0.0
1001
ACAD
1000
DSTYLE
1002
{
1070
   147
1040
0.625
1070
    77
1070
     1
1002
}
  0
INSERT
  5
22B9
330
1F
100
AcDbEntity
  8
SOLBET_Wymiary_Opisy
100
AcDbBlockReference
  2
_DotSmall
 10
156.6991711275282
 20
185.1919463013949
 30
0.0
 41
2.499999999999981
 42
2.5
 43
2.5
 50
241.7986894498155
1001
ACAD
1000
DSTYLE
1002
{
1070
   147
1040
0.625
1070
    77
1070
     1
1002
}
  0
LINE
  5
22BA
330
1F
100
AcDbEntity
  8
SOLBET_Wymiary_Opisy
100
AcDbLine
 10
156.6991711275282
 20
185.1919463013949
 30
0.0
 11
195.6339909967626
 21
207.773005364953
 31
0.0
1001
ACAD
1000
DSTYLE
1002
{
1070
   147
1040
0.625
1070
    77
1070
     1
1002
}
  0
LEADER
  5
22BB
330
1F
100
AcDbEntity
  8
SOLBET_Wymiary_Opisy
100
AcDbLeader
  3
Solbet$7
 73
     0
 75
     1
 40
6.668560606060606
 41
38.0
 76
     3
 10
174.9062904877153
 20
171.47366964706
 30
0.0
 10
155.454847645223
 20
142.7207276331604
 30
0.0
 10
152.954847645223
 20
142.7207276331604
 30
0.0
340
22BC
213
1.177601578005123
223
-0.1753245211093599
233
0.0
1001
ACAD
1000
DSTYLE
1002
{
1070
   147
1040
0.625
1070
    77
1070
     1
1002
}
  0
MTEXT
  5
22BC
102
{ACAD_XDICTIONARY
360
2506
102
}
102
{ACAD_REACTORS
330
22BB
102
}
330
1F
100
AcDbEntity
  8
SOLBET_Wymiary_Opisy
100
AcDbMText
 10
113.1522460672179
 20
150.1896127603304
 30
0.0
 40
2.5
 41
0.0
 71
     1
 72
     1
  1
Wieniec opuszczony \Pw kszta\U+0142tkach U SOLBET
  7
Solbet_2_5
 73
     1
 44
1.0
1001
ACAD
1000
MTEXTBEGIN
1070
    73
1070
     1
1070
    44
1040
1.0
1070
    74
1070
     0
1000
MTEXTEND
  0
LEADER
  5
22BD
330
1F
100
AcDbEntity
  8
SOLBET_Wymiary_Opisy
100
AcDbLeader
  3
Solbet$7
 73
     0
 75
     1
 40
6.668560606060606
 41
38.5
 76
     3
 10
174.9062904877153
 20
47.05981386804796
 30
0.0
 10
157.7533147697108
 20
18.30687185414844
 30
0.0
 10
155.2533147697108
 20
18.30687185414844
 30
0.0
340
22BE
213
1.177601578005123
223
-0.1753245211093599
233
0.0
1001
ACAD
1000
DSTYLE
1002
{
1070
   147
1040
0.625
1070
    77
1070
     1
1002
}
  0
MTEXT
  5
22BE
102
{ACAD_XDICTIONARY
360
2508
102
}
102
{ACAD_REACTORS
330
22BD
102
}
330
1F
100
AcDbEntity
  8
SOLBET_Wymiary_Opisy
100
AcDbMText
 10
114.9507131917057
 20
25.77575698131841
 30
0.0
 40
2.5
 41
0.0
 71
     1
 72
     1
  1
Wieniec opuszczony \Pw kszta\U+0142tkach U SOLBET
  7
Solbet_2_5
 73
     1
 44
1.0
1001
ACAD
1000
MTEXTBEGIN
1070
    73
1070
     1
1070
    44
1040
1.0
1070
    74
1070
     0
1000
MTEXTEND
  0
LWPOLYLINE
  5
2352
102
{ACAD_REACTORS
330
2355
102
}
330
1F
100
AcDbEntity
  8
SOLBET_Tynki_Posadzki
100
AcDbPolyline
 90
        4
 70
     1
 43
0.0
 10
108.3183929934464
 20
190.4756035459736
 10
167.8173144693507
 20
190.4795236648474
 10
167.8173144693506
 20
192.4795236648465
 10
108.3183929934464
 20
192.4795236648465
  0
LWPOLYLINE
  5
2353
102
{ACAD_REACTORS
330
2355
102
}
330
1F
100
AcDbEntity
  8
SOLBET_Tynki_Posadzki
100
AcDbPolyline
 90
        4
 70
     1
 43
0.0
 10
241.3162359452624
 20
192.4795236648465
 10
181.817314469358
 20
192.4795236599425
 10
181.817314469358
 20
190.4795236648474
 10
241.3162359452624
 20
190.4795236648474
  0
HATCH
  5
2355
330
1F
100
AcDbEntity
  8
SOLBET_Tynki_Posadzki
100
AcDbHatch
 10
0.0
 20
0.0
 30
0.0
210
0.0
220
0.0
230
1.0
  2
AR-CONC
 70
     0
 71
     1
 91
        2
 92
        1
 93
        4
 72
     1
 10
108.3183929934464
 20
190.4756035459736
 11
167.8173144693507
 21
190.4795236648474
 72
     1
 10
167.8173144693507
 20
190.4795236648474
 11
167.8173144693506
 21
192.4795236648465
 72
     1
 10
167.8173144693506
 20
192.4795236648465
 11
108.3183929934464
 21
192.4795236648465
 72
     1
 10
108.3183929934464
 20
192.4795236648465
 11
108.3183929934464
 21
190.4756035459736
 97
        1
330
2352
 92
        1
 93
        4
 72
     1
 10
241.3162359452624
 20
192.4795236648465
 11
181.817314469358
 21
192.4795236599425
 72
     1
 10
181.817314469358
 20
192.4795236599425
 11
181.817314469358
 21
190.4795236648474
 72
     1
 10
181.817314469358
 20
190.4795236648474
 11
241.3162359452624
 21
190.4795236648474
 72
     1
 10
241.3162359452624
 20
190.4795236648474
 11
241.3162359452624
 21
192.4795236648465
 97
        1
330
2353
 75
     0
 76
     1
 52
0.0
 41
0.049
 77
     0
 78
    13
 53
50.0
 43
0.0
 44
0.0
 45
8.927048780804197
 46
-0.7810151914062513
 79
     2
 49
0.9334500000000002
 49
-10.26795
 53
355.0
 43
0.0
 44
0.0
 45
-1.726898472807682
 46
9.361775501226819
 79
     2
 49
0.7467600000000001
 49
-8.214359999999999
 53
100.451
 43
0.7439180000000001
 44
-0.06508425
 45
7.200182581632002
 46
8.580717703194302
 79
     2
 49
0.7933100000000001
 49
-8.726410000000001
 53
46.1842
 43
0.0
 44
2.489199999999999
 45
13.28287300371436
 46
-2.06007406870363
 79
     2
 49
1.400174999999999
 49
-15.401925
 53
96.6356
 43
1.1069051
 44
2.3175285
 45
11.63280748884562
 46
12.12385223861241
 79
     2
 49
1.189965
 49
-13.089615
 53
351.184
 43
0.0
 44
2.489199999999999
 45
11.63282568488276
 46
12.12383077516929
 79
     2
 49
1.120139999999999
 49
-12.32154
 53
21.0
 43
1.244599999999999
 44
1.8669
 45
7.429129111933781
 46
-5.011010407321362
 79
     2
 49
0.9334500000000002
 49
-10.26795
 53
326.0
 43
1.244599999999999
 44
1.8669
 45
3.028299389034706
 46
9.025210339993645
 79
     2
 49
0.7467600000000001
 49
-8.214359999999999
 53
71.45140000000001
 43
1.8636905
 44
1.4493171
 45
10.4574080477361
 46
4.014220028086815
 79
     2
 49
0.7933100000000001
 49
-8.726410000000001
 53
37.5
 43
0.0
 44
0.0
 45
0.151341559278999
 46
4.143196904784502
 79
     6
 49
0.0
 49
-8.114792000000001
 49
0.0
 49
-8.33882
 49
0.0
 49
-8.245475
 53
7.499999999999999
 43
0.0
 44
0.0
 45
3.274163463004981
 46
4.908848166087856
 79
     6
 49
0.0
 49
-4.754372
 49
0.0
 49
-7.928101999999999
 49
0.0
 49
-3.142615
 53
327.5
 43
-2.775457999999999
 44
0.0
 45
6.643939163176698
 46
-0.2807084556409994
 79
     6
 49
0.0
 49
-3.111499999999999
 49
0.0
 49
-9.707880000000001
 49
0.0
 49
-12.88161
 53
317.5
 43
-4.020058
 44
0.0
 45
7.258329887914884
 46
1.245898060633317
 79
     6
 49
0.0
 49
-4.04495
 49
0.0
 49
-6.447028
 49
0.0
 49
-9.147809999999999
 98
        1
 10
0.0
 20
0.0
1001
ACAD
1010
0.0
1020
0.0
1030
0.0
  0
LINE
  5
235C
330
1F
100
AcDbEntity
  8
SOLBET_Tynki_Posadzki
100
AcDbLine
 10
108.31839299361
 20
67.44262523257112
 30
0.0
 11
108.3183929934464
 21
65.43870511369823
 31
0.0
  0
LINE
  5
235D
330
1F
100
AcDbEntity
  8
SOLBET_Tynki_Posadzki
100
AcDbLine
 10
241.3162359452624
 20
67.44262523257112
 30
0.0
 11
241.3162359454242
 21
65.44262523257202
 31
0.0
  0
LWPOLYLINE
  5
235E
330
1F
100
AcDbEntity
  8
SOLBET_Tynki_Posadzki
100
AcDbPolyline
 90
        2
 70
     0
 43
0.0
 10
241.3162359452624
 20
67.44262523257112
 10
181.3173144693435
 20
67.44262523257112
  0
LWPOLYLINE
  5
235F
102
{ACAD_REACTORS
330
2362
102
}
330
1F
100
AcDbEntity
  8
SOLBET_Tynki_Posadzki
100
AcDbPolyline
 90
        5
 70
     0
 43
0.0
 10
181.3173144693435
 20
67.44262522766712
 10
241.3162359452624
 20
67.44262522766712
 10
241.3162359452624
 20
65.44262523257202
 10
181.3173144693435
 20
65.44262523257202
 10
181.3173144693435
 20
67.44262523257112
  0
LWPOLYLINE
  5
2360
102
{ACAD_REACTORS
330
2362
102
}
330
1F
100
AcDbEntity
  8
SOLBET_Tynki_Posadzki
100
AcDbPolyline
 90
        5
 70
     0
 43
0.0
 10
168.3173144693435
 20
67.44262522766712
 10
108.31839299361
 20
67.44262523257489
 10
108.3183929934464
 20
65.44262523257202
 10
168.3173144693435
 20
65.44262523257248
 10
168.3173144497275
 20
67.44262522766712
  0
HATCH
  5
2362
330
1F
100
AcDbEntity
  8
SOLBET_Tynki_Posadzki
100
AcDbHatch
 10
0.0
 20
0.0
 30
0.0
210
0.0
220
0.0
230
1.0
  2
AR-CONC
 70
     0
 71
     1
 91
        2
 92
        1
 93
        4
 72
     1
 10
168.3173144693435
 20
67.44262522766712
 11
108.31839299361
 21
67.44262523257489
 72
     1
 10
108.31839299361
 20
67.44262523257489
 11
108.3183929934464
 21
65.44262523257202
 72
     1
 10
108.3183929934464
 20
65.44262523257202
 11
168.3173144693435
 21
65.44262523257248
 72
     1
 10
168.3173144693435
 20
65.44262523257248
 11
168.3173144497275
 21
67.44262522766712
 97
        1
330
2360
 92
        1
 93
        4
 72
     1
 10
181.3173144693435
 20
67.44262522766712
 11
241.3162359452624
 21
67.44262522766712
 72
     1
 10
241.3162359452624
 20
67.44262522766712
 11
241.3162359452624
 21
65.44262523257202
 72
     1
 10
241.3162359452624
 20
65.44262523257202
 11
181.3173144693435
 21
65.44262523257202
 72
     1
 10
181.3173144693435
 20
65.44262523257202
 11
181.3173144693435
 21
67.44262523257112
 97
        1
330
235F
 75
     0
 76
     1
 52
0.0
 41
0.049
 77
     0
 78
    13
 53
50.0
 43
0.0
 44
0.0
 45
8.927048780804197
 46
-0.7810151914062513
 79
     2
 49
0.9334500000000002
 49
-10.26795
 53
355.0
 43
0.0
 44
0.0
 45
-1.726898472807682
 46
9.361775501226819
 79
     2
 49
0.7467600000000001
 49
-8.214359999999999
 53
100.451
 43
0.7439180000000001
 44
-0.06508425
 45
7.200182581632002
 46
8.580717703194302
 79
     2
 49
0.7933100000000001
 49
-8.726410000000001
 53
46.1842
 43
0.0
 44
2.489199999999999
 45
13.28287300371436
 46
-2.06007406870363
 79
     2
 49
1.400174999999999
 49
-15.401925
 53
96.6356
 43
1.1069051
 44
2.3175285
 45
11.63280748884562
 46
12.12385223861241
 79
     2
 49
1.189965
 49
-13.089615
 53
351.184
 43
0.0
 44
2.489199999999999
 45
11.63282568488276
 46
12.12383077516929
 79
     2
 49
1.120139999999999
 49
-12.32154
 53
21.0
 43
1.244599999999999
 44
1.8669
 45
7.429129111933781
 46
-5.011010407321362
 79
     2
 49
0.9334500000000002
 49
-10.26795
 53
326.0
 43
1.244599999999999
 44
1.8669
 45
3.028299389034706
 46
9.025210339993645
 79
     2
 49
0.7467600000000001
 49
-8.214359999999999
 53
71.45140000000001
 43
1.8636905
 44
1.4493171
 45
10.4574080477361
 46
4.014220028086815
 79
     2
 49
0.7933100000000001
 49
-8.726410000000001
 53
37.5
 43
0.0
 44
0.0
 45
0.151341559278999
 46
4.143196904784502
 79
     6
 49
0.0
 49
-8.114792000000001
 49
0.0
 49
-8.33882
 49
0.0
 49
-8.245475
 53
7.499999999999999
 43
0.0
 44
0.0
 45
3.274163463004981
 46
4.908848166087856
 79
     6
 49
0.0
 49
-4.754372
 49
0.0
 49
-7.928101999999999
 49
0.0
 49
-3.142615
 53
327.5
 43
-2.775457999999999
 44
0.0
 45
6.643939163176698
 46
-0.2807084556409994
 79
     6
 49
0.0
 49
-3.111499999999999
 49
0.0
 49
-9.707880000000001
 49
0.0
 49
-12.88161
 53
317.5
 43
-4.020058
 44
0.0
 45
7.258329887914884
 46
1.245898060633317
 79
     6
 49
0.0
 49
-4.04495
 49
0.0
 49
-6.447028
 49
0.0
 49
-9.147809999999999
 98
        1
 10
0.0
 20
0.0
1001
ACAD
1010
0.0
1020
0.0
1030
0.0
  0
LWPOLYLINE
  5
23C4
330
1F
100
AcDbEntity
  8
SOLBET_Zbrojenie_Konstrukcja
100
AcDbPolyline
 90
        4
 70
     1
 43
0.0
 10
172.7913859247426
 20
52.58776447586206
 10
177.1703183819561
 20
52.58776447586206
 10
177.1703183819561
 20
45.12593800296508
 10
172.7913859247426
 20
45.12593800296508
  0
LWPOLYLINE
  5
23C5
330
1F
100
AcDbEntity
  8
SOLBET_Zbrojenie_Konstrukcja
100
AcDbPolyline
 90
        4
 70
     1
 43
0.0
 10
172.7913859247498
 20
177.6246629081374
 10
177.1703183819634
 20
177.6246629081374
 10
177.1703183819634
 20
170.1628364352405
 10
172.7913859247498
 20
170.1628364352405
  0
INSERT
  5
2480
330
1F
100
AcDbEntity
  8
SOLBET_Bloczki
100
AcDbBlockReference
  2
SOLBET_Ksztaltka_U_240x240x500_KG600_PRA
 10
168.8173146447297
 20
53.44262542329443
 30
0.0
 50
270.0
  0
INSERT
  5
2481
330
1F
100
AcDbEntity
  8
SOLBET_Bloczki
100
AcDbBlockReference
  2
SOLBET_Ksztaltka_U_240x240x500_KG600_PRA
 10
168.8173146447297
 20
178.4795238555698
 30
0.0
 50
270.0
  0
INSERT
  5
2491
330
1F
100
AcDbEntity
  8
SOLBET_Bloczki
100
AcDbBlockReference
  2
SOLBET_Bloczek_Optimal_240x240x590_G_KG600_PRA
 10
168.8173144693435
 20
53.44262523257203
 30
0.0
  0
INSERT
  5
2492
330
1F
100
AcDbEntity
  8
SOLBET_Bloczki
100
AcDbBlockReference
  2
SOLBET_Bloczek_Optimal_240x240x590_G_KG600_PRA
 10
168.8173146450919
 20
65.44262519138465
 30
0.0
  0
INSERT
  5
2493
330
1F
100
AcDbEntity
  8
SOLBET_Bloczki
100
AcDbBlockReference
  2
SOLBET_Bloczek_Optimal_240x240x590_G_KG600_PRA
 10
168.8173148208404
 20
77.44262515019727
 30
0.0
  0
INSERT
  5
2494
330
1F
100
AcDbEntity
  8
SOLBET_Bloczki
100
AcDbBlockReference
  2
SOLBET_Bloczek_Optimal_240x240x590_G_KG600_PRA
 10
168.8173189222135
 20
190.4795236236597
 30
0.0
  0
INSERT
  5
2495
330
1F
100
AcDbEntity
  8
SOLBET_Bloczki
100
AcDbBlockReference
  2
SOLBET_Bloczek_Optimal_240x240x590_G_KG600_PRA
 10
168.817319097962
 20
202.4795235824724
 30
0.0
  0
MTEXT
  5
24CB
102
{ACAD_XDICTIONARY
360
24CC
102
}
330
1F
100
AcDbEntity
  8
SOLBET_Wymiary_Opisy
100
AcDbMText
 10
303.4243299148711
 20
7.273150535415538
 30
0.0
 40
5.0
 41
0.0
 71
     1
 72
     5
  1
Skala 1:20
  7
Solbet_5
 73
     1
 44
1.0
1001
ACAD
1000
MTEXTBEGIN
1070
    73
1070
     1
1070
    44
1040
1.0
1070
    74
1070
     0
1000
MTEXTEND
1000
ACAD_MTEXT_DEFINED_HEIGHT_BEGIN
1070
    46
1040
5.395147572682731
1000
ACAD_MTEXT_DEFINED_HEIGHT_END
  0
LWPOLYLINE
  5
24CE
330
1F
100
AcDbEntity
  8
SOLBET_Ramka_05
100
AcDbPolyline
 90
        4
 70
     1
 43
0.0
 10
300.4056637939573
 20
9.804221198935465
 10
336.5218406813795
 20
9.804221198935465
 10
336.5218406813795
 20
0.0
 10
300.4056637939573
 20
0.0
  0
ENDSEC
  0
SECTION
  2
OBJECTS
  0
DICTIONARY
  5
C
330
0
100
AcDbDictionary
281
     1
  3
ACAD_COLOR
350
6B
  3
ACAD_GROUP
350
D
  3
ACAD_LAYOUT
350
1A
  3
ACAD_MATERIAL
350
6A
  3
ACAD_MLEADERSTYLE
350
12D
  3
ACAD_MLINESTYLE
350
17
  3
ACAD_PLOTSETTINGS
350
19
  3
ACAD_PLOTSTYLENAME
350
E
  3
ACAD_SCALELIST
350
10C
  3
ACAD_TABLESTYLE
350
7E
  3
ACAD_VISUALSTYLE
350
EF
  3
ACDB_RECOMPOSE_DATA
350
15D
  3
AcDbVariableDictionary
350
5E
  3
DWGPROPS
350
24F6
  0
DICTIONARY
  5
443
330
8
100
AcDbDictionary
280
     1
281
     1
  0
DICTIONARY
  5
3E5
330
2
100
AcDbDictionary
280
     1
281
     1
  3
ACAD_LAYERFILTERS
360
2274
  3
ACLYDICTIONARY
360
2273
  0
DICTIONARY
  5
13C
330
10
100
AcDbDictionary
280
     1
281
     1
  3
ADSK_XREC_LAYER_RECONCILED
360
3F4
  0
DICTIONARY
  5
403
330
3DD
100
AcDbDictionary
280
     1
281
     1
  3
ADSK_XREC_LAYER_RECONCILED
360
404
  0
DICTIONARY
  5
405
330
3DF
100
AcDbDictionary
280
     1
281
     1
  3
ADSK_XREC_LAYER_RECONCILED
360
406
  0
DICTIONARY
  5
409
330
3E1
100
AcDbDictionary
280
     1
281
     1
  3
ADSK_XREC_LAYER_RECONCILED
360
40A
  0
DICTIONARY
  5
40B
330
3E2
100
AcDbDictionary
280
     1
281
     1
  3
ADSK_XREC_LAYER_RECONCILED
360
40C
  0
DICTIONARY
  5
40F
330
3E4
100
AcDbDictionary
280
     1
281
     1
  3
ADSK_XREC_LAYER_RECONCILED
360
410
  0
DICTIONARY
  5
411
330
3E8
100
AcDbDictionary
280
     1
281
     1
  3
ADSK_XREC_LAYER_RECONCILED
360
412
  0
DICTIONARY
  5
241C
330
241B
100
AcDbDictionary
280
     1
281
     1
  3
ASDK_XREC_ANNO_SCALE_INFO
360
241D
  0
DICTIONARY
  5
4A3
330
1F
100
AcDbDictionary
280
     1
281
     1
  3
ACAD_SORTENTS
360
4A4
  0
DICTIONARY
  5
223F
330
2234
100
AcDbDictionary
280
     1
281
     1
  3
ACAD_SORTENTS
360
2240
  0
DICTIONARY
  5
2260
330
2252
100
AcDbDictionary
280
     1
281
     1
  3
ACAD_SORTENTS
360
2261
  0
DICTIONARY
  5
247C
330
246E
100
AcDbDictionary
280
     1
281
     1
  3
ACAD_SORTENTS
360
247D
  0
DICTIONARY
  5
248D
330
2482
100
AcDbDictionary
280
     1
281
     1
  3
ACAD_SORTENTS
360
248E
  0
DICTIONARY
  5
2214
330
2213
100
AcDbDictionary
280
     1
281
     1
  3
ACAD_MTEXT_RT
360
2503
  3
AcDbContextDataManager
360
2215
  0
DICTIONARY
  5
2229
330
2228
100
AcDbDictionary
280
     1
281
     1
  3
ACAD_MTEXT_RT
360
2504
  3
AcDbContextDataManager
360
222A
  0
DICTIONARY
  5
222E
330
222D
100
AcDbDictionary
280
     1
281
     1
  3
ACAD_MTEXT_RT
360
2505
  3
AcDbContextDataManager
360
222F
  0
DICTIONARY
  5
2506
330
22BC
100
AcDbDictionary
280
     1
281
     1
  3
ACAD_MTEXT_RT
360
2507
  0
DICTIONARY
  5
2508
330
22BE
100
AcDbDictionary
280
     1
281
     1
  3
ACAD_MTEXT_RT
360
2509
  0
DICTIONARY
  5
24CC
330
24CB
100
AcDbDictionary
280
     1
281
     1
  3
ACAD_MTEXT_2008_RT
360
24CD
  0
DICTIONARY
  5
6B
102
{ACAD_REACTORS
330
C
102
}
330
C
100
AcDbDictionary
281
     1
  0
DICTIONARY
  5
D
102
{ACAD_REACTORS
330
C
102
}
330
C
100
AcDbDictionary
281
     1
  0
DICTIONARY
  5
1A
102
{ACAD_REACTORS
330
C
102
}
330
C
100
AcDbDictionary
281
     1
  3
Arkusz1
350
D3
  3
Arkusz2
350
D7
  3
Model
350
22
  0
DICTIONARY
  5
6A
102
{ACAD_REACTORS
330
C
102
}
330
C
100
AcDbDictionary
281
     1
  3
ByBlock
350
ED
  3
ByLayer
350
EC
  3
Global
350
EE
  0
DICTIONARY
  5
12D
102
{ACAD_REACTORS
330
C
102
}
330
C
100
AcDbDictionary
281
     1
  3
Standard
350
12E
  0
DICTIONARY
  5
17
102
{ACAD_REACTORS
330
C
102
}
330
C
100
AcDbDictionary
281
     1
  3
SOLBET_IZOLACJA
350
7E9
  3
Standard
350
18
  0
DICTIONARY
  5
19
102
{ACAD_REACTORS
330
C
102
}
330
C
100
AcDbDictionary
281
     1
  0
ACDBDICTIONARYWDFLT
  5
E
102
{ACAD_REACTORS
330
C
102
}
330
C
100
AcDbDictionary
281
     1
  3
Normal
350
F
100
AcDbDictionaryWithDefault
340
F
  0
DICTIONARY
  5
10C
102
{ACAD_REACTORS
330
C
102
}
330
C
100
AcDbDictionary
281
     1
  3
A0
350
10D
  3
A1
350
188
  3
A2
350
189
  3
A3
350
18A
  3
A4
350
18B
  3
A5
350
18C
  3
A6
350
18D
  3
A7
350
18E
  3
A8
350
18F
  3
A9
350
190
  3
B0
350
191
  3
B1
350
192
  3
B2
350
193
  3
B3
350
194
  3
B4
350
195
  3
B5
350
196
  3
B6
350
197
  3
B7
350
198
  3
B8
350
199
  3
B9
350
19A
  3
C0
350
19B
  3
C1
350
19C
  3
C2
350
19D
  3
C3
350
19E
  3
C4
350
19F
  3
C5
350
1A0
  3
C6
350
1A1
  3
C7
350
1A2
  3
C8
350
1A3
  3
C9
350
1A4
  3
D0
350
1A5
  3
D1
350
1A6
  3
D2
350
1A7
  0
DICTIONARY
  5
7E
102
{ACAD_REACTORS
330
C
102
}
330
C
100
AcDbDictionary
281
     1
  3
Standard
350
7F
  0
DICTIONARY
  5
EF
102
{ACAD_REACTORS
330
C
102
}
330
C
100
AcDbDictionary
281
     1
  3
2dWireframe
350
F5
  3
3D Hidden
350
F7
  3
3dWireframe
350
F6
  3
Basic
350
F4
  3
Brighten
350
FB
  3
ColorChange
350
FF
  3
Conceptual
350
F8
  3
Dim
350
FA
  3
Facepattern
350
FE
  3
Flat
350
F0
  3
FlatWithEdges
350
F1
  3
Gouraud
350
F2
  3
GouraudWithEdges
350
F3
  3
Linepattern
350
FD
  3
Realistic
350
F9
  3
Thicken
350
FC
  0
XRECORD
  5
15D
102
{ACAD_REACTORS
330
C
102
}
330
C
100
AcDbXrecord
280
     1
 90
        1
330
7F
330
2213
330
2228
330
222D
  0
DICTIONARY
  5
5E
102
{ACAD_REACTORS
330
C
102
}
330
C
100
AcDbDictionary
281
     1
  3
CANNOSCALE
350
146
  3
CMLEADERSTYLE
350
145
  3
CTABLESTYLE
350
84
  3
DIMASSOC
350
5F
  3
HIDETEXT
350
63
  3
INDEXCTL
350
466
  3
LIGHTINGUNITS
350
464
  3
MSLTSCALE
350
463
  3
PSOLHEIGHT
350
24F5
  3
PSOLWIDTH
350
24F4
  3
SORTENTS
350
465
  0
XRECORD
  5
24F6
102
{ACAD_REACTORS
330
C
102
}
330
C
100
AcDbXrecord
280
     1
  1
DWGPROPS COOKIE
  2

  3

  4

  6

  7

  8
Olus
  9

300
=
301
=
302
=
303
=
304
=
305
=
306
=
307
=
308
=
309
=
 40
0.4547725462962963
 41
2454690.075573148
 42
2454848.880739016
  1

 90
        0
  0
DICTIONARY
  5
2274
102
{ACAD_REACTORS
330
3E5
102
}
330
3E5
100
AcDbDictionary
281
     1
  0
DICTIONARY
  5
2273
102
{ACAD_REACTORS
330
3E5
102
}
330
3E5
100
AcDbDictionary
281
     1
1001
ACAD
1000
<All
  0
XRECORD
  5
3F4
102
{ACAD_REACTORS
330
13C
102
}
330
13C
100
AcDbXrecord
280
     1
290
     1
  0
XRECORD
  5
404
102
{ACAD_REACTORS
330
403
102
}
330
403
100
AcDbXrecord
280
     1
290
     1
  0
XRECORD
  5
406
102
{ACAD_REACTORS
330
405
102
}
330
405
100
AcDbXrecord
280
     1
290
     1
  0
XRECORD
  5
40A
102
{ACAD_REACTORS
330
409
102
}
330
409
100
AcDbXrecord
280
     1
290
     1
  0
XRECORD
  5
40C
102
{ACAD_REACTORS
330
40B
102
}
330
40B
100
AcDbXrecord
280
     1
290
     1
  0
XRECORD
  5
410
102
{ACAD_REACTORS
330
40F
102
}
330
40F
100
AcDbXrecord
280
     1
290
     1
  0
XRECORD
  5
412
102
{ACAD_REACTORS
330
411
102
}
330
411
100
AcDbXrecord
280
     1
290
     1
  0
XRECORD
  5
241D
102
{ACAD_REACTORS
330
241C
102
}
330
241C
100
AcDbXrecord
280
     1
 70
     1
340
10D
340
3DF
 70
    -1
  0
SORTENTSTABLE
  5
4A4
102
{ACAD_REACTORS
330
4A3
102
}
330
4A3
100
AcDbSortentsTable
330
1F
331
217D
  5
217C
331
235C
  5
235D
331
21FB
  5
21F7
331
2185
  5
2180
331
229D
  5
2296
331
2203
  5
21FE
331
21CC
  5
21BF
331
22AD
  5
22A7
331
2266
  5
2228
331
219D
  5
219B
331
22B5
  5
22B9
331
226E
  5
22B7
331
21A5
  5
21A2
331
22BD
  5
2354
331
2276
  5
2246
331
21EC
  5
21E5
331
21AD
  5
21AB
331
2176
  5
2176
331
2355
  5
226D
331
217E
  5
217D
331
235D
  5
235E
331
21BD
  5
21B9
331
21FC
  5
21F8
331
2186
  5
2185
331
229E
  5
2297
331
2204
  5
21FF
331
214F
  5
214F
331
22A6
  5
229F
331
21CD
  5
21C9
331
2208
  5
2204
331
21D5
  5
21D0
331
215F
  5
215F
331
22AE
  5
22A8
331
219E
  5
219C
331
226F
  5
22B8
331
2228
  5
220D
331
21A6
  5
21A4
331
22BE
  5
2355
331
2277
  5
2249
331
2177
  5
2177
331
235E
  5
22A1
331
217F
  5
217E
331
2297
  5
2280
331
21BE
  5
21BA
331
21FD
  5
21F9
331
2187
  5
2186
331
229F
  5
2298
331
218F
  5
218A
331
2150
  5
2150
331
2205
  5
2201
331
21CE
  5
21CA
331
2158
  5
2158
331
2209
  5
2205
331
21D6
  5
21D2
331
22AF
  5
22A9
331
2211
  5
22B0
331
21DE
  5
21D7
331
219F
  5
219D
331
2168
  5
2168
331
22B7
  5
22BA
331
21A7
  5
21A5
331
2278
  5
224C
331
21EE
  5
21E8
331
2178
  5
235C
331
21F6
  5
21ED
331
21B7
  5
22AE
331
2180
  5
217F
331
2298
  5
2291
331
235F
  5
2361
331
21BF
  5
21BB
331
21FE
  5
21FA
331
2188
  5
2187
331
22A0
  5
229A
331
2206
  5
2202
331
22A8
  5
22A2
331
220A
  5
2206
331
22B0
  5
22AA
331
2212
  5
2207
331
21DF
  5
21DA
331
21A0
  5
219E
331
2169
  5
2169
331
22B8
  5
22BB
331
21A8
  5
21A6
331
21E7
  5
21DE
331
2171
  5
2171
331
2279
  5
224F
331
2179
  5
2178
331
21F7
  5
21F3
331
2299
  5
2292
331
2360
  5
2362
331
21C0
  5
21BC
331
2189
  5
22AD
331
22A1
  5
229C
331
2207
  5
2203
331
215A
  5
215A
331
2191
  5
218D
331
22A9
  5
22A3
331
2199
  5
2192
331
22B1
  5
22AB
331
2213
  5
220B
331
21E0
  5
21DB
331
21A1
  5
219F
331
216A
  5
216A
331
22B9
  5
22BD
331
21A9
  5
21A7
331
21E8
  5
21E4
331
2172
  5
2172
331
227A
  5
2264
331
217A
  5
2179
331
21F0
  5
21EA
331
229A
  5
2293
331
21C1
  5
21BD
331
218A
  5
2188
331
22A2
  5
229D
331
2153
  5
2153
331
21D1
  5
21CB
331
22AA
  5
22A4
331
21D9
  5
21D3
331
219A
  5
2198
331
22B2
  5
22AC
331
21E1
  5
21DD
331
216B
  5
216B
331
22BA
  5
22BE
331
21AA
  5
21A8
331
2352
  5
227E
331
227B
  5
2265
331
217B
  5
217A
331
2362
  5
2360
331
21F9
  5
21F4
331
229B
  5
2294
331
21BA
  5
22AF
331
2201
  5
21FB
331
218B
  5
2189
331
21C2
  5
21BE
331
2154
  5
2154
331
22AB
  5
22A5
331
2193
  5
2190
331
215C
  5
215C
331
2164
  5
2164
331
21DA
  5
21D6
331
22BB
  5
2352
331
222D
  5
220F
331
216C
  5
216C
331
2353
  5
227F
331
227C
  5
2266
331
21AB
  5
21A9
331
217C
  5
217B
331
229C
  5
2295
331
21FA
  5
21F6
331
22A4
  5
229E
331
2202
  5
21FD
331
22AC
  5
22A6
331
21D3
  5
21CE
331
22B4
  5
22BC
331
226D
  5
222D
331
219C
  5
2199
331
22BC
  5
2353
331
2275
  5
2243
331
216D
  5
216D
331
21A4
  5
21A0
331
21AC
  5
21AA
  0
SORTENTSTABLE
  5
2240
102
{ACAD_REACTORS
330
223F
102
}
330
223F
100
AcDbSortentsTable
330
2234
  0
SORTENTSTABLE
  5
2261
102
{ACAD_REACTORS
330
2260
102
}
330
2260
100
AcDbSortentsTable
330
2252
  0
SORTENTSTABLE
  5
247D
102
{ACAD_REACTORS
330
247C
102
}
330
247C
100
AcDbSortentsTable
330
246E
  0
SORTENTSTABLE
  5
248E
102
{ACAD_REACTORS
330
248D
102
}
330
248D
100
AcDbSortentsTable
330
2482
  0
XRECORD
  5
2503
102
{ACAD_REACTORS
330
2214
102
}
330
2214
100
AcDbXrecord
280
     1
 40
331477.0
  1
{\LDETAL 71\P}Oparcie stropu na belkach drewnianych na ścianie wewnętrznej
  0
DICTIONARY
  5
2215
102
{ACAD_REACTORS
330
2214
102
}
330
2214
100
AcDbDictionary
281
     1
  3
ACDB_ANNOTATIONSCALES
350
2216
  0
XRECORD
  5
2504
102
{ACAD_REACTORS
330
2229
102
}
330
2229
100
AcDbXrecord
280
     1
 40
297612.0
  1
Na ścianie wewnętrznej\Pprostopadłej do kierunku oparcia belek
  0
DICTIONARY
  5
222A
102
{ACAD_REACTORS
330
2229
102
}
330
2229
100
AcDbDictionary
281
     1
  3
ACDB_ANNOTATIONSCALES
350
222B
  0
XRECORD
  5
2505
102
{ACAD_REACTORS
330
222E
102
}
330
222E
100
AcDbXrecord
280
     1
 40
325572.0
  1
Na ścianie wewnętrznej\Prównoległej do kierunku oparcia belek
  0
DICTIONARY
  5
222F
102
{ACAD_REACTORS
330
222E
102
}
330
222E
100
AcDbDictionary
281
     1
  3
ACDB_ANNOTATIONSCALES
350
2230
  0
XRECORD
  5
2507
102
{ACAD_REACTORS
330
2506
102
}
330
2506
100
AcDbXrecord
280
     1
 40
101032.0
  1
Wieniec opuszczony \Pw kształtkach U SOLBET
  0
XRECORD
  5
2509
102
{ACAD_REACTORS
330
2508
102
}
330
2508
100
AcDbXrecord
280
     1
 40
101032.0
  1
Wieniec opuszczony \Pw kształtkach U SOLBET
  0
XRECORD
  5
24CD
102
{ACAD_REACTORS
330
24CC
102
}
330
24CC
100
AcDbXrecord
280
     1
 40
24748.0
  1
\pxqc;C\P(5 : 1)
  0
LAYOUT
  5
D3
102
{ACAD_XDICTIONARY
360
24FA
102
}
102
{ACAD_REACTORS
330
1A
102
}
330
1A
100
AcDbPlotSettings
  1

  2
C:\Documents and Settings\basas\Application Data\Autodesk\AutoCAD 2005\R16.1\enu\plotters\Default Windows System Printer.pc3
  4

  6

 40
0.0
 41
0.0
 42
0.0
 43
0.0
 44
0.0
 45
0.0
 46
0.0
 47
0.0
 48
0.0
 49
0.0
140
0.0
141
0.0
142
1.0
143
1.0
 70
   688
 72
     0
 73
     0
 74
     5
  7

 75
    16
147
1.0
148
0.0
149
0.0
100
AcDbLayout
  1
Arkusz1
 70
     1
 71
     1
 10
0.0
 20
0.0
 11
12.0
 21
9.0
 12
0.0
 22
0.0
 32
0.0
 14
0.0
 24
0.0
 34
0.0
 15
0.0
 25
0.0
 35
0.0
146
0.0
 13
0.0
 23
0.0
 33
0.0
 16
1.0
 26
0.0
 36
0.0
 17
0.0
 27
1.0
 37
0.0
 76
     0
330
D2
  0
LAYOUT
  5
D7
102
{ACAD_XDICTIONARY
360
24FC
102
}
102
{ACAD_REACTORS
330
1A
102
}
330
1A
100
AcDbPlotSettings
  1

  2
C:\Documents and Settings\basas\Application Data\Autodesk\AutoCAD 2005\R16.1\enu\plotters\Default Windows System Printer.pc3
  4

  6

 40
0.0
 41
0.0
 42
0.0
 43
0.0
 44
0.0
 45
0.0
 46
0.0
 47
0.0
 48
0.0
 49
0.0
140
0.0
141
0.0
142
1.0
143
1.0
 70
   688
 72
     0
 73
     0
 74
     5
  7

 75
    16
147
1.0
148
0.0
149
0.0
100
AcDbLayout
  1
Arkusz2
 70
     1
 71
     2
 10
0.0
 20
0.0
 11
12.0
 21
9.0
 12
0.0
 22
0.0
 32
0.0
 14
0.0
 24
0.0
 34
0.0
 15
0.0
 25
0.0
 35
0.0
146
0.0
 13
0.0
 23
0.0
 33
0.0
 16
1.0
 26
0.0
 36
0.0
 17
0.0
 27
1.0
 37
0.0
 76
     0
330
D6
  0
LAYOUT
  5
22
102
{ACAD_XDICTIONARY
360
24F7
102
}
102
{ACAD_REACTORS
330
1A
102
}
330
1A
100
AcDbPlotSettings
  1

  2
none_device
  4
Letter_(8.50_x_11.00_Inches)
  6

 40
6.349999904632568
 41
6.349999904632568
 42
6.350006103515625
 43
6.350006103515625
 44
215.8999938964844
 45
279.3999938964844
 46
11.54999923706054
 47
-13.65000009536743
 48
0.0
 49
0.0
140
210.0
141
297.0
142
1.0
143
1.0
 70
 11936
 72
     1
 73
     0
 74
     4
  7

 75
     0
147
0.9999999999999998
148
0.0
149
0.0
100
AcDbLayout
  1
Model
 70
     1
 71
     0
 10
0.0
 20
0.0
 11
12.0
 21
9.0
 12
0.0
 22
0.0
 32
0.0
 14
0.0
 24
0.0
 34
0.0
 15
0.0
 25
0.0
 35
0.0
146
0.0
 13
0.0
 23
0.0
 33
0.0
 16
1.0
 26
0.0
 36
0.0
 17
0.0
 27
1.0
 37
0.0
 76
     0
330
1F
331
EA
1001
ACAD_PSEXT
1000
Brak
1000
Brak
1000
Nie można zastosować.
1000
Arkusz nie zostanie wydrukowany dopóki nie wybrano konfiguracji plotera.
1070
     0
  0
MATERIAL
  5
ED
102
{ACAD_XDICTIONARY
360
2500
102
}
102
{ACAD_REACTORS
330
6A
102
}
330
6A
100
AcDbMaterial
  1
ByBlock
 73
     2
 78
     2
172
     2
176
     2
270
     2
274
     2
  0
MATERIAL
  5
EC
102
{ACAD_XDICTIONARY
360
24FE
102
}
102
{ACAD_REACTORS
330
6A
102
}
330
6A
100
AcDbMaterial
  1
ByLayer
 73
     2
 78
     2
172
     2
176
     2
270
     2
274
     2
  0
MATERIAL
  5
EE
102
{ACAD_XDICTIONARY
360
173
102
}
102
{ACAD_REACTORS
330
6A
102
}
330
6A
100
AcDbMaterial
  1
Global
 73
     2
 43
0.0007999999797903
 43
0.0
 43
0.0
 43
0.0
 43
0.0
 43
0.0007999999797903
 43
0.0
 43
0.0
 43
0.0
 43
0.0
 43
1.0
 43
0.0
 43
0.0
 43
0.0
 43
0.0
 43
1.0
 78
     2
172
     2
 49
0.0007999999797903
 49
0.0
 49
0.0
 49
0.0
 49
0.0
 49
0.0007999999797903
 49
0.0
 49
0.0
 49
0.0
 49
0.0
 49
1.0
 49
0.0
 49
0.0
 49
0.0
 49
0.0
 49
1.0
176
     2
142
0.0007999999797903
142
0.0
142
0.0
142
0.0
142
0.0
142
0.0007999999797903
142
0.0
142
0.0
142
0.0
142
0.0
142
1.0
142
0.0
142
0.0
142
0.0
142
0.0
142
1.0
270
     2
144
0.0007999999797903
144
0.0
144
0.0
144
0.0
144
0.0
144
0.0007999999797903
144
0.0
144
0.0
144
0.0
144
0.0
144
1.0
144
0.0
144
0.0
144
0.0
144
0.0
144
1.0
274
     2
1001
ACAD
1070
    -1
1070
     3
1070
     0
1000

1071
        0
1070
     0
  0
ACAD_PROXY_OBJECT
  5
12E
102
{ACAD_REACTORS
330
12D
102
}
330
12D
100
AcDbProxyObject
 90
      499
 91
      508
 95
       23
 70
     0
 93
      618
310
40901902A4063FBFFFFFE0000000000000020400000000000020404254DD185B99185C99000000000000000104090140501A0000000000000410000000000000004102576400000000000003903F
340
14
340
0
340
11
340
0
 94
        0
1001
ACAD_MLEADERVER
1070
     2
1001
ACAD
1000
AcRTDxfName
1000
MLEADERSTYLE
1000
AcRTDxfName
1000
MLEADERSTYLE
  0
MLINESTYLE
  5
7E9
102
{ACAD_REACTORS
330
17
102
}
330
17
100
AcDbMlineStyle
  2
SOLBET_IZOLACJA
 70
   272
  3

 62
   256
 51
90.0
 52
90.0
 71
     2
 49
0.008
 62
   256
  6
BYLAYER
 49
-0.008
 62
   256
  6
BYLAYER
  0
MLINESTYLE
  5
18
102
{ACAD_REACTORS
330
17
102
}
330
17
100
AcDbMlineStyle
  2
STANDARD
 70
     0
  3

 62
   256
 51
90.0
 52
90.0
 71
     2
 49
0.5
 62
   256
  6
BYLAYER
 49
-0.5
 62
   256
  6
BYLAYER
  0
ACDBPLACEHOLDER
  5
F
102
{ACAD_REACTORS
330
E
102
}
330
E
  0
ACAD_PROXY_OBJECT
  5
10D
102
{ACAD_REACTORS
330
10C
102
}
330
10C
100
AcDbProxyObject
 90
      499
 91
      507
 95
       23
 70
     0
 93
       49
310
904313A31005FF
 94
        0
1001
ACAD
1000
AcRTDxfName
1000
SCALE
1000
AcRTDxfName
1000
SCALE
  0
ACAD_PROXY_OBJECT
  5
188
102
{ACAD_REACTORS
330
10C
102
}
330
10C
100
AcDbProxyObject
 90
      499
 91
      507
 95
       23
 70
     0
 93
      113
310
904313A3200400000000000000407F
 94
        0
1001
ACAD
1000
AcRTDxfName
1000
SCALE
1000
AcRTDxfName
1000
SCALE
  0
ACAD_PROXY_OBJECT
  5
189
102
{ACAD_REACTORS
330
10C
102
}
330
10C
100
AcDbProxyObject
 90
      499
 91
      507
 95
       23
 70
     0
 93
      113
310
904313A3400400000000000010407F
 94
        0
1001
ACAD
1000
AcRTDxfName
1000
SCALE
1000
AcRTDxfName
1000
SCALE
  0
ACAD_PROXY_OBJECT
  5
18A
102
{ACAD_REACTORS
330
10C
102
}
330
10C
100
AcDbProxyObject
 90
      499
 91
      507
 95
       23
 70
     0
 93
      113
310
904313A3500400000000000014407F
 94
        0
1001
ACAD
1000
AcRTDxfName
1000
SCALE
1000
AcRTDxfName
1000
SCALE
  0
ACAD_PROXY_OBJECT
  5
18B
102
{ACAD_REACTORS
330
10C
102
}
330
10C
100
AcDbProxyObject
 90
      499
 91
      507
 95
       23
 70
     0
 93
      113
310
904313A3800400000000000020407F
 94
        0
1001
ACAD
1000
AcRTDxfName
1000
SCALE
1000
AcRTDxfName
1000
SCALE
  0
ACAD_PROXY_OBJECT
  5
18C
102
{ACAD_REACTORS
330
10C
102
}
330
10C
100
AcDbProxyObject
 90
      499
 91
      507
 95
       23
 70
     0
 93
      121
310
905313A313000400000000000024407F
 94
        0
1001
ACAD
1000
AcRTDxfName
1000
SCALE
1000
AcRTDxfName
1000
SCALE
  0
ACAD_PROXY_OBJECT
  5
18D
102
{ACAD_REACTORS
330
10C
102
}
330
10C
100
AcDbProxyObject
 90
      499
 91
      507
 95
       23
 70
     0
 93
      121
310
905313A313600400000000000030407F
 94
        0
1001
ACAD
1000
AcRTDxfName
1000
SCALE
1000
AcRTDxfName
1000
SCALE
  0
ACAD_PROXY_OBJECT
  5
18E
102
{ACAD_REACTORS
330
10C
102
}
330
10C
100
AcDbProxyObject
 90
      499
 91
      507
 95
       23
 70
     0
 93
      121
310
905313A323000400000000000034407F
 94
        0
1001
ACAD
1000
AcRTDxfName
1000
SCALE
1000
AcRTDxfName
1000
SCALE
  0
ACAD_PROXY_OBJECT
  5
18F
102
{ACAD_REACTORS
330
10C
102
}
330
10C
100
AcDbProxyObject
 90
      499
 91
      507
 95
       23
 70
     0
 93
      121
310
905313A33300040000000000003E407F
 94
        0
1001
ACAD
1000
AcRTDxfName
1000
SCALE
1000
AcRTDxfName
1000
SCALE
  0
ACAD_PROXY_OBJECT
  5
190
102
{ACAD_REACTORS
330
10C
102
}
330
10C
100
AcDbProxyObject
 90
      499
 91
      507
 95
       23
 70
     0
 93
      121
310
905313A343000400000000000044407F
 94
        0
1001
ACAD
1000
AcRTDxfName
1000
SCALE
1000
AcRTDxfName
1000
SCALE
  0
ACAD_PROXY_OBJECT
  5
191
102
{ACAD_REACTORS
330
10C
102
}
330
10C
100
AcDbProxyObject
 90
      499
 91
      507
 95
       23
 70
     0
 93
      121
310
905313A353000400000000000049407F
 94
        0
1001
ACAD
1000
AcRTDxfName
1000
SCALE
1000
AcRTDxfName
1000
SCALE
  0
ACAD_PROXY_OBJECT
  5
192
102
{ACAD_REACTORS
330
10C
102
}
330
10C
100
AcDbProxyObject
 90
      499
 91
      507
 95
       23
 70
     0
 93
      129
310
906313A31303000400000000000059407F
 94
        0
1001
ACAD
1000
AcRTDxfName
1000
SCALE
1000
AcRTDxfName
1000
SCALE
  0
ACAD_PROXY_OBJECT
  5
193
102
{ACAD_REACTORS
330
10C
102
}
330
10C
100
AcDbProxyObject
 90
      499
 91
      507
 95
       23
 70
     0
 93
      113
310
904323A3100000000000000001017F
 94
        0
1001
ACAD
1000
AcRTDxfName
1000
SCALE
1000
AcRTDxfName
1000
SCALE
  0
ACAD_PROXY_OBJECT
  5
194
102
{ACAD_REACTORS
330
10C
102
}
330
10C
100
AcDbProxyObject
 90
      499
 91
      507
 95
       23
 70
     0
 93
      113
310
904343A3100000000000000041017F
 94
        0
1001
ACAD
1000
AcRTDxfName
1000
SCALE
1000
AcRTDxfName
1000
SCALE
  0
ACAD_PROXY_OBJECT
  5
195
102
{ACAD_REACTORS
330
10C
102
}
330
10C
100
AcDbProxyObject
 90
      499
 91
      507
 95
       23
 70
     0
 93
      113
310
904383A3100000000000000081017F
 94
        0
1001
ACAD
1000
AcRTDxfName
1000
SCALE
1000
AcRTDxfName
1000
SCALE
  0
ACAD_PROXY_OBJECT
  5
196
102
{ACAD_REACTORS
330
10C
102
}
330
10C
100
AcDbProxyObject
 90
      499
 91
      507
 95
       23
 70
     0
 93
      121
310
90531303A3100000000000000091017F
 94
        0
1001
ACAD
1000
AcRTDxfName
1000
SCALE
1000
AcRTDxfName
1000
SCALE
  0
ACAD_PROXY_OBJECT
  5
197
102
{ACAD_REACTORS
330
10C
102
}
330
10C
100
AcDbProxyObject
 90
      499
 91
      507
 95
       23
 70
     0
 93
      129
310
9063130303A3100000000000000165017F
 94
        0
1001
ACAD
1000
AcRTDxfName
1000
SCALE
1000
AcRTDxfName
1000
SCALE
  0
ACAD_PROXY_OBJECT
  5
198
102
{ACAD_REACTORS
330
10C
102
}
330
10C
100
AcDbProxyObject
 90
      499
 91
      507
 95
       23
 70
     0
 93
      265
310
90F312F31323822203D2031272D302200000000000000200FC00000000000028407F
 94
        0
1001
ACAD
1000
AcRTDxfName
1000
SCALE
1000
AcRTDxfName
1000
SCALE
  0
ACAD_PROXY_OBJECT
  5
199
102
{ACAD_REACTORS
330
10C
102
}
330
10C
100
AcDbProxyObject
 90
      499
 91
      507
 95
       23
 70
     0
 93
      257
310
90E312F363422203D2031272D302200000000000000240FC00000000000028407F
 94
        0
1001
ACAD
1000
AcRTDxfName
1000
SCALE
1000
AcRTDxfName
1000
SCALE
  0
ACAD_PROXY_OBJECT
  5
19A
102
{ACAD_REACTORS
330
10C
102
}
330
10C
100
AcDbProxyObject
 90
      499
 91
      507
 95
       23
 70
     0
 93
      257
310
90E312F333222203D2031272D302200000000000000280FC00000000000028407F
 94
        0
1001
ACAD
1000
AcRTDxfName
1000
SCALE
1000
AcRTDxfName
1000
SCALE
  0
ACAD_PROXY_OBJECT
  5
19B
102
{ACAD_REACTORS
330
10C
102
}
330
10C
100
AcDbProxyObject
 90
      499
 91
      507
 95
       23
 70
     0
 93
      257
310
90E312F313622203D2031272D3022000000000000002C0FC00000000000028407F
 94
        0
1001
ACAD
1000
AcRTDxfName
1000
SCALE
1000
AcRTDxfName
1000
SCALE
  0
ACAD_PROXY_OBJECT
  5
19C
102
{ACAD_REACTORS
330
10C
102
}
330
10C
100
AcDbProxyObject
 90
      499
 91
      507
 95
       23
 70
     0
 93
      257
310
90E332F333222203D2031272D3022000000000000002E0FC00000000000028407F
 94
        0
1001
ACAD
1000
AcRTDxfName
1000
SCALE
1000
AcRTDxfName
1000
SCALE
  0
ACAD_PROXY_OBJECT
  5
19D
102
{ACAD_REACTORS
330
10C
102
}
330
10C
100
AcDbProxyObject
 90
      499
 91
      507
 95
       23
 70
     0
 93
      249
310
90D312F3822203D2031272D302200000000000000300FC00000000000028407F
 94
        0
1001
ACAD
1000
AcRTDxfName
1000
SCALE
1000
AcRTDxfName
1000
SCALE
  0
ACAD_PROXY_OBJECT
  5
19E
102
{ACAD_REACTORS
330
10C
102
}
330
10C
100
AcDbProxyObject
 90
      499
 91
      507
 95
       23
 70
     0
 93
      257
310
90E332F313622203D2031272D302200000000000000320FC00000000000028407F
 94
        0
1001
ACAD
1000
AcRTDxfName
1000
SCALE
1000
AcRTDxfName
1000
SCALE
  0
ACAD_PROXY_OBJECT
  5
19F
102
{ACAD_REACTORS
330
10C
102
}
330
10C
100
AcDbProxyObject
 90
      499
 91
      507
 95
       23
 70
     0
 93
      249
310
90D312F3422203D2031272D302200000000000000340FC00000000000028407F
 94
        0
1001
ACAD
1000
AcRTDxfName
1000
SCALE
1000
AcRTDxfName
1000
SCALE
  0
ACAD_PROXY_OBJECT
  5
1A0
102
{ACAD_REACTORS
330
10C
102
}
330
10C
100
AcDbProxyObject
 90
      499
 91
      507
 95
       23
 70
     0
 93
      249
310
90D332F3822203D2031272D302200000000000000360FC00000000000028407F
 94
        0
1001
ACAD
1000
AcRTDxfName
1000
SCALE
1000
AcRTDxfName
1000
SCALE
  0
ACAD_PROXY_OBJECT
  5
1A1
102
{ACAD_REACTORS
330
10C
102
}
330
10C
100
AcDbProxyObject
 90
      499
 91
      507
 95
       23
 70
     0
 93
      249
310
90D312F3222203D2031272D302200000000000000380FC00000000000028407F
 94
        0
1001
ACAD
1000
AcRTDxfName
1000
SCALE
1000
AcRTDxfName
1000
SCALE
  0
ACAD_PROXY_OBJECT
  5
1A2
102
{ACAD_REACTORS
330
10C
102
}
330
10C
100
AcDbProxyObject
 90
      499
 91
      507
 95
       23
 70
     0
 93
      249
310
90D332F3422203D2031272D3022000000000000003A0FC00000000000028407F
 94
        0
1001
ACAD
1000
AcRTDxfName
1000
SCALE
1000
AcRTDxfName
1000
SCALE
  0
ACAD_PROXY_OBJECT
  5
1A3
102
{ACAD_REACTORS
330
10C
102
}
330
10C
100
AcDbProxyObject
 90
      499
 91
      507
 95
       23
 70
     0
 93
      169
310
90B3122203D2031272D302200400000000000028407F
 94
        0
1001
ACAD
1000
AcRTDxfName
1000
SCALE
1000
AcRTDxfName
1000
SCALE
  0
ACAD_PROXY_OBJECT
  5
1A4
102
{ACAD_REACTORS
330
10C
102
}
330
10C
100
AcDbProxyObject
 90
      499
 91
      507
 95
       23
 70
     0
 93
      265
310
90F312D312F3222203D2031272D3022000000000000003E0FC00000000000028407F
 94
        0
1001
ACAD
1000
AcRTDxfName
1000
SCALE
1000
AcRTDxfName
1000
SCALE
  0
ACAD_PROXY_OBJECT
  5
1A5
102
{ACAD_REACTORS
330
10C
102
}
330
10C
100
AcDbProxyObject
 90
      499
 91
      507
 95
       23
 70
     0
 93
      233
310
90B3322203D2031272D3022000000000000000210000000000000028407F
 94
        0
1001
ACAD
1000
AcRTDxfName
1000
SCALE
1000
AcRTDxfName
1000
SCALE
  0
ACAD_PROXY_OBJECT
  5
1A6
102
{ACAD_REACTORS
330
10C
102
}
330
10C
100
AcDbProxyObject
 90
      499
 91
      507
 95
       23
 70
     0
 93
      233
310
90B3622203D2031272D3022000000000000000610000000000000028407F
 94
        0
1001
ACAD
1000
AcRTDxfName
1000
SCALE
1000
AcRTDxfName
1000
SCALE
  0
ACAD_PROXY_OBJECT
  5
1A7
102
{ACAD_REACTORS
330
10C
102
}
330
10C
100
AcDbProxyObject
 90
      499
 91
      507
 95
       23
 70
     0
 93
      257
310
90E31272D3022203D2031272D3022000000000000000A10000000000000028407F
 94
        0
1001
ACAD
1000
AcRTDxfName
1000
SCALE
1000
AcRTDxfName
1000
SCALE
  0
TABLESTYLE
  5
7F
102
{ACAD_XDICTIONARY
360
162
102
}
102
{ACAD_REACTORS
330
7E
102
}
330
7E
100
AcDbTableStyle
  3
Standard
 70
     0
 71
     0
 40
1.5
 41
1.5
280
     0
281
     0
  7
Standard
140
4.5
170
     2
 62
     0
 63
     7
283
     0
274
    -2
284
     1
 64
     0
275
    -2
285
     1
 65
     0
276
    -2
286
     1
 66
     0
277
    -2
287
     1
 67
     0
278
    -2
288
     1
 68
     0
279
    -2
289
     1
 69
     0
  7
Standard
140
6.0
170
     5
 62
     0
 63
     7
283
     0
274
    -2
284
     1
 64
     0
275
    -2
285
     1
 65
     0
276
    -2
286
     1
 66
     0
277
    -2
287
     1
 67
     0
278
    -2
288
     1
 68
     0
279
    -2
289
     1
 69
     0
  7
Standard
140
4.5
170
     5
 62
     0
 63
     7
283
     0
274
    -2
284
     1
 64
     0
275
    -2
285
     1
 65
     0
276
    -2
286
     1
 66
     0
277
    -2
287
     1
 67
     0
278
    -2
288
     1
 68
     0
279
    -2
289
     1
 69
     0
  0
VISUALSTYLE
  5
F5
102
{ACAD_REACTORS
330
EF
102
}
330
EF
100
AcDbVisualStyle
  2
2dWireframe
 70
     4
 71
     0
 72
     2
 73
     1
 90
        0
 40
-0.6
 41
-30.0
 62
     5
 63
     7
 74
     1
 91
        4
 64
     7
 65
   257
 75
     1
175
     1
 42
1.0
 92
        0
 66
   257
 43
1.0
 76
     1
 77
     6
 78
     2
 67
     7
 79
     5
170
     0
171
     0
290
     0
174
     0
 93
        1
 44
0.0
173
     0
291
     0
 45
0.0
1001
ACAD
1000
AcDbSavedByObjectVersion
1070
     0
  0
VISUALSTYLE
  5
F7
102
{ACAD_REACTORS
330
EF
102
}
330
EF
100
AcDbVisualStyle
  2
3D Hidden
 70
     6
 71
     1
 72
     2
 73
     2
 90
        0
 40
-0.6
 41
-30.0
 62
     5
 63
     7
 74
     2
 91
        2
 64
     7
 65
   257
 75
     2
175
     1
 42
40.0
 92
        0
 66
   257
 43
1.0
 76
     1
 77
     6
 78
     2
 67
     7
 79
     3
170
     0
171
     0
290
     0
174
     0
 93
        1
 44
0.0
173
     0
291
     0
 45
0.0
1001
ACAD
1000
AcDbSavedByObjectVersion
1070
     0
  0
VISUALSTYLE
  5
F6
102
{ACAD_REACTORS
330
EF
102
}
330
EF
100
AcDbVisualStyle
  2
3dWireframe
 70
     5
 71
     0
 72
     2
 73
     1
 90
        0
 40
-0.6
 41
-30.0
 62
     5
 63
     7
 74
     1
 91
        4
 64
     7
 65
   257
 75
     1
175
     1
 42
1.0
 92
        0
 66
   257
 43
1.0
 76
     1
 77
     6
 78
     2
 67
     7
 79
     5
170
     0
171
     0
290
     0
174
     0
 93
        1
 44
0.0
173
     0
291
     0
 45
0.0
1001
ACAD
1000
AcDbSavedByObjectVersion
1070
     0
  0
VISUALSTYLE
  5
F4
102
{ACAD_REACTORS
330
EF
102
}
330
EF
100
AcDbVisualStyle
  2
Basic
 70
     7
 71
     1
 72
     0
 73
     1
 90
        0
 40
-0.6
 41
-30.0
 62
     5
 63
     7
 74
     0
 91
        4
 64
     7
 65
   257
 75
     1
175
     1
 42
1.0
 92
        8
 66
     7
 43
1.0
 76
     1
 77
     6
 78
     2
 67
     7
 79
     5
170
     0
171
     0
290
     0
174
     0
 93
        1
 44
0.0
173
     0
291
     1
 45
0.0
1001
ACAD
1000
AcDbSavedByObjectVersion
1070
     0
  0
VISUALSTYLE
  5
FB
102
{ACAD_REACTORS
330
EF
102
}
330
EF
100
AcDbVisualStyle
  2
Brighten
 70
    12
 71
     2
 72
     2
 73
     1
 90
        0
 40
-0.6
 41
-30.0
 62
     5
 63
     7
 74
     1
 91
        4
 64
     7
 65
   257
 75
     1
175
     1
 42
1.0
 92
        8
 66
     7
 43
1.0
 76
     1
 77
     6
 78
     2
 67
     7
 79
     5
170
     0
171
     0
290
     0
174
     0
 93
        1
 44
50.0
173
     0
291
     1
 45
0.0
1001
ACAD
1000
AcDbSavedByObjectVersion
1070
     0
  0
VISUALSTYLE
  5
FF
102
{ACAD_REACTORS
330
EF
102
}
330
EF
100
AcDbVisualStyle
  2
ColorChange
 70
    16
 71
     2
 72
     2
 73
     3
 90
        0
 40
-0.6
 41
-30.0
 62
     5
 63
     8
 74
     1
 91
        4
 64
     7
 65
   257
 75
     1
175
     1
 42
1.0
 92
        8
 66
     8
 43
1.0
 76
     1
 77
     6
 78
     2
 67
     7
 79
     5
170
     0
171
     0
290
     0
174
     0
 93
        1
 44
0.0
173
     0
291
     1
 45
0.0
1001
ACAD
1000
AcDbSavedByObjectVersion
1070
     0
  0
VISUALSTYLE
  5
F8
102
{ACAD_REACTORS
330
EF
102
}
330
EF
100
AcDbVisualStyle
  2
Conceptual
 70
     9
 71
     3
 72
     2
 73
     1
 90
        0
 40
-0.6
 41
-30.0
 62
     5
 63
     7
 74
     2
 91
        2
 64
     7
 65
   257
 75
     1
175
     1
 42
40.0
 92
        8
 66
     7
 43
1.0
 76
     1
 77
     6
 78
     2
 67
     7
 79
     3
170
     0
171
     0
290
     0
174
     0
 93
        1
 44
0.0
173
     0
291
     0
 45
0.0
1001
ACAD
1000
AcDbSavedByObjectVersion
1070
     0
  0
VISUALSTYLE
  5
FA
102
{ACAD_REACTORS
330
EF
102
}
330
EF
100
AcDbVisualStyle
  2
Dim
 70
    11
 71
     2
 72
     2
 73
     1
 90
        0
 40
-0.6
 41
-30.0
 62
     5
 63
     7
 74
     1
 91
        4
 64
     7
 65
   257
 75
     1
175
     1
 42
1.0
 92
        8
 66
     7
 43
1.0
 76
     1
 77
     6
 78
     2
 67
     7
 79
     5
170
     0
171
     0
290
     0
174
     0
 93
        1
 44
-50.0
173
     0
291
     1
 45
0.0
1001
ACAD
1000
AcDbSavedByObjectVersion
1070
     0
  0
VISUALSTYLE
  5
FE
102
{ACAD_REACTORS
330
EF
102
}
330
EF
100
AcDbVisualStyle
  2
Facepattern
 70
    15
 71
     2
 72
     2
 73
     1
 90
        0
 40
-0.6
 41
-30.0
 62
     5
 63
     7
 74
     1
 91
        4
 64
     7
 65
   257
 75
     1
175
     1
 42
1.0
 92
        8
 66
     7
 43
1.0
 76
     1
 77
     6
 78
     2
 67
     7
 79
     5
170
     0
171
     0
290
     0
174
     0
 93
        1
 44
0.0
173
     0
291
     1
 45
0.0
1001
ACAD
1000
AcDbSavedByObjectVersion
1070
     0
  0
VISUALSTYLE
  5
F0
102
{ACAD_REACTORS
330
EF
102
}
330
EF
100
AcDbVisualStyle
  2
Flat
 70
     0
 71
     2
 72
     1
 73
     1
 90
        2
 40
-0.6
 41
30.0
 62
     5
 63
     7
 74
     0
 91
        4
 64
     7
 65
   257
 75
     1
175
     1
 42
1.0
 92
        8
 66
     7
 43
1.0
 76
     1
 77
     6
 78
     2
 67
     7
 79
     5
170
     0
171
     0
290
     0
174
     0
 93
        1
 44
0.0
173
     0
291
     1
 45
0.0
1001
ACAD
1000
AcDbSavedByObjectVersion
1070
     0
  0
VISUALSTYLE
  5
F1
102
{ACAD_REACTORS
330
EF
102
}
330
EF
100
AcDbVisualStyle
  2
FlatWithEdges
 70
     1
 71
     2
 72
     1
 73
     1
 90
        2
 40
-0.6
 41
30.0
 62
     5
 63
     7
 74
     1
 91
        4
 64
     7
 65
   257
 75
     1
175
     1
 42
1.0
 92
        0
 66
   257
 43
1.0
 76
     1
 77
     6
 78
     2
 67
     7
 79
     5
170
     0
171
     0
290
     0
174
     0
 93
        1
 44
0.0
173
     0
291
     1
 45
0.0
1001
ACAD
1000
AcDbSavedByObjectVersion
1070
     0
  0
VISUALSTYLE
  5
F2
102
{ACAD_REACTORS
330
EF
102
}
330
EF
100
AcDbVisualStyle
  2
Gouraud
 70
     2
 71
     2
 72
     2
 73
     1
 90
        2
 40
-0.6
 41
30.0
 62
     5
 63
     7
 74
     0
 91
        4
 64
     7
 65
   257
 75
     1
175
     1
 42
1.0
 92
        0
 66
     7
 43
1.0
 76
     1
 77
     6
 78
     2
 67
     7
 79
     5
170
     0
171
     0
290
     0
174
     0
 93
        1
 44
0.0
173
     0
291
     1
 45
0.0
1001
ACAD
1000
AcDbSavedByObjectVersion
1070
     0
  0
VISUALSTYLE
  5
F3
102
{ACAD_REACTORS
330
EF
102
}
330
EF
100
AcDbVisualStyle
  2
GouraudWithEdges
 70
     3
 71
     2
 72
     2
 73
     1
 90
        2
 40
-0.6
 41
30.0
 62
     5
 63
     7
 74
     1
 91
        4
 64
     7
 65
   257
 75
     1
175
     1
 42
1.0
 92
        0
 66
   257
 43
1.0
 76
     1
 77
     6
 78
     2
 67
     7
 79
     5
170
     0
171
     0
290
     0
174
     0
 93
        1
 44
0.0
173
     0
291
     1
 45
0.0
1001
ACAD
1000
AcDbSavedByObjectVersion
1070
     0
  0
VISUALSTYLE
  5
FD
102
{ACAD_REACTORS
330
EF
102
}
330
EF
100
AcDbVisualStyle
  2
Linepattern
 70
    14
 71
     2
 72
     2
 73
     1
 90
        0
 40
-0.6
 41
-30.0
 62
     5
 63
     7
 74
     1
 91
        4
 64
     7
 65
   257
 75
     7
175
     7
 42
1.0
 92
        8
 66
     7
 43
1.0
 76
     1
 77
     6
 78
     2
 67
     7
 79
     5
170
     0
171
     0
290
     0
174
     0
 93
        1
 44
0.0
173
     0
291
     1
 45
0.0
1001
ACAD
1000
AcDbSavedByObjectVersion
1070
     0
  0
VISUALSTYLE
  5
F9
102
{ACAD_REACTORS
330
EF
102
}
330
EF
100
AcDbVisualStyle
  2
Realistic
 70
     8
 71
     2
 72
     2
 73
     1
 90
        0
 40
-0.6
 41
-30.0
 62
     5
 63
     7
 74
     1
 91
        0
 64
     7
 65
   257
 75
     1
175
     1
 42
1.0
 92
        8
 66
     8
 43
1.0
 76
     1
 77
     6
 78
     2
 67
     7
 79
     5
170
     0
171
     0
290
     0
174
     0
 93
       13
 44
0.0
173
     0
291
     0
 45
0.0
1001
ACAD
1000
AcDbSavedByObjectVersion
1070
     0
  0
VISUALSTYLE
  5
FC
102
{ACAD_REACTORS
330
EF
102
}
330
EF
100
AcDbVisualStyle
  2
Thicken
 70
    13
 71
     2
 72
     2
 73
     1
 90
        0
 40
-0.6
 41
-30.0
 62
     5
 63
     7
 74
     1
 91
        4
 64
     7
 65
   257
 75
     1
175
     1
 42
1.0
 92
       12
 66
     7
 43
1.0
 76
     1
 77
     6
 78
     2
 67
     7
 79
     5
170
     0
171
     0
290
     0
174
     0
 93
        1
 44
0.0
173
     0
291
     1
 45
0.0
1001
ACAD
1000
AcDbSavedByObjectVersion
1070
     0
  0
DICTIONARYVAR
  5
146
102
{ACAD_REACTORS
330
5E
102
}
330
5E
100
DictionaryVariables
280
     0
  1
1:1
  0
DICTIONARYVAR
  5
145
102
{ACAD_REACTORS
330
5E
102
}
330
5E
100
DictionaryVariables
280
     0
  1
STANDARD
  0
DICTIONARYVAR
  5
84
102
{ACAD_REACTORS
330
5E
102
}
330
5E
100
DictionaryVariables
280
     0
  1
STANDARD
  0
DICTIONARYVAR
  5
5F
102
{ACAD_REACTORS
330
5E
102
}
330
5E
100
DictionaryVariables
280
     0
  1
2
  0
DICTIONARYVAR
  5
63
102
{ACAD_REACTORS
330
5E
102
}
330
5E
100
DictionaryVariables
280
     0
  1
1
  0
DICTIONARYVAR
  5
466
102
{ACAD_REACTORS
330
5E
102
}
330
5E
100
DictionaryVariables
280
     0
  1
0
  0
DICTIONARYVAR
  5
464
102
{ACAD_REACTORS
330
5E
102
}
330
5E
100
DictionaryVariables
280
     0
  1
2
  0
DICTIONARYVAR
  5
463
102
{ACAD_REACTORS
330
5E
102
}
330
5E
100
DictionaryVariables
280
     0
  1
1
  0
DICTIONARYVAR
  5
24F5
102
{ACAD_REACTORS
330
5E
102
}
330
5E
100
DictionaryVariables
280
     0
  1
80.000000
  0
DICTIONARYVAR
  5
24F4
102
{ACAD_REACTORS
330
5E
102
}
330
5E
100
DictionaryVariables
280
     0
  1
5.000000
  0
DICTIONARYVAR
  5
465
102
{ACAD_REACTORS
330
5E
102
}
330
5E
100
DictionaryVariables
280
     0
  1
127
  0
DICTIONARY
  5
2216
102
{ACAD_REACTORS
330
2215
102
}
330
2215
100
AcDbDictionary
281
     1
  0
DICTIONARY
  5
222B
102
{ACAD_REACTORS
330
222A
102
}
330
222A
100
AcDbDictionary
281
     1
  0
DICTIONARY
  5
2230
102
{ACAD_REACTORS
330
222F
102
}
330
222F
100
AcDbDictionary
281
     1
  0
DICTIONARY
  5
24FA
330
D3
100
AcDbDictionary
280
     1
281
     1
  3
ACAD_XREC_ROUNDTRIP
360
24FB
  0
DICTIONARY
  5
24FC
330
D7
100
AcDbDictionary
280
     1
281
     1
  3
ACAD_XREC_ROUNDTRIP
360
24FD
  0
DICTIONARY
  5
24F7
330
22
100
AcDbDictionary
280
     1
281
     1
  3
ACAD_XREC_ROUNDTRIP
360
24F8
  0
DICTIONARY
  5
2500
330
ED
100
AcDbDictionary
280
     1
281
     1
  3
ACAD_XREC_ROUNDTRIP
360
2501
  0
DICTIONARY
  5
24FE
330
EC
100
AcDbDictionary
280
     1
281
     1
  3
ACAD_XREC_ROUNDTRIP
360
24FF
  0
DICTIONARY
  5
173
330
EE
100
AcDbDictionary
280
     1
281
     1
  3
ACAD_XREC_ROUNDTRIP
360
2502
  3
BUMPTILE
360
175
  3
DIFFUSETILE
360
174
  3
OPACITYTILE
360
176
  3
REFLECTIONTILE
360
177
  0
DICTIONARY
  5
162
330
7F
100
AcDbDictionary
280
     1
281
     1
  3
ACAD_ROUNDTRIP_2008_TABLESTYLE_CELLSTYLEMAP
360
241A
  3
ACAD_XREC_ROUNDTRIP
360
24F9
  0
XRECORD
  5
24FB
102
{ACAD_REACTORS
330
24FA
102
}
330
24FA
100
AcDbXrecord
280
     1
102
SHADEPLOT
 70
     0
102
SHADEPLOTRESLEVEL
 70
     2
102
SHADEPLOTCUSTOMDPI
 70
   300
  0
XRECORD
  5
24FD
102
{ACAD_REACTORS
330
24FC
102
}
330
24FC
100
AcDbXrecord
280
     1
102
SHADEPLOT
 70
     0
102
SHADEPLOTRESLEVEL
 70
     2
102
SHADEPLOTCUSTOMDPI
 70
   300
  0
XRECORD
  5
24F8
102
{ACAD_REACTORS
330
24F7
102
}
330
24F7
100
AcDbXrecord
280
     1
102
SHADEPLOT
 70
     0
102
SHADEPLOTRESLEVEL
 70
     2
102
SHADEPLOTCUSTOMDPI
 70
   300
  0
XRECORD
  5
2501
102
{ACAD_REACTORS
330
2500
102
}
330
2500
100
AcDbXrecord
280
     1
102
MATERIAL
148
0.0
149
0.0
149
0.0
 93
        0
 94
       63
282
     0
 72
     1
 77
     1
171
     1
175
     1
179
     1
273
     0
  0
XRECORD
  5
24FF
102
{ACAD_REACTORS
330
24FE
102
}
330
24FE
100
AcDbXrecord
280
     1
102
MATERIAL
148
0.0
149
0.0
149
0.0
 93
        0
 94
       63
282
     0
 72
     1
 77
     1
171
     1
175
     1
179
     1
273
     0
  0
XRECORD
  5
2502
102
{ACAD_REACTORS
330
173
102
}
330
173
100
AcDbXrecord
280
     1
102
MATERIAL
148
0.0
149
0.0
149
0.0
 93
        0
 94
       63
282
     0
 72
     1
 77
     1
171
     1
175
     1
179
     1
273
     0
  0
XRECORD
  5
175
102
{ACAD_REACTORS
330
173
102
}
330
173
100
AcDbXrecord
280
     1
270
     1
271
     1
  0
XRECORD
  5
174
102
{ACAD_REACTORS
330
173
102
}
330
173
100
AcDbXrecord
280
     1
270
     1
271
     1
  0
XRECORD
  5
176
102
{ACAD_REACTORS
330
173
102
}
330
173
100
AcDbXrecord
280
     1
270
     1
271
     1
  0
XRECORD
  5
177
102
{ACAD_REACTORS
330
173
102
}
330
173
100
AcDbXrecord
280
     1
270
     1
271
     1
  0
ACAD_PROXY_OBJECT
  5
241A
102
{ACAD_REACTORS
330
162
102
}
330
162
100
AcDbProxyObject
 90
      499
 91
      509
 95
       23
 70
     0
 93
     5304
310
40D054060020000020000003200101A000080002A5058000000C10000000000000006101010000000000003E0FC000000000000F83F0000000000003E0FC000000000000F83F02B5E8DC0F42B1CFC0AD7A3703D0AC73F419019018000000C1003FBFFFFFE0000000000003C8FD029018000000C1003FBFFFFFE00000000000
310
03C8FD049018000000C1003FBFFFFFE0000000000003C8FD089018000000C1003FBFFFFFE0000000000003C8FD109018000000C1003FBFFFFFE0000000000003C8FD209018000000C1003FBFFFFFE0000000000003C8FD01405075F5449544C450041501A8000000C800406800020000A94160000003040000000000000012
310
40404000000000000F83F0000000000003E0FC000000000000F83F0000000000003E0FC0AD7A3703D0AC73F02B5E8DC0F42B1CFD0640640600000030400FEFFFFFF8000000000000F23F40A40600000030400FEFFFFFF8000000000000F23F41240600000030400FEFFFFFF8000000000000F23F42240600000030400FEFFF
310
FFF8000000000000F23F44240600000030400FEFFFFFF8000000000000F23F48240600000030400FEFFFFFF8000000000000F23F409014217D2115051115480105406A0000003200101A000080002A5028000000C10000000000000004901010000000000003E0FC000000000000F83F0000000000003E0FC000000000000F
310
83F02B5E8DC0F42B1CFC0AD7A3703D0AC73F419019018000000C1003FBFFFFFE0000000000003C8FD029018000000C1003FBFFFFFE0000000000003C8FD049018000000C1003FBFFFFFE0000000000003C8FD089018000000C1003FBFFFFFE0000000000003C8FD109018000000C1003FBFFFFFE0000000000003C8FD20901
310
8000000C1003FBFFFFFE0000000000003C8FD03409065F444154410000
340
11
340
14
340
14
340
14
340
14
340
14
340
14
340
11
340
14
340
14
340
14
340
14
340
14
340
14
340
11
340
14
340
14
340
14
340
14
340
14
340
14
 94
        0
1001
ACAD
1000
AcRTDxfName
1000
CELLSTYLEMAP
1000
AcRTDxfName
1000
CELLSTYLEMAP
  0
XRECORD
  5
24F9
102
{ACAD_REACTORS
330
162
102
}
330
162
100
AcDbXrecord
280
     1
102
ACAD_ROUNDTRIP_PRE2007_TABLESTYLE
 90
      512
 91
        0
  1

 92
      512
 93
        0
  2

 94
      512
 95
        0
  3

  0
ENDSEC
  0
EOF
