  0
SECTION
  2
HEADER
  9
$ACADVER
  1
AC1015
  9
$ACADMAINTVER
 70
    20
  9
$DWGCODEPAGE
  3
ANSI_1250
  9
$INSBASE
 10
0.0
 20
0.0
 30
0.0
  9
$EXTMIN
 10
0.2045187983026153
 20
-0.004528679247187
 30
-0.0000000000112498
  9
$EXTMAX
 10
334.5664940055627
 20
297.0045328285427
 30
0.0000000000002956
  9
$LIMMIN
 10
0.209617020324913
 20
0.0
  9
$LIMMAX
 10
334.5613911124149
 20
297.0
  9
$ORTHOMODE
 70
     1
  9
$REGENMODE
 70
     1
  9
$FILLMODE
 70
     1
  9
$QTEXTMODE
 70
     0
  9
$MIRRTEXT
 70
     0
  9
$LTSCALE
 40
1.0
  9
$ATTMODE
 70
     2
  9
$TEXTSIZE
 40
5.0
  9
$TRACEWID
 40
1.0
  9
$TEXTSTYLE
  7
Solbet_5
  9
$CLAYER
  8
SOLBET_Bloczki
  9
$CELTYPE
  6
ByLayer
  9
$CECOLOR
 62
   256
  9
$CELTSCALE
 40
1.0
  9
$DISPSILH
 70
     0
  9
$DIMSCALE
 40
1.0
  9
$DIMASZ
 40
2.5
  9
$DIMEXO
 40
0.0
  9
$DIMDLI
 40
3.75
  9
$DIMRND
 40
0.0
  9
$DIMDLE
 40
0.0
  9
$DIMEXE
 40
1.25
  9
$DIMTP
 40
0.0
  9
$DIMTM
 40
0.0
  9
$DIMTXT
 40
2.5
  9
$DIMCEN
 40
2.5
  9
$DIMTSZ
 40
0.0
  9
$DIMTOL
 70
     0
  9
$DIMLIM
 70
     0
  9
$DIMTIH
 70
     0
  9
$DIMTOH
 70
     0
  9
$DIMSE1
 70
     0
  9
$DIMSE2
 70
     0
  9
$DIMTAD
 70
     1
  9
$DIMZIN
 70
     8
  9
$DIMBLK
  1

  9
$DIMASO
 70
     1
  9
$DIMSHO
 70
     1
  9
$DIMPOST
  1

  9
$DIMAPOST
  1

  9
$DIMALT
 70
     0
  9
$DIMALTD
 70
     3
  9
$DIMALTF
 40
0.03937007874016
  9
$DIMLFAC
 40
1.0
  9
$DIMTOFL
 70
     1
  9
$DIMTVP
 40
0.0
  9
$DIMTIX
 70
     0
  9
$DIMSOXD
 70
     0
  9
$DIMSAH
 70
     0
  9
$DIMBLK1
  1

  9
$DIMBLK2
  1

  9
$DIMSTYLE
  2
Solbet
  9
$DIMCLRD
 70
     0
  9
$DIMCLRE
 70
     0
  9
$DIMCLRT
 70
     0
  9
$DIMTFAC
 40
1.0
  9
$DIMGAP
 40
0.625
  9
$DIMJUST
 70
     0
  9
$DIMSD1
 70
     0
  9
$DIMSD2
 70
     0
  9
$DIMTOLJ
 70
     0
  9
$DIMTZIN
 70
     8
  9
$DIMALTZ
 70
     0
  9
$DIMALTTZ
 70
     0
  9
$DIMUPT
 70
     0
  9
$DIMDEC
 70
     2
  9
$DIMTDEC
 70
     2
  9
$DIMALTU
 70
     2
  9
$DIMALTTD
 70
     3
  9
$DIMTXSTY
  7
Solbet_2_5
  9
$DIMAUNIT
 70
     0
  9
$DIMADEC
 70
     0
  9
$DIMALTRND
 40
0.0
  9
$DIMAZIN
 70
     0
  9
$DIMDSEP
 70
    44
  9
$DIMATFIT
 70
     3
  9
$DIMFRAC
 70
     0
  9
$DIMLDRBLK
  1

  9
$DIMLUNIT
 70
     2
  9
$DIMLWD
 70
    -2
  9
$DIMLWE
 70
    -2
  9
$DIMTMOVE
 70
     0
  9
$LUNITS
 70
     2
  9
$LUPREC
 70
     4
  9
$SKETCHINC
 40
1.0
  9
$FILLETRAD
 40
0.0
  9
$AUNITS
 70
     0
  9
$AUPREC
 70
     0
  9
$MENU
  1
.
  9
$ELEVATION
 40
0.0
  9
$PELEVATION
 40
0.0
  9
$THICKNESS
 40
0.0
  9
$LIMCHECK
 70
     0
  9
$CHAMFERA
 40
0.0
  9
$CHAMFERB
 40
0.0
  9
$CHAMFERC
 40
0.0
  9
$CHAMFERD
 40
0.0
  9
$SKPOLY
 70
     0
  9
$TDCREATE
 40
2454690.075573148
  9
$TDUCREATE
 40
2454690.033906482
  9
$TDUPDATE
 40
2454848.881120961
  9
$TDUUPDATE
 40
2454848.839454294
  9
$TDINDWG
 40
0.5782456829
  9
$TDUSRTIMER
 40
0.5782411574
  9
$USRTIMER
 70
     1
  9
$ANGBASE
 50
0.0
  9
$ANGDIR
 70
     0
  9
$PDMODE
 70
     0
  9
$PDSIZE
 40
0.0
  9
$PLINEWID
 40
0.0
  9
$SPLFRAME
 70
     0
  9
$SPLINETYPE
 70
     6
  9
$SPLINESEGS
 70
     8
  9
$HANDSEED
  5
2B6E
  9
$SURFTAB1
 70
     6
  9
$SURFTAB2
 70
     6
  9
$SURFTYPE
 70
     6
  9
$SURFU
 70
     6
  9
$SURFV
 70
     6
  9
$UCSBASE
  2

  9
$UCSNAME
  2

  9
$UCSORG
 10
0.0
 20
0.0
 30
0.0
  9
$UCSXDIR
 10
1.0
 20
0.0
 30
0.0
  9
$UCSYDIR
 10
0.0
 20
1.0
 30
0.0
  9
$UCSORTHOREF
  2

  9
$UCSORTHOVIEW
 70
     0
  9
$UCSORGTOP
 10
0.0
 20
0.0
 30
0.0
  9
$UCSORGBOTTOM
 10
0.0
 20
0.0
 30
0.0
  9
$UCSORGLEFT
 10
0.0
 20
0.0
 30
0.0
  9
$UCSORGRIGHT
 10
0.0
 20
0.0
 30
0.0
  9
$UCSORGFRONT
 10
0.0
 20
0.0
 30
0.0
  9
$UCSORGBACK
 10
0.0
 20
0.0
 30
0.0
  9
$PUCSBASE
  2

  9
$PUCSNAME
  2

  9
$PUCSORG
 10
0.0
 20
0.0
 30
0.0
  9
$PUCSXDIR
 10
1.0
 20
0.0
 30
0.0
  9
$PUCSYDIR
 10
0.0
 20
1.0
 30
0.0
  9
$PUCSORTHOREF
  2

  9
$PUCSORTHOVIEW
 70
     0
  9
$PUCSORGTOP
 10
0.0
 20
0.0
 30
0.0
  9
$PUCSORGBOTTOM
 10
0.0
 20
0.0
 30
0.0
  9
$PUCSORGLEFT
 10
0.0
 20
0.0
 30
0.0
  9
$PUCSORGRIGHT
 10
0.0
 20
0.0
 30
0.0
  9
$PUCSORGFRONT
 10
0.0
 20
0.0
 30
0.0
  9
$PUCSORGBACK
 10
0.0
 20
0.0
 30
0.0
  9
$USERI1
 70
     0
  9
$USERI2
 70
     0
  9
$USERI3
 70
     0
  9
$USERI4
 70
     0
  9
$USERI5
 70
     0
  9
$USERR1
 40
0.0
  9
$USERR2
 40
0.0
  9
$USERR3
 40
0.0
  9
$USERR4
 40
0.0
  9
$USERR5
 40
0.0
  9
$WORLDVIEW
 70
     1
  9
$SHADEDGE
 70
     3
  9
$SHADEDIF
 70
    70
  9
$TILEMODE
 70
     1
  9
$MAXACTVP
 70
    64
  9
$PINSBASE
 10
0.0
 20
0.0
 30
0.0
  9
$PLIMCHECK
 70
     0
  9
$PEXTMIN
 10
0.0
 20
0.0
 30
0.0
  9
$PEXTMAX
 10
0.0
 20
0.0
 30
0.0
  9
$PLIMMIN
 10
0.0
 20
0.0
  9
$PLIMMAX
 10
12.0
 20
9.0
  9
$UNITMODE
 70
     0
  9
$VISRETAIN
 70
     1
  9
$PLINEGEN
 70
     0
  9
$PSLTSCALE
 70
     1
  9
$TREEDEPTH
 70
  3020
  9
$CMLSTYLE
  2
SOLBET_IZOLACJA
  9
$CMLJUST
 70
     0
  9
$CMLSCALE
 40
20.0
  9
$PROXYGRAPHICS
 70
     1
  9
$MEASUREMENT
 70
     1
  9
$CELWEIGHT
370
    -1
  9
$ENDCAPS
280
     0
  9
$JOINSTYLE
280
     0
  9
$LWDISPLAY
290
     1
  9
$INSUNITS
 70
     4
  9
$HYPERLINKBASE
  1

  9
$STYLESHEET
  1

  9
$XEDIT
290
     1
  9
$CEPSNTYPE
380
     0
  9
$PSTYLEMODE
290
     1
  9
$FINGERPRINTGUID
  2
{6B12AB33-8E39-428E-8E85-461C8D99A3CB}
  9
$VERSIONGUID
  2
{A383371A-63AD-416C-9DB0-E7ADE648AA8B}
  9
$EXTNAMES
290
     1
  9
$PSVPSCALE
 40
0.0
  9
$OLESTARTUP
290
     0
  0
ENDSEC
  0
SECTION
  2
CLASSES
  0
CLASS
  1
ACDBDICTIONARYWDFLT
  2
AcDbDictionaryWithDefault
  3
ObjectDBX Classes
 90
        0
280
     0
281
     0
  0
CLASS
  1
ACDBPLACEHOLDER
  2
AcDbPlaceHolder
  3
ObjectDBX Classes
 90
        0
280
     0
281
     0
  0
CLASS
  1
LAYOUT
  2
AcDbLayout
  3
ObjectDBX Classes
 90
        0
280
     0
281
     0
  0
CLASS
  1
DICTIONARYVAR
  2
AcDbDictionaryVar
  3
ObjectDBX Classes
 90
        0
280
     0
281
     0
  0
CLASS
  1
TABLESTYLE
  2
AcDbTableStyle
  3
ObjectDBX Classes
 90
     4095
280
     0
281
     0
  0
CLASS
  1
MATERIAL
  2
AcDbMaterial
  3
ObjectDBX Classes
 90
     1024
280
     0
281
     0
  0
CLASS
  1
VISUALSTYLE
  2
AcDbVisualStyle
  3
ObjectDBX Classes
 90
     4095
280
     0
281
     0
  0
CLASS
  1
SCALE
  2
AcDbScale
  3
ObjectDBX Classes
 90
     1153
280
     0
281
     0
  0
CLASS
  1
MLEADERSTYLE
  2
AcDbMLeaderStyle
  3
ACDB_MLEADERSTYLE_CLASS
 90
     4095
280
     0
281
     0
  0
CLASS
  1
CELLSTYLEMAP
  2
AcDbCellStyleMap
  3
ObjectDBX Classes
 90
     1152
280
     0
281
     0
  0
CLASS
  1
DIMASSOC
  2
AcDbDimAssoc
  3
"AcDbDimAssoc|Product Desc:     AcDim ARX App For Dimension|Company:          Autodesk, Inc.|WEB Address:      www.autodesk.com"
 90
    32768
280
     0
281
     0
  0
CLASS
  1
SORTENTSTABLE
  2
AcDbSortentsTable
  3
ObjectDBX Classes
 90
        0
280
     0
281
     0
  0
CLASS
  1
MULTILEADER
  2
AcDbMLeader
  3
ACDB_MLEADER_CLASS
 90
    33793
280
     0
281
     1
  0
CLASS
  1
ACDB_MTEXTOBJECTCONTEXTDATA_CLASS
  2
AcDbMTextObjectContextData
  3
ObjectDBX Classes
 90
    33921
280
     0
281
     0
  0
ENDSEC
  0
SECTION
  2
TABLES
  0
TABLE
  2
VPORT
  5
8
102
{ACAD_XDICTIONARY
360
443
102
}
330
0
100
AcDbSymbolTable
 70
     1
  0
VPORT
  5
EA
330
8
100
AcDbSymbolTableRecord
100
AcDbViewportTableRecord
  2
*Active
 70
     0
 10
0.0
 20
0.0
 11
1.0
 21
1.0
 12
167.3855064019327
 22
148.5000020746477
 13
0.0
 23
0.0
 14
10.0
 24
10.0
 15
10.0
 25
10.0
 16
0.0
 26
0.0
 36
1.0
 17
0.0
 27
0.0
 37
0.0
 40
300.3091621912098
 41
1.74582560296846
 42
50.0
 43
0.0
 44
0.0
 50
0.0
 51
0.0
 71
     0
 72
  1000
 73
     1
 74
     3
 75
     0
 76
     0
 77
     0
 78
     0
281
     0
 65
     1
110
0.0
120
0.0
130
0.0
111
1.0
121
0.0
131
0.0
112
0.0
122
1.0
132
0.0
 79
     0
146
0.0
  0
ENDTAB
  0
TABLE
  2
LTYPE
  5
5
330
0
100
AcDbSymbolTable
 70
     2
  0
LTYPE
  5
14
330
5
100
AcDbSymbolTableRecord
100
AcDbLinetypeTableRecord
  2
ByBlock
 70
     0
  3

 72
    65
 73
     0
 40
0.0
  0
LTYPE
  5
15
330
5
100
AcDbSymbolTableRecord
100
AcDbLinetypeTableRecord
  2
ByLayer
 70
     0
  3

 72
    65
 73
     0
 40
0.0
  0
LTYPE
  5
16
330
5
100
AcDbSymbolTableRecord
100
AcDbLinetypeTableRecord
  2
Continuous
 70
     0
  3
Solid line
 72
    65
 73
     0
 40
0.0
  0
LTYPE
  5
982
330
5
100
AcDbSymbolTableRecord
100
AcDbLinetypeTableRecord
  2
BATTING
 70
     0
  3
Batting SSSSSSSSSSSSSSSSSSSSSSSSSSSSSSSSSSSSSSSSSSSSSSS
 72
    65
 73
     4
 40
10.16254
 49
0.00254
 74
     0
 49
-2.54
 74
     4
 75
   134
340
7E7
 46
2.54
 50
0.0
 44
-2.54
 45
0.0
 49
-5.08
 74
     4
 75
   134
340
7E7
 46
2.54
 50
180.0
 44
2.54
 45
0.0
 49
-2.54
 74
     0
  0
ENDTAB
  0
TABLE
  2
LAYER
  5
2
102
{ACAD_XDICTIONARY
360
3E5
102
}
330
0
100
AcDbSymbolTable
 70
    13
  0
LAYER
  5
10
102
{ACAD_XDICTIONARY
360
13C
102
}
330
2
100
AcDbSymbolTableRecord
100
AcDbLayerTableRecord
  2
0
 70
     0
 62
     7
  6
Continuous
370
    -3
390
F
  0
LAYER
  5
2BB
330
2
100
AcDbSymbolTableRecord
100
AcDbLayerTableRecord
  2
DEFPOINTS
 70
     0
 62
     7
  6
Continuous
290
     0
370
    -3
390
F
  0
LAYER
  5
3DD
102
{ACAD_XDICTIONARY
360
403
102
}
330
2
100
AcDbSymbolTableRecord
100
AcDbLayerTableRecord
  2
SOLBET_Bloczki
 70
     0
 62
   140
  6
Continuous
370
    -3
390
F
1001
AcAecLayerStandard
1000

1000

  0
LAYER
  5
3DF
102
{ACAD_XDICTIONARY
360
405
102
}
330
2
100
AcDbSymbolTableRecord
100
AcDbLayerTableRecord
  2
SOLBET_Wymiary_Opisy
 70
     0
 62
     1
  6
Continuous
370
    -3
390
F
1001
AcAecLayerStandard
1000

1000

  0
LAYER
  5
3E0
102
{ACAD_XDICTIONARY
360
407
102
}
330
2
100
AcDbSymbolTableRecord
100
AcDbLayerTableRecord
  2
SOLBET_Beton
 70
     0
 62
     9
  6
Continuous
370
    -3
390
F
1001
AcAecLayerStandard
1000

1000

  0
LAYER
  5
3E1
102
{ACAD_XDICTIONARY
360
409
102
}
330
2
100
AcDbSymbolTableRecord
100
AcDbLayerTableRecord
  2
SOLBET_Izolacja
 70
     0
 62
    40
  6
Continuous
370
    -3
390
F
1001
AcAecLayerStandard
1000

1000

  0
LAYER
  5
3E2
102
{ACAD_XDICTIONARY
360
40B
102
}
330
2
100
AcDbSymbolTableRecord
100
AcDbLayerTableRecord
  2
SOLBET_Zbrojenie_Konstrukcja
 70
     0
 62
     7
  6
Continuous
370
    -3
390
F
1001
AcAecLayerStandard
1000

1000

  0
LAYER
  5
3E4
102
{ACAD_XDICTIONARY
360
40F
102
}
330
2
100
AcDbSymbolTableRecord
100
AcDbLayerTableRecord
  2
SOLBET_Tynki_Posadzki
 70
     0
 62
     3
  6
Continuous
370
    -3
390
F
1001
AcAecLayerStandard
1000

1000

  0
LAYER
  5
3E8
102
{ACAD_XDICTIONARY
360
411
102
}
330
2
100
AcDbSymbolTableRecord
100
AcDbLayerTableRecord
  2
SOLBET_Ramka_05
 70
     0
 62
     2
  6
Continuous
370
    -3
390
F
1001
AcAecLayerStandard
1000

1000

  0
LAYER
  5
472
330
2
100
AcDbSymbolTableRecord
100
AcDbLayerTableRecord
  2
SOLBET_Zaprawy
 70
     0
 62
     4
  6
Continuous
370
    -3
390
F
1001
AcAecLayerStandard
1000

1000

  0
LAYER
  5
4E2
330
2
100
AcDbSymbolTableRecord
100
AcDbLayerTableRecord
  2
SOLBET_Emulsje_Folie
 70
     0
 62
     6
  6
Continuous
370
    -3
390
F
1001
AcAecLayerStandard
1000

1000

  0
LAYER
  5
2398
330
2
100
AcDbSymbolTableRecord
100
AcDbLayerTableRecord
  2
SOLBET_Stolarka_Okna
 70
     0
 62
     2
  6
Continuous
370
    -3
390
F
1001
AcAecLayerStandard
1000

1000

  0
LAYER
  5
2A1F
102
{ACAD_XDICTIONARY
360
2A20
102
}
330
2
100
AcDbSymbolTableRecord
100
AcDbLayerTableRecord
  2
SOLBET_Wymiary_Opisy @ 1
 70
     0
 62
     1
  6
Continuous
370
    -3
390
F
1001
AcAecLayerStandard
1000

1000

1001
AcadAnnotativeDecomposition
1000
AnnotativeData
1002
{
1070
     1
1070
     1
1002
}
  0
ENDTAB
  0
TABLE
  2
STYLE
  5
3
330
0
100
AcDbSymbolTable
 70
     5
  0
STYLE
  5
11
330
3
100
AcDbSymbolTableRecord
100
AcDbTextStyleTableRecord
  2
Standard
 70
     0
 40
0.0
 41
1.0
 50
0.0
 71
     0
 42
2.5
  3
txt.shx
  4

  0
STYLE
  5
7D7
330
3
100
AcDbSymbolTableRecord
100
AcDbTextStyleTableRecord
  2
Solbet_5
 70
     0
 40
5.0
 41
1.0
 50
0.0
 71
     0
 42
5.0
  3
isocpeur.ttf
  4

1001
ACAD
1000
ISOCPEUR
1071
       34
  0
STYLE
  5
7D9
330
3
100
AcDbSymbolTableRecord
100
AcDbTextStyleTableRecord
  2
Solbet_2_5
 70
     0
 40
2.5
 41
1.0
 50
0.0
 71
     0
 42
2.5
  3
isocpeur.ttf
  4

1001
ACAD
1000
ISOCPEUR
1071
       34
  0
STYLE
  5
7E7
330
3
100
AcDbSymbolTableRecord
100
AcDbTextStyleTableRecord
  2

 70
     1
 40
0.0
 41
1.0
 50
0.0
 71
     0
 42
2.5
  3
ltypeshp.shx
  4

  0
STYLE
  5
233E
330
3
100
AcDbSymbolTableRecord
100
AcDbTextStyleTableRecord
  2
Solbet_1
 70
     0
 40
1.0
 41
1.0
 50
0.0
 71
     0
 42
2.5
  3
isocpeur.ttf
  4

1001
ACAD
1000
ISOCPEUR
1071
       34
  0
ENDTAB
  0
TABLE
  2
VIEW
  5
6
330
0
100
AcDbSymbolTable
 70
     0
  0
ENDTAB
  0
TABLE
  2
UCS
  5
7
330
0
100
AcDbSymbolTable
 70
     0
  0
ENDTAB
  0
TABLE
  2
APPID
  5
9
330
0
100
AcDbSymbolTable
 70
    13
  0
APPID
  5
12
330
9
100
AcDbSymbolTableRecord
100
AcDbRegAppTableRecord
  2
ACAD
 70
     0
  0
APPID
  5
9E
330
9
100
AcDbSymbolTableRecord
100
AcDbRegAppTableRecord
  2
ACAD_PSEXT
 70
     0
  0
APPID
  5
133
330
9
100
AcDbSymbolTableRecord
100
AcDbRegAppTableRecord
  2
AcadAnnoPO
 70
     0
  0
APPID
  5
134
330
9
100
AcDbSymbolTableRecord
100
AcDbRegAppTableRecord
  2
AcadAnnotative
 70
     0
  0
APPID
  5
135
330
9
100
AcDbSymbolTableRecord
100
AcDbRegAppTableRecord
  2
ACAD_DSTYLE_DIMJAG
 70
     0
  0
APPID
  5
136
330
9
100
AcDbSymbolTableRecord
100
AcDbRegAppTableRecord
  2
ACAD_DSTYLE_DIMTALN
 70
     0
  0
APPID
  5
165
330
9
100
AcDbSymbolTableRecord
100
AcDbRegAppTableRecord
  2
ACAD_MLEADERVER
 70
     0
  0
APPID
  5
2C4
330
9
100
AcDbSymbolTableRecord
100
AcDbRegAppTableRecord
  2
ASO_SCHRAFF
 70
     0
  0
APPID
  5
3DE
330
9
100
AcDbSymbolTableRecord
100
AcDbRegAppTableRecord
  2
AcAecLayerStandard
 70
     0
  0
APPID
  5
7DE
330
9
100
AcDbSymbolTableRecord
100
AcDbRegAppTableRecord
  2
ACAD_EXEMPT_FROM_CAD_STANDARDS
 70
     0
  0
APPID
  5
948
330
9
100
AcDbSymbolTableRecord
100
AcDbRegAppTableRecord
  2
ACAD_DSTYLE_DIMBREAK
 70
     0
  0
APPID
  5
1D0A
330
9
100
AcDbSymbolTableRecord
100
AcDbRegAppTableRecord
  2
AcadAnnotativeDecomposition
 70
     0
  0
APPID
  5
233F
330
9
100
AcDbSymbolTableRecord
100
AcDbRegAppTableRecord
  2
AcDbAttr
 70
     0
  0
ENDTAB
  0
TABLE
  2
DIMSTYLE
  5
A
330
0
100
AcDbSymbolTable
 70
     2
100
AcDbDimStyleTable
 71
     1
340
949
  0
DIMSTYLE
105
949
330
A
100
AcDbSymbolTableRecord
100
AcDbDimStyleTableRecord
  2
Solbet
 70
     0
 41
2.5
 42
0.0
 43
3.75
 44
1.25
 73
     0
 74
     0
 77
     1
 78
     8
140
2.5
141
2.5
143
0.03937007874016
147
0.625
171
     3
172
     1
271
     2
272
     2
274
     3
278
    44
283
     0
284
     8
340
7D9
1001
ACAD_DSTYLE_DIMBREAK
1070
   391
1040
3.75
1001
ACAD_DSTYLE_DIMJAG
1070
   388
1040
1.5
1001
ACAD_DSTYLE_DIMTALN
1070
   392
1070
     0
  0
DIMSTYLE
105
954
330
A
100
AcDbSymbolTableRecord
100
AcDbDimStyleTableRecord
  2
Solbet$7
 70
     0
 41
2.5
 42
0.0
 43
3.75
 44
1.25
 73
     0
 74
     0
 77
     1
 78
     8
140
2.5
141
2.5
143
0.03937007874016
147
0.625
171
     3
172
     1
271
     2
272
     2
274
     3
278
    44
283
     0
284
     8
340
7D9
341
958
1001
ACAD_DSTYLE_DIMBREAK
1070
   391
1040
3.75
1001
ACAD_DSTYLE_DIMJAG
1070
   388
1040
1.5
1001
ACAD_DSTYLE_DIMTALN
1070
   392
1070
     0
  0
ENDTAB
  0
TABLE
  2
BLOCK_RECORD
  5
1
330
0
100
AcDbSymbolTable
 70
    13
  0
BLOCK_RECORD
  5
1F
102
{ACAD_XDICTIONARY
360
4A3
102
}
330
1
100
AcDbSymbolTableRecord
100
AcDbBlockTableRecord
  2
*Model_Space
340
22
  0
BLOCK_RECORD
  5
D2
330
1
100
AcDbSymbolTableRecord
100
AcDbBlockTableRecord
  2
*Paper_Space
340
D3
  0
BLOCK_RECORD
  5
D6
330
1
100
AcDbSymbolTableRecord
100
AcDbBlockTableRecord
  2
*Paper_Space0
340
D7
  0
BLOCK_RECORD
  5
1C2
330
1
100
AcDbSymbolTableRecord
100
AcDbBlockTableRecord
  2
ASOWDBLK
340
0
102
{BLKREFS
331
2401
331
2402
331
2403
331
2404
331
2405
331
2406
331
2407
331
2408
331
2409
331
240A
331
240B
331
240C
331
240D
331
240E
331
240F
331
2410
331
2411
331
2412
331
2413
331
2414
331
2415
331
2416
331
2417
102
}
  0
BLOCK_RECORD
  5
958
330
1
100
AcDbSymbolTableRecord
100
AcDbBlockTableRecord
  2
_DotSmall
340
0
102
{BLKREFS
331
2964
102
}
  0
BLOCK_RECORD
  5
1EF2
330
1
100
AcDbSymbolTableRecord
100
AcDbBlockTableRecord
  2
_None
340
0
  0
BLOCK_RECORD
  5
203E
330
1
100
AcDbSymbolTableRecord
100
AcDbBlockTableRecord
  2
*X4
340
0
102
{BLKREFS
331
2391
102
}
  0
BLOCK_RECORD
  5
209E
330
1
100
AcDbSymbolTableRecord
100
AcDbBlockTableRecord
  2
*U5
340
0
102
{BLKREFS
331
2320
102
}
  0
BLOCK_RECORD
  5
20A8
330
1
100
AcDbSymbolTableRecord
100
AcDbBlockTableRecord
  2
*U6
340
0
102
{BLKREFS
331
22CA
102
}
  0
BLOCK_RECORD
  5
212C
330
1
100
AcDbSymbolTableRecord
100
AcDbBlockTableRecord
  2
*U7
340
0
102
{BLKREFS
331
22D4
102
}
  0
BLOCK_RECORD
  5
2340
102
{ACAD_XDICTIONARY
360
234C
102
}
330
1
100
AcDbSymbolTableRecord
100
AcDbBlockTableRecord
  2
SOLBET_Bloczek_Ideal_420x240x590_P+W_PRA
340
0
1001
ACAD
1000
DesignCenter Data
1002
{
1070
     1
1070
     4
1002
}
  0
BLOCK_RECORD
  5
2353
102
{ACAD_XDICTIONARY
360
2361
102
}
330
1
100
AcDbSymbolTableRecord
100
AcDbBlockTableRecord
  2
SOLBET_Ksztaltka_U_420x240x500_PRA
340
0
1001
ACAD
1000
DesignCenter Data
1002
{
1070
     1
1070
     4
1002
}
  0
BLOCK_RECORD
  5
2A68
102
{ACAD_XDICTIONARY
360
2A76
102
}
330
1
100
AcDbSymbolTableRecord
100
AcDbBlockTableRecord
  2
SOLBET_Ksztaltka_U_420x240x500_KG400_PRA
340
0
102
{BLKREFS
331
2A7A
102
}
1001
ACAD
1000
DesignCenter Data
1002
{
1070
     1
1070
     4
1002
}
  0
BLOCK_RECORD
  5
2AB3
102
{ACAD_XDICTIONARY
360
2ABF
102
}
330
1
100
AcDbSymbolTableRecord
100
AcDbBlockTableRecord
  2
SOLBET_Bloczek_Ideal_420x240x590_P+W_KG400_PRA
340
0
102
{BLKREFS
331
2AC3
102
}
1001
ACAD
1000
DesignCenter Data
1002
{
1070
     1
1070
     4
1002
}
  0
ENDTAB
  0
ENDSEC
  0
SECTION
  2
BLOCKS
  0
BLOCK
  5
20
330
1F
100
AcDbEntity
  8
0
100
AcDbBlockBegin
  2
*Model_Space
 70
     0
 10
0.0
 20
0.0
 30
0.0
  3
*Model_Space
  1

  0
ENDBLK
  5
21
330
1F
100
AcDbEntity
  8
0
100
AcDbBlockEnd
  0
BLOCK
  5
D4
330
D2
100
AcDbEntity
 67
     1
  8
0
100
AcDbBlockBegin
  2
*Paper_Space
 70
     0
 10
0.0
 20
0.0
 30
0.0
  3
*Paper_Space
  1

  0
ENDBLK
  5
D5
330
D2
100
AcDbEntity
 67
     1
  8
0
100
AcDbBlockEnd
  0
BLOCK
  5
D8
330
D6
100
AcDbEntity
 67
     1
  8
0
100
AcDbBlockBegin
  2
*Paper_Space0
 70
     0
 10
0.0
 20
0.0
 30
0.0
  3
*Paper_Space0
  1

  0
ENDBLK
  5
D9
330
D6
100
AcDbEntity
 67
     1
  8
0
100
AcDbBlockEnd
  0
BLOCK
  5
1C3
330
1C2
100
AcDbEntity
  8
0
100
AcDbBlockBegin
  2
ASOWDBLK
 70
     0
 10
0.0
 20
0.0
 30
0.0
  3
ASOWDBLK
  1
ASOWDBLK
  0
ARC
  5
1C4
330
1C2
100
AcDbEntity
  8
0
  6
Continuous
 62
     0
100
AcDbCircle
 10
0.0
 20
0.25
 30
0.0
 40
0.25
100
AcDbArc
 50
270.0000011238745
 51
36.86989141244799
  0
ARC
  5
1C5
330
1C2
100
AcDbEntity
  8
0
  6
Continuous
 62
     0
100
AcDbCircle
 10
0.25
 20
0.75
 30
0.0
 40
0.25
100
AcDbArc
 50
323.1300909874582
 51
216.8699112602908
  0
LINE
  5
1C6
330
1C2
100
AcDbEntity
  8
0
  6
Continuous
 62
     0
100
AcDbLine
 10
0.05
 20
0.6
 30
0.0
 11
0.2
 21
0.4
 31
0.0
  0
ARC
  5
1C7
330
1C2
100
AcDbEntity
  8
0
  6
Continuous
 62
     0
100
AcDbCircle
 10
0.5
 20
0.25
 30
0.0
 40
0.25
100
AcDbArc
 50
143.1301284353948
 51
270.0000011238745
  0
LINE
  5
1C8
330
1C2
100
AcDbEntity
  8
0
  6
Continuous
 62
     0
100
AcDbLine
 10
0.45
 20
0.6
 30
0.0
 11
0.3
 21
0.4
 31
0.0
  0
ENDBLK
  5
1C9
330
1C2
100
AcDbEntity
  8
0
100
AcDbBlockEnd
  0
BLOCK
  5
95A
330
958
100
AcDbEntity
  8
0
100
AcDbBlockBegin
  2
_DotSmall
 70
     0
 10
0.0
 20
0.0
 30
0.0
  3
_DotSmall
  1

  0
LWPOLYLINE
  5
959
330
958
100
AcDbEntity
  8
0
  6
ByBlock
 62
     0
100
AcDbPolyline
 90
        2
 70
     1
 43
0.5
 10
-0.0625
 20
0.0
 42
1.0
 10
0.0625
 20
0.0
 42
1.0
  0
ENDBLK
  5
95B
330
958
100
AcDbEntity
  8
0
100
AcDbBlockEnd
  0
BLOCK
  5
1EF3
330
1EF2
100
AcDbEntity
  8
0
100
AcDbBlockBegin
  2
_None
 70
     0
 10
0.0
 20
0.0
 30
0.0
  3
_None
  1

  0
ENDBLK
  5
1EF4
330
1EF2
100
AcDbEntity
  8
0
100
AcDbBlockEnd
  0
BLOCK
  5
203F
330
203E
100
AcDbEntity
  8
0
100
AcDbBlockBegin
  2
*X4
 70
     1
 10
0.0
 20
0.0
 30
0.0
  3
*X4
  1
ASOWDBLK
  0
LINE
  5
2040
330
203E
100
AcDbEntity
  8
0
 62
     0
100
AcDbLine
 10
11.99304811965889
 20
9.120426821088543
 30
0.0
 11
12.03304811965889
 21
9.16042682108854
 31
0.0
  0
LINE
  5
2041
330
203E
100
AcDbEntity
  8
0
 62
     0
100
AcDbLine
 10
11.94885394583473
 20
9.120426821088543
 30
0.0
 11
11.98885394583473
 21
9.16042682108854
 31
0.0
  0
LINE
  5
2042
330
203E
100
AcDbEntity
  8
0
 62
     0
100
AcDbLine
 10
11.90465977201057
 20
9.120426821088543
 30
0.0
 11
11.94465977201057
 21
9.16042682108854
 31
0.0
  0
LINE
  5
2043
330
203E
100
AcDbEntity
  8
0
 62
     0
100
AcDbLine
 10
11.86046559818641
 20
9.120426821088543
 30
0.0
 11
11.90046559818641
 21
9.16042682108854
 31
0.0
  0
LINE
  5
2044
330
203E
100
AcDbEntity
  8
0
 62
     0
100
AcDbLine
 10
11.81627142436225
 20
9.120426821088543
 30
0.0
 11
11.85627142436225
 21
9.16042682108854
 31
0.0
  0
LINE
  5
2045
330
203E
100
AcDbEntity
  8
0
 62
     0
100
AcDbLine
 10
11.77207725053809
 20
9.120426821088543
 30
0.0
 11
11.81207725053809
 21
9.16042682108854
 31
0.0
  0
LINE
  5
2046
330
203E
100
AcDbEntity
  8
0
 62
     0
100
AcDbLine
 10
11.72788307671393
 20
9.120426821088543
 30
0.0
 11
11.76788307671393
 21
9.16042682108854
 31
0.0
  0
LINE
  5
2047
330
203E
100
AcDbEntity
  8
0
 62
     0
100
AcDbLine
 10
11.68368890288977
 20
9.120426821088543
 30
0.0
 11
11.72368890288977
 21
9.16042682108854
 31
0.0
  0
LINE
  5
2048
330
203E
100
AcDbEntity
  8
0
 62
     0
100
AcDbLine
 10
11.63949472906562
 20
9.120426821088543
 30
0.0
 11
11.67949472906562
 21
9.16042682108854
 31
0.0
  0
LINE
  5
2049
330
203E
100
AcDbEntity
  8
0
 62
     0
100
AcDbLine
 10
11.59530055524146
 20
9.120426821088543
 30
0.0
 11
11.63530055524145
 21
9.16042682108854
 31
0.0
  0
LINE
  5
204A
330
203E
100
AcDbEntity
  8
0
 62
     0
100
AcDbLine
 10
11.5511063814173
 20
9.120426821088543
 30
0.0
 11
11.59110638141729
 21
9.16042682108854
 31
0.0
  0
LINE
  5
204B
330
203E
100
AcDbEntity
  8
0
 62
     0
100
AcDbLine
 10
11.50691220759314
 20
9.120426821088543
 30
0.0
 11
11.54691220759314
 21
9.16042682108854
 31
0.0
  0
LINE
  5
204C
330
203E
100
AcDbEntity
  8
0
 62
     0
100
AcDbLine
 10
11.46271803376898
 20
9.120426821088543
 30
0.0
 11
11.50271803376898
 21
9.16042682108854
 31
0.0
  0
LINE
  5
204D
330
203E
100
AcDbEntity
  8
0
 62
     0
100
AcDbLine
 10
11.41852385994482
 20
9.120426821088543
 30
0.0
 11
11.45852385994482
 21
9.16042682108854
 31
0.0
  0
LINE
  5
204E
330
203E
100
AcDbEntity
  8
0
 62
     0
100
AcDbLine
 10
11.39401831761913
 20
9.140115452587011
 30
0.0
 11
11.41432968612066
 21
9.16042682108854
 31
0.0
  0
LINE
  5
204F
330
203E
100
AcDbEntity
  8
0
 62
     0
100
AcDbLine
 10
12.03724229348305
 20
9.120426821088543
 30
0.0
 11
12.07724229348305
 21
9.16042682108854
 31
0.0
  0
LINE
  5
2050
330
203E
100
AcDbEntity
  8
0
 62
     0
100
AcDbLine
 10
12.08143646730721
 20
9.120426821088543
 30
0.0
 11
12.12143646730721
 21
9.16042682108854
 31
0.0
  0
LINE
  5
2051
330
203E
100
AcDbEntity
  8
0
 62
     0
100
AcDbLine
 10
12.12563064113137
 20
9.120426821088543
 30
0.0
 11
12.16563064113137
 21
9.16042682108854
 31
0.0
  0
LINE
  5
2052
330
203E
100
AcDbEntity
  8
0
 62
     0
100
AcDbLine
 10
12.16982481495553
 20
9.120426821088543
 30
0.0
 11
12.20982481495552
 21
9.16042682108854
 31
0.0
  0
LINE
  5
2053
330
203E
100
AcDbEntity
  8
0
 62
     0
100
AcDbLine
 10
12.21401898877969
 20
9.120426821088543
 30
0.0
 11
12.25401898877968
 21
9.16042682108854
 31
0.0
  0
LINE
  5
2054
330
203E
100
AcDbEntity
  8
0
 62
     0
100
AcDbLine
 10
12.25821316260385
 20
9.120426821088543
 30
0.0
 11
12.29821316260384
 21
9.16042682108854
 31
0.0
  0
LINE
  5
2055
330
203E
100
AcDbEntity
  8
0
 62
     0
100
AcDbLine
 10
12.302407336428
 20
9.120426821088543
 30
0.0
 11
12.342407336428
 21
9.16042682108854
 31
0.0
  0
LINE
  5
2056
330
203E
100
AcDbEntity
  8
0
 62
     0
100
AcDbLine
 10
12.34660151025216
 20
9.120426821088543
 30
0.0
 11
12.38660151025216
 21
9.16042682108854
 31
0.0
  0
LINE
  5
2057
330
203E
100
AcDbEntity
  8
0
 62
     0
100
AcDbLine
 10
12.39079568407632
 20
9.120426821088543
 30
0.0
 11
12.43079568407632
 21
9.16042682108854
 31
0.0
  0
LINE
  5
2058
330
203E
100
AcDbEntity
  8
0
 62
     0
100
AcDbLine
 10
12.43498985790048
 20
9.120426821088543
 30
0.0
 11
12.47498985790048
 21
9.16042682108854
 31
0.0
  0
LINE
  5
2059
330
203E
100
AcDbEntity
  8
0
 62
     0
100
AcDbLine
 10
12.47918403172464
 20
9.120426821088543
 30
0.0
 11
12.51918403172464
 21
9.16042682108854
 31
0.0
  0
LINE
  5
205A
330
203E
100
AcDbEntity
  8
0
 62
     0
100
AcDbLine
 10
12.5233782055488
 20
9.120426821088543
 30
0.0
 11
12.5633782055488
 21
9.16042682108854
 31
0.0
  0
LINE
  5
205B
330
203E
100
AcDbEntity
  8
0
 62
     0
100
AcDbLine
 10
12.56757237937296
 20
9.120426821088543
 30
0.0
 11
12.60757237937296
 21
9.16042682108854
 31
0.0
  0
LINE
  5
205C
330
203E
100
AcDbEntity
  8
0
 62
     0
100
AcDbLine
 10
12.61176655319712
 20
9.120426821088543
 30
0.0
 11
12.65176655319712
 21
9.16042682108854
 31
0.0
  0
LINE
  5
205D
330
203E
100
AcDbEntity
  8
0
 62
     0
100
AcDbLine
 10
12.65596072702128
 20
9.120426821088543
 30
0.0
 11
12.68399674713724
 21
9.1484628412045
 31
0.0
  0
LINE
  5
205E
330
203E
100
AcDbEntity
  8
0
 62
     0
100
AcDbLine
 10
12.04858244068372
 20
9.120426821088543
 30
0.0
 11
12.00858244068372
 21
9.16042682108854
 31
0.0
  0
LINE
  5
205F
330
203E
100
AcDbEntity
  8
0
 62
     0
100
AcDbLine
 10
12.00438826685956
 20
9.120426821088543
 30
0.0
 11
11.96438826685956
 21
9.16042682108854
 31
0.0
  0
LINE
  5
2060
330
203E
100
AcDbEntity
  8
0
 62
     0
100
AcDbLine
 10
11.9601940930354
 20
9.120426821088543
 30
0.0
 11
11.9201940930354
 21
9.16042682108854
 31
0.0
  0
LINE
  5
2061
330
203E
100
AcDbEntity
  8
0
 62
     0
100
AcDbLine
 10
11.91599991921124
 20
9.120426821088543
 30
0.0
 11
11.87599991921124
 21
9.16042682108854
 31
0.0
  0
LINE
  5
2062
330
203E
100
AcDbEntity
  8
0
 62
     0
100
AcDbLine
 10
11.87180574538708
 20
9.120426821088543
 30
0.0
 11
11.83180574538708
 21
9.16042682108854
 31
0.0
  0
LINE
  5
2063
330
203E
100
AcDbEntity
  8
0
 62
     0
100
AcDbLine
 10
11.82761157156292
 20
9.120426821088543
 30
0.0
 11
11.78761157156293
 21
9.16042682108854
 31
0.0
  0
LINE
  5
2064
330
203E
100
AcDbEntity
  8
0
 62
     0
100
AcDbLine
 10
11.78341739773876
 20
9.120426821088543
 30
0.0
 11
11.74341739773877
 21
9.16042682108854
 31
0.0
  0
LINE
  5
2065
330
203E
100
AcDbEntity
  8
0
 62
     0
100
AcDbLine
 10
11.7392232239146
 20
9.120426821088543
 30
0.0
 11
11.69922322391461
 21
9.16042682108854
 31
0.0
  0
LINE
  5
2066
330
203E
100
AcDbEntity
  8
0
 62
     0
100
AcDbLine
 10
11.69502905009045
 20
9.120426821088543
 30
0.0
 11
11.65502905009045
 21
9.16042682108854
 31
0.0
  0
LINE
  5
2067
330
203E
100
AcDbEntity
  8
0
 62
     0
100
AcDbLine
 10
11.65083487626629
 20
9.120426821088543
 30
0.0
 11
11.61083487626629
 21
9.16042682108854
 31
0.0
  0
LINE
  5
2068
330
203E
100
AcDbEntity
  8
0
 62
     0
100
AcDbLine
 10
11.60664070244213
 20
9.120426821088543
 30
0.0
 11
11.56664070244213
 21
9.16042682108854
 31
0.0
  0
LINE
  5
2069
330
203E
100
AcDbEntity
  8
0
 62
     0
100
AcDbLine
 10
11.56244652861797
 20
9.120426821088543
 30
0.0
 11
11.52244652861797
 21
9.16042682108854
 31
0.0
  0
LINE
  5
206A
330
203E
100
AcDbEntity
  8
0
 62
     0
100
AcDbLine
 10
11.51825235479381
 20
9.120426821088543
 30
0.0
 11
11.47825235479381
 21
9.16042682108854
 31
0.0
  0
LINE
  5
206B
330
203E
100
AcDbEntity
  8
0
 62
     0
100
AcDbLine
 10
11.47405818096965
 20
9.120426821088543
 30
0.0
 11
11.43405818096965
 21
9.16042682108854
 31
0.0
  0
LINE
  5
206C
330
203E
100
AcDbEntity
  8
0
 62
     0
100
AcDbLine
 10
11.42986400714549
 20
9.120426821088543
 30
0.0
 11
11.39401831761913
 21
9.156272510614906
 31
0.0
  0
LINE
  5
206D
330
203E
100
AcDbEntity
  8
0
 62
     0
100
AcDbLine
 10
12.09277661450788
 20
9.120426821088543
 30
0.0
 11
12.05277661450788
 21
9.16042682108854
 31
0.0
  0
LINE
  5
206E
330
203E
100
AcDbEntity
  8
0
 62
     0
100
AcDbLine
 10
12.13697078833203
 20
9.120426821088543
 30
0.0
 11
12.09697078833204
 21
9.16042682108854
 31
0.0
  0
LINE
  5
206F
330
203E
100
AcDbEntity
  8
0
 62
     0
100
AcDbLine
 10
12.1811649621562
 20
9.120426821088543
 30
0.0
 11
12.1411649621562
 21
9.16042682108854
 31
0.0
  0
LINE
  5
2070
330
203E
100
AcDbEntity
  8
0
 62
     0
100
AcDbLine
 10
12.22535913598036
 20
9.120426821088543
 30
0.0
 11
12.18535913598036
 21
9.16042682108854
 31
0.0
  0
LINE
  5
2071
330
203E
100
AcDbEntity
  8
0
 62
     0
100
AcDbLine
 10
12.26955330980451
 20
9.120426821088543
 30
0.0
 11
12.22955330980451
 21
9.16042682108854
 31
0.0
  0
LINE
  5
2072
330
203E
100
AcDbEntity
  8
0
 62
     0
100
AcDbLine
 10
12.31374748362867
 20
9.120426821088543
 30
0.0
 11
12.27374748362868
 21
9.16042682108854
 31
0.0
  0
LINE
  5
2073
330
203E
100
AcDbEntity
  8
0
 62
     0
100
AcDbLine
 10
12.35794165745283
 20
9.120426821088543
 30
0.0
 11
12.31794165745283
 21
9.16042682108854
 31
0.0
  0
LINE
  5
2074
330
203E
100
AcDbEntity
  8
0
 62
     0
100
AcDbLine
 10
12.40213583127699
 20
9.120426821088543
 30
0.0
 11
12.36213583127699
 21
9.16042682108854
 31
0.0
  0
LINE
  5
2075
330
203E
100
AcDbEntity
  8
0
 62
     0
100
AcDbLine
 10
12.44633000510115
 20
9.120426821088543
 30
0.0
 11
12.40633000510115
 21
9.16042682108854
 31
0.0
  0
LINE
  5
2076
330
203E
100
AcDbEntity
  8
0
 62
     0
100
AcDbLine
 10
12.49052417892531
 20
9.120426821088543
 30
0.0
 11
12.45052417892531
 21
9.16042682108854
 31
0.0
  0
LINE
  5
2077
330
203E
100
AcDbEntity
  8
0
 62
     0
100
AcDbLine
 10
12.53471835274947
 20
9.120426821088543
 30
0.0
 11
12.49471835274947
 21
9.16042682108854
 31
0.0
  0
LINE
  5
2078
330
203E
100
AcDbEntity
  8
0
 62
     0
100
AcDbLine
 10
12.57891252657363
 20
9.120426821088543
 30
0.0
 11
12.53891252657363
 21
9.16042682108854
 31
0.0
  0
LINE
  5
2079
330
203E
100
AcDbEntity
  8
0
 62
     0
100
AcDbLine
 10
12.62310670039779
 20
9.120426821088543
 30
0.0
 11
12.58310670039779
 21
9.16042682108854
 31
0.0
  0
LINE
  5
207A
330
203E
100
AcDbEntity
  8
0
 62
     0
100
AcDbLine
 10
12.66730087422195
 20
9.120426821088543
 30
0.0
 11
12.62730087422195
 21
9.16042682108854
 31
0.0
  0
LINE
  5
207B
330
203E
100
AcDbEntity
  8
0
 62
     0
100
AcDbLine
 10
12.68399674713724
 20
9.147925121997415
 30
0.0
 11
12.67149504804611
 21
9.16042682108854
 31
0.0
  0
ENDBLK
  5
207C
330
203E
100
AcDbEntity
  8
0
100
AcDbBlockEnd
  0
BLOCK
  5
209F
330
209E
100
AcDbEntity
  8
0
100
AcDbBlockBegin
  2
*U5
 70
     1
 10
0.0
 20
0.0
 30
0.0
  3
*U5
  1
*ANON
  0
SOLID
  5
20A0
330
209E
100
AcDbEntity
  8
0
 62
     0
100
AcDbTrace
 10
7.91857274013904
 20
2.701391938321373
 30
0.0
 11
7.972731263906927
 21
2.701391938321373
 31
0.0
 12
7.972731263906926
 22
2.711391938321373
 32
0.0
 13
7.972731263906926
 23
2.711391938321373
 33
0.0
  0
SOLID
  5
20A1
330
209E
100
AcDbEntity
  8
0
 62
     0
100
AcDbTrace
 10
7.91857274013904
 20
2.701391938321373
 30
0.0
 11
7.972731263906926
 21
2.711391938321373
 31
0.0
 12
7.91857274013904
 22
2.711391938321373
 32
0.0
 13
7.91857274013904
 23
2.711391938321373
 33
0.0
  0
ENDBLK
  5
20A2
330
209E
100
AcDbEntity
  8
0
100
AcDbBlockEnd
  0
BLOCK
  5
20A9
330
20A8
100
AcDbEntity
  8
0
100
AcDbBlockBegin
  2
*U6
 70
     1
 10
0.0
 20
0.0
 30
0.0
  3
*U6
  1
*ANON
  0
SOLID
  5
20AA
330
20A8
100
AcDbEntity
  8
0
 62
     0
100
AcDbTrace
 10
9.736510007084646
 20
7.1547865458243
 30
0.0
 11
9.790668530852533
 21
7.1547865458243
 31
0.0
 12
9.790668530852531
 22
7.1647865458243
 32
0.0
 13
9.790668530852531
 23
7.1647865458243
 33
0.0
  0
SOLID
  5
20AB
330
20A8
100
AcDbEntity
  8
0
 62
     0
100
AcDbTrace
 10
9.736510007084646
 20
7.1547865458243
 30
0.0
 11
9.790668530852531
 21
7.1647865458243
 31
0.0
 12
9.736510007084646
 22
7.1647865458243
 32
0.0
 13
9.736510007084646
 23
7.1647865458243
 33
0.0
  0
ENDBLK
  5
20AC
330
20A8
100
AcDbEntity
  8
0
100
AcDbBlockEnd
  0
BLOCK
  5
212D
330
212C
100
AcDbEntity
  8
0
100
AcDbBlockBegin
  2
*U7
 70
     1
 10
0.0
 20
0.0
 30
0.0
  3
*U7
  1
*ANON
  0
ARC
  5
212E
330
212C
100
AcDbEntity
  8
0
  6
ByBlock
 62
     0
100
AcDbCircle
 10
4.194633358910301
 20
13.69432648097586
 30
0.0
 40
0.0173333333333333
100
AcDbArc
 50
191.0874892095528
 51
230.2848627633511
  0
ARC
  5
212F
330
212C
100
AcDbEntity
  8
0
  6
ByBlock
 62
     0
100
AcDbCircle
 10
4.194633358910301
 20
13.69432648097586
 30
0.0
 40
0.0453333333333333
100
AcDbArc
 50
184.2167304787711
 51
197.1046351764481
  0
ARC
  5
2130
330
212C
100
AcDbEntity
  8
0
  6
ByBlock
 62
     0
100
AcDbCircle
 10
4.194633358910301
 20
13.69432648097586
 30
0.0
 40
0.0733333333333333
100
AcDbArc
 50
182.6052512650395
 51
190.4756816963495
  0
ARC
  5
2131
330
212C
100
AcDbEntity
  8
0
  6
ByBlock
 62
     0
100
AcDbCircle
 10
4.194633358910301
 20
13.69432648097586
 30
0.0
 40
0.1013333333333332
100
AcDbArc
 50
181.8850696544342
 51
187.5608431766512
  0
ARC
  5
2132
330
212C
100
AcDbEntity
  8
0
  6
ByBlock
 62
     0
100
AcDbCircle
 10
4.194633358910301
 20
13.69432648097586
 30
0.0
 40
0.1293333333333333
100
AcDbArc
 50
181.4768588815162
 51
185.9172947517723
  0
ARC
  5
2133
330
212C
100
AcDbEntity
  8
0
  6
ByBlock
 62
     0
100
AcDbCircle
 10
4.194633358910301
 20
13.69432648097586
 30
0.0
 40
0.1573333333333333
100
AcDbArc
 50
181.2139844645462
 51
184.8614053957918
  0
ARC
  5
2134
330
212C
100
AcDbEntity
  8
0
  6
ByBlock
 62
     0
100
AcDbCircle
 10
4.194633358910301
 20
13.69432648097586
 30
0.0
 40
0.1853333333333333
100
AcDbArc
 50
181.0305551976697
 51
184.125562548545
  0
ENDBLK
  5
2135
330
212C
100
AcDbEntity
  8
0
100
AcDbBlockEnd
  0
BLOCK
  5
234E
330
2340
100
AcDbEntity
  8
0
100
AcDbBlockBegin
  2
SOLBET_Bloczek_Ideal_420x240x590_P+W_PRA
 70
     2
 10
0.0
 20
0.0
 30
0.0
  3
SOLBET_Bloczek_Ideal_420x240x590_P+W_PRA
  1

  0
ATTDEF
  5
2341
330
2340
100
AcDbEntity
  8
SOLBET_Wymiary_Opisy
100
AcDbText
 10
-0.0000000703746536
 20
6.303237281370451
 30
0.0
 40
0.9913121336814832
  1
420x240x590
  7
Solbet_1
100
AcDbAttributeDefinition
  3

  2
WYMIARY
 70
     3
1001
AcDbAttr
1070
     0
1070
     1
  0
ATTDEF
  5
2342
330
2340
100
AcDbEntity
  8
SOLBET_Wymiary_Opisy
100
AcDbText
 10
-0.0000000703746536
 20
4.790717873654354
 30
0.0
 40
0.9913121336814832
  1
400
  7
Solbet_1
100
AcDbAttributeDefinition
  3

  2
KLASA_GĘSTOŚCI
 70
     9
1001
AcDbAttr
1070
     0
1070
     1
  0
ATTDEF
  5
2343
330
2340
100
AcDbEntity
  8
SOLBET_Wymiary_Opisy
100
AcDbText
 10
-0.0000000703746536
 20
3.269569038442127
 30
0.0
 40
0.9913121336814832
  1
Pióra+Wpusty
  7
Solbet_1
100
AcDbAttributeDefinition
  3

  2
PROFILOWANIE
 70
     3
1001
AcDbAttr
1070
     0
1070
     1
  0
ATTDEF
  5
2344
330
2340
100
AcDbEntity
  8
SOLBET_Wymiary_Opisy
100
AcDbText
 10
-0.0000000703746536
 20
0.2448646291013483
 30
0.0
 40
0.9913121336814832
  1
SOLBET
  7
Solbet_1
100
AcDbAttributeDefinition
  3

  2
FIRMA
 70
     3
1001
AcDbAttr
1070
     0
1070
     1
  0
ATTDEF
  5
2345
330
2340
100
AcDbEntity
  8
SOLBET_Wymiary_Opisy
100
AcDbText
 10
-0.0000000703746536
 20
9.333547279718283
 30
0.0
 40
0.9913121336814832
  1
Bloczek
  7
Solbet_1
100
AcDbAttributeDefinition
  3
Nazwa
  2
NAZWA
 70
     3
1001
AcDbAttr
1070
     0
1070
     1
  0
ATTDEF
  5
2346
330
2340
100
AcDbEntity
  8
SOLBET_Wymiary_Opisy
100
AcDbText
 10
-0.0000000703746536
 20
7.794499099484078
 30
0.0
 40
0.9913121336814832
  1
SOLBET IDEAL
  7
Solbet_1
100
AcDbAttributeDefinition
  3

  2
SYSTEM
 70
     3
1001
AcDbAttr
1070
     0
1070
     1
  0
ATTDEF
  5
2347
330
2340
100
AcDbEntity
  8
SOLBET_Wymiary_Opisy
100
AcDbText
 10
-0.0000000703746536
 20
1.74418138862846
 30
0.0
 40
0.9913121336814832
  1
Prawo
  7
Solbet_1
100
AcDbAttributeDefinition
  3

  2
WIDOK
 70
    11
1001
AcDbAttr
1070
     0
1070
     1
  0
LINE
  5
2348
330
2340
100
AcDbEntity
  8
SOLBET_Bloczki
100
AcDbLine
 10
21.00000014074931
 20
12.00000020414847
 30
0.0
 11
21.00000014074931
 21
0.000000204148364
 31
0.0
  0
LINE
  5
2349
330
2340
100
AcDbEntity
  8
SOLBET_Bloczki
100
AcDbLine
 10
21.00000014074931
 20
12.00000020414847
 30
0.0
 11
0.0000001407493072
 21
12.00000020414847
 31
0.0
  0
LINE
  5
234A
330
2340
100
AcDbEntity
  8
SOLBET_Bloczki
100
AcDbLine
 10
0.0000001407493072
 20
12.00000020414847
 30
0.0
 11
0.0000001407493072
 21
0.000000204148364
 31
0.0
  0
LINE
  5
234B
330
2340
100
AcDbEntity
  8
SOLBET_Bloczki
100
AcDbLine
 10
0.0000001407493072
 20
0.000000204148364
 30
0.0
 11
21.00000014074931
 21
0.000000204148364
 31
0.0
  0
ENDBLK
  5
234F
330
2340
100
AcDbEntity
  8
0
100
AcDbBlockEnd
  0
BLOCK
  5
2363
330
2353
100
AcDbEntity
  8
0
100
AcDbBlockBegin
  2
SOLBET_Ksztaltka_U_420x240x500_PRA
 70
     2
 10
0.0
 20
0.0
 30
0.0
  3
SOLBET_Ksztaltka_U_420x240x500_PRA
  1

  0
ATTDEF
  5
2354
330
2353
100
AcDbEntity
  8
SOLBET_Wymiary_Opisy
100
AcDbText
 10
-0.0000000476806008
 20
4.790718044940628
 30
0.0
 40
0.9913121336814832
  1
420x240x500
  7
Solbet_1
100
AcDbAttributeDefinition
  3

  2
WYMIARY
 70
     3
1001
AcDbAttr
1070
     0
1070
     1
  0
ATTDEF
  5
2355
330
2353
100
AcDbEntity
  8
SOLBET_Wymiary_Opisy
100
AcDbText
 10
-0.0000000476806008
 20
3.27819863722453
 30
0.0
 40
0.9913121336814832
  1
400
  7
Solbet_1
100
AcDbAttributeDefinition
  3

  2
KLASA_GĘSTOŚCI
 70
     3
1001
AcDbAttr
1070
     0
1070
     1
  0
ATTDEF
  5
2356
330
2353
100
AcDbEntity
  8
SOLBET_Wymiary_Opisy
100
AcDbText
 10
-0.0000000476806008
 20
0.2448648003876223
 30
0.0
 40
0.9913121336814832
  1
SOLBET
  7
Solbet_1
100
AcDbAttributeDefinition
  3

  2
FIRMA
 70
     3
1001
AcDbAttr
1070
     0
1070
     1
  0
ATTDEF
  5
2357
330
2353
100
AcDbEntity
  8
SOLBET_Wymiary_Opisy
100
AcDbText
 10
-0.0000000476806008
 20
6.347422594011662
 30
0.0
 40
0.9913121336814832
  1
Kształtka U
  7
Solbet_1
100
AcDbAttributeDefinition
  3
Nazwa
  2
NAZWA
 70
     3
1001
AcDbAttr
1070
     0
1070
     1
  0
ATTDEF
  5
2358
330
2353
100
AcDbEntity
  8
SOLBET_Wymiary_Opisy
100
AcDbText
 10
-0.0000000476806008
 20
1.744181559914735
 30
0.0
 40
0.9913121336814832
  1
Prawo
  7
Solbet_1
100
AcDbAttributeDefinition
  3

  2
WIDOK
 70
    11
1001
AcDbAttr
1070
     0
1070
     1
  0
LINE
  5
2359
330
2353
100
AcDbEntity
  8
SOLBET_Bloczki
100
AcDbLine
 10
0.0000011705760737
 20
20.99999992050084
 30
0.0
 11
12.00000117057607
 21
20.99999992050084
 31
0.0
  0
LINE
  5
235A
330
2353
100
AcDbEntity
  8
SOLBET_Bloczki
100
AcDbLine
 10
12.00000117057607
 20
20.99999992050084
 30
0.0
 11
12.00000117057607
 21
-0.0000000794991628
 31
0.0
  0
LINE
  5
235B
330
2353
100
AcDbEntity
  8
SOLBET_Bloczki
100
AcDbLine
 10
12.00000117057607
 20
-0.0000000794991628
 30
0.0
 11
0.0000011705760699
 21
-0.0000000794991593
 31
0.0
  0
LINE
  5
235C
330
2353
100
AcDbEntity
  8
SOLBET_Bloczki
100
AcDbLine
 10
0.0000011705760699
 20
-0.0000000794991593
 30
0.0
 11
0.0000011705760706
 21
3.99999992050084
 31
0.0
  0
LINE
  5
235D
330
2353
100
AcDbEntity
  8
SOLBET_Bloczki
100
AcDbLine
 10
0.0000011705760737
 20
20.99999992050084
 30
0.0
 11
0.000001170576073
 21
16.99999992050084
 31
0.0
  0
LINE
  5
235E
330
2353
100
AcDbEntity
  8
SOLBET_Bloczki
100
AcDbLine
 10
8.000001170576073
 20
16.99999992050084
 30
0.0
 11
8.000001170576069
 21
3.99999992050084
 31
0.0
  0
LINE
  5
235F
330
2353
100
AcDbEntity
  8
SOLBET_Bloczki
100
AcDbLine
 10
0.000001170576073
 20
16.99999992050084
 30
0.0
 11
8.000001170576073
 21
16.99999992050084
 31
0.0
  0
LINE
  5
2360
330
2353
100
AcDbEntity
  8
SOLBET_Bloczki
100
AcDbLine
 10
0.0000011705760706
 20
3.99999992050084
 30
0.0
 11
8.000001170576069
 21
3.99999992050084
 31
0.0
  0
ENDBLK
  5
2364
330
2353
100
AcDbEntity
  8
0
100
AcDbBlockEnd
  0
BLOCK
  5
2A78
330
2A68
100
AcDbEntity
  8
0
100
AcDbBlockBegin
  2
SOLBET_Ksztaltka_U_420x240x500_KG400_PRA
 70
     2
 10
0.0
 20
0.0
 30
0.0
  3
SOLBET_Ksztaltka_U_420x240x500_KG400_PRA
  1

  0
ATTDEF
  5
2A69
330
2A68
100
AcDbEntity
  8
SOLBET_Wymiary_Opisy
100
AcDbText
 10
-0.0000000476806008
 20
4.790718044940628
 30
0.0
 40
0.9913121336814832
  1
420x240x500
  7
Solbet_1
100
AcDbAttributeDefinition
  3

  2
WYMIARY
 70
    11
1001
AcDbAttr
1070
     0
1070
     1
  0
ATTDEF
  5
2A6A
330
2A68
100
AcDbEntity
  8
SOLBET_Wymiary_Opisy
100
AcDbText
 10
-0.0000000476806008
 20
3.27819863722453
 30
0.0
 40
0.9913121336814832
  1
400
  7
Solbet_1
100
AcDbAttributeDefinition
  3

  2
KLASA_GĘSTOŚCI
 70
    11
1001
AcDbAttr
1070
     0
1070
     1
  0
ATTDEF
  5
2A6B
330
2A68
100
AcDbEntity
  8
SOLBET_Wymiary_Opisy
100
AcDbText
 10
-0.0000000476806008
 20
0.2448648003876223
 30
0.0
 40
0.9913121336814832
  1
SOLBET
  7
Solbet_1
100
AcDbAttributeDefinition
  3

  2
FIRMA
 70
    11
1001
AcDbAttr
1070
     0
1070
     1
  0
ATTDEF
  5
2A6C
330
2A68
100
AcDbEntity
  8
SOLBET_Wymiary_Opisy
100
AcDbText
 10
-0.0000000476806008
 20
6.347422594011662
 30
0.0
 40
0.9913121336814832
  1
Kształtka U
  7
Solbet_1
100
AcDbAttributeDefinition
  3
Nazwa
  2
NAZWA
 70
    11
1001
AcDbAttr
1070
     0
1070
     1
  0
ATTDEF
  5
2A6D
330
2A68
100
AcDbEntity
  8
SOLBET_Wymiary_Opisy
100
AcDbText
 10
-0.0000000476806008
 20
1.744181559914735
 30
0.0
 40
0.9913121336814832
  1
Prawo
  7
Solbet_1
100
AcDbAttributeDefinition
  3

  2
WIDOK
 70
    11
1001
AcDbAttr
1070
     0
1070
     1
  0
LINE
  5
2A6E
330
2A68
100
AcDbEntity
  8
SOLBET_Bloczki
100
AcDbLine
 10
0.0000011705760737
 20
20.99999992050084
 30
0.0
 11
12.00000117057607
 21
20.99999992050084
 31
0.0
  0
LINE
  5
2A6F
330
2A68
100
AcDbEntity
  8
SOLBET_Bloczki
100
AcDbLine
 10
12.00000117057607
 20
20.99999992050084
 30
0.0
 11
12.00000117057607
 21
-0.0000000794991628
 31
0.0
  0
LINE
  5
2A70
330
2A68
100
AcDbEntity
  8
SOLBET_Bloczki
100
AcDbLine
 10
12.00000117057607
 20
-0.0000000794991628
 30
0.0
 11
0.0000011705760699
 21
-0.0000000794991593
 31
0.0
  0
LINE
  5
2A71
330
2A68
100
AcDbEntity
  8
SOLBET_Bloczki
100
AcDbLine
 10
0.0000011705760699
 20
-0.0000000794991593
 30
0.0
 11
0.0000011705760706
 21
3.99999992050084
 31
0.0
  0
LINE
  5
2A72
330
2A68
100
AcDbEntity
  8
SOLBET_Bloczki
100
AcDbLine
 10
0.0000011705760737
 20
20.99999992050084
 30
0.0
 11
0.000001170576073
 21
16.99999992050084
 31
0.0
  0
LINE
  5
2A73
330
2A68
100
AcDbEntity
  8
SOLBET_Bloczki
100
AcDbLine
 10
8.000001170576073
 20
16.99999992050084
 30
0.0
 11
8.000001170576069
 21
3.99999992050084
 31
0.0
  0
LINE
  5
2A74
330
2A68
100
AcDbEntity
  8
SOLBET_Bloczki
100
AcDbLine
 10
0.000001170576073
 20
16.99999992050084
 30
0.0
 11
8.000001170576073
 21
16.99999992050084
 31
0.0
  0
LINE
  5
2A75
330
2A68
100
AcDbEntity
  8
SOLBET_Bloczki
100
AcDbLine
 10
0.0000011705760706
 20
3.99999992050084
 30
0.0
 11
8.000001170576069
 21
3.99999992050084
 31
0.0
  0
ENDBLK
  5
2A79
330
2A68
100
AcDbEntity
  8
0
100
AcDbBlockEnd
  0
BLOCK
  5
2AC1
330
2AB3
100
AcDbEntity
  8
0
100
AcDbBlockBegin
  2
SOLBET_Bloczek_Ideal_420x240x590_P+W_KG400_PRA
 70
     2
 10
0.0
 20
0.0
 30
0.0
  3
SOLBET_Bloczek_Ideal_420x240x590_P+W_KG400_PRA
  1

  0
ATTDEF
  5
2AB4
330
2AB3
100
AcDbEntity
  8
SOLBET_Wymiary_Opisy
100
AcDbText
 10
-0.0000000703746536
 20
6.303237281370451
 30
0.0
 40
0.9913121336814832
  1
420x240x590
  7
Solbet_1
100
AcDbAttributeDefinition
  3

  2
WYMIARY
 70
    11
1001
AcDbAttr
1070
     0
1070
     1
  0
ATTDEF
  5
2AB5
330
2AB3
100
AcDbEntity
  8
SOLBET_Wymiary_Opisy
100
AcDbText
 10
-0.0000000703746536
 20
4.790717873654354
 30
0.0
 40
0.9913121336814832
  1
400
  7
Solbet_1
100
AcDbAttributeDefinition
  3

  2
KLASA_GĘSTOŚCI
 70
    11
1001
AcDbAttr
1070
     0
1070
     1
  0
ATTDEF
  5
2AB6
330
2AB3
100
AcDbEntity
  8
SOLBET_Wymiary_Opisy
100
AcDbText
 10
-0.0000000703746536
 20
3.269569038442127
 30
0.0
 40
0.9913121336814832
  1
Pióra+Wpusty
  7
Solbet_1
100
AcDbAttributeDefinition
  3

  2
PROFILOWANIE
 70
    11
1001
AcDbAttr
1070
     0
1070
     1
  0
ATTDEF
  5
2AB7
330
2AB3
100
AcDbEntity
  8
SOLBET_Wymiary_Opisy
100
AcDbText
 10
-0.0000000703746536
 20
0.2448646291013483
 30
0.0
 40
0.9913121336814832
  1
SOLBET
  7
Solbet_1
100
AcDbAttributeDefinition
  3

  2
FIRMA
 70
    11
1001
AcDbAttr
1070
     0
1070
     1
  0
ATTDEF
  5
2AB8
330
2AB3
100
AcDbEntity
  8
SOLBET_Wymiary_Opisy
100
AcDbText
 10
-0.0000000703746536
 20
9.333547279718283
 30
0.0
 40
0.9913121336814832
  1
Bloczek
  7
Solbet_1
100
AcDbAttributeDefinition
  3
Nazwa
  2
NAZWA
 70
    11
1001
AcDbAttr
1070
     0
1070
     1
  0
ATTDEF
  5
2AB9
330
2AB3
100
AcDbEntity
  8
SOLBET_Wymiary_Opisy
100
AcDbText
 10
-0.0000000703746536
 20
7.794499099484078
 30
0.0
 40
0.9913121336814832
  1
SOLBET Ideal
  7
Solbet_1
100
AcDbAttributeDefinition
  3

  2
SYSTEM
 70
    11
1001
AcDbAttr
1070
     0
1070
     1
  0
ATTDEF
  5
2ABA
330
2AB3
100
AcDbEntity
  8
SOLBET_Wymiary_Opisy
100
AcDbText
 10
-0.0000000703746536
 20
1.74418138862846
 30
0.0
 40
0.9913121336814832
  1
Prawo
  7
Solbet_1
100
AcDbAttributeDefinition
  3

  2
WIDOK
 70
    11
1001
AcDbAttr
1070
     0
1070
     1
  0
LINE
  5
2ABB
330
2AB3
100
AcDbEntity
  8
SOLBET_Bloczki
100
AcDbLine
 10
21.00000014074931
 20
12.00000020414847
 30
0.0
 11
21.00000014074931
 21
0.000000204148364
 31
0.0
  0
LINE
  5
2ABC
330
2AB3
100
AcDbEntity
  8
SOLBET_Bloczki
100
AcDbLine
 10
21.00000014074931
 20
12.00000020414847
 30
0.0
 11
0.0000001407493072
 21
12.00000020414847
 31
0.0
  0
LINE
  5
2ABD
330
2AB3
100
AcDbEntity
  8
SOLBET_Bloczki
100
AcDbLine
 10
0.0000001407493072
 20
12.00000020414847
 30
0.0
 11
0.0000001407493072
 21
0.000000204148364
 31
0.0
  0
LINE
  5
2ABE
330
2AB3
100
AcDbEntity
  8
SOLBET_Bloczki
100
AcDbLine
 10
0.0000001407493072
 20
0.000000204148364
 30
0.0
 11
21.00000014074931
 21
0.000000204148364
 31
0.0
  0
ENDBLK
  5
2AC2
330
2AB3
100
AcDbEntity
  8
0
100
AcDbBlockEnd
  0
ENDSEC
  0
SECTION
  2
ENTITIES
  0
LINE
  5
2279
330
1F
100
AcDbEntity
  8
SOLBET_Wymiary_Opisy
100
AcDbLine
 10
149.9123785064648
 20
162.0371288255638
 30
0.0
 11
182.2830572818266
 21
162.0371288255638
 31
0.0
  0
LINE
  5
227A
330
1F
100
AcDbEntity
  8
SOLBET_Zaprawy
100
AcDbLine
 10
155.8541876595559
 20
179.5295381743165
 30
0.0
 11
155.8541876595559
 21
193.7795381743136
 31
0.0
  0
LINE
  5
227B
330
1F
100
AcDbEntity
  8
SOLBET_Tynki_Posadzki
100
AcDbLine
 10
155.3875094660998
 20
162.0371288255638
 30
0.0
 11
155.3875094660882
 21
193.7795381743136
 31
0.0
  0
LINE
  5
2281
330
1F
100
AcDbEntity
  8
SOLBET_Wymiary_Opisy
 62
     1
100
AcDbLine
 10
233.6364309420087
 20
213.4563722109243
 30
0.0
 11
233.6364309420087
 21
188.2769122901251
 31
0.0
  0
LWPOLYLINE
  5
2282
330
1F
100
AcDbEntity
  8
SOLBET_Zbrojenie_Konstrukcja
100
AcDbPolyline
 90
        2
 70
     1
 43
0.3
 10
164.6633989742349
 20
201.9788991771808
 42
1.0
 10
164.9633989742467
 20
201.9788991771808
 42
1.0
  0
LWPOLYLINE
  5
2283
330
1F
100
AcDbEntity
  8
SOLBET_Zbrojenie_Konstrukcja
100
AcDbPolyline
 90
        2
 70
     1
 43
0.3
 10
171.5725536824993
 20
201.9572795020994
 42
1.0
 10
171.8725536824995
 20
201.9572795020994
 42
1.0
  0
LWPOLYLINE
  5
2284
330
1F
100
AcDbEntity
  8
SOLBET_Zbrojenie_Konstrukcja
100
AcDbPolyline
 90
        2
 70
     1
 43
0.3
 10
171.5725536824993
 20
185.0675873182272
 42
1.0
 10
171.8725536824995
 20
185.0675873182272
 42
1.0
  0
LWPOLYLINE
  5
2285
330
1F
100
AcDbEntity
  8
SOLBET_Zbrojenie_Konstrukcja
100
AcDbPolyline
 90
        2
 70
     1
 43
0.3
 10
164.6633989742349
 20
185.0675873182272
 42
1.0
 10
164.9633989742467
 20
185.0675873182272
 42
1.0
  0
LINE
  5
2286
330
1F
100
AcDbEntity
  8
SOLBET_Zbrojenie_Konstrukcja
100
AcDbLine
 10
167.1083190455076
 20
200.8899326643436
 30
0.0
 11
165.694105483135
 21
202.3041462267162
 31
0.0
  0
LINE
  5
2287
330
1F
100
AcDbEntity
  8
SOLBET_Zbrojenie_Konstrukcja
100
AcDbLine
 10
165.9083190455076
 20
199.6899326643436
 30
0.0
 11
164.4941054831351
 21
201.1041462267191
 31
0.0
  0
LWPOLYLINE
  5
2288
330
1F
100
AcDbEntity
  8
SOLBET_Zbrojenie_Konstrukcja
100
AcDbPolyline
 90
        5
 70
     0
 43
0.0
 10
172.014247522291
 20
184.751365917906
 10
172.014247522291
 20
202.3041462267162
 10
164.4941054831351
 20
202.3041462267162
 10
164.4941054831351
 20
184.751365917906
 10
172.014247522291
 20
184.751365917906
  0
ARC
  5
228A
330
1F
100
AcDbEntity
  8
SOLBET_Tynki_Posadzki
100
AcDbCircle
 10
177.6375094660998
 20
209.6528450078704
 30
0.0
 40
1.5000521396288
100
AcDbArc
 50
0.0
 51
90.0
  0
LINE
  5
2294
330
1F
100
AcDbEntity
  8
SOLBET_Tynki_Posadzki
100
AcDbLine
 10
177.6375094660998
 20
209.1528450078704
 30
0.0
 11
177.6375094660998
 21
216.0295381743165
 31
0.0
  0
LINE
  5
2296
330
1F
100
AcDbEntity
  8
SOLBET_Emulsje_Folie
100
AcDbLine
 10
178.2523255157609
 20
209.4028450078704
 30
0.0
 11
178.2523255157609
 21
206.7253774878884
 31
0.0
  0
LINE
  5
2297
330
1F
100
AcDbEntity
  8
SOLBET_Emulsje_Folie
100
AcDbLine
 10
178.5023255157725
 20
206.4753774878884
 30
0.0
 11
233.6364309420087
 21
206.4753774878884
 31
0.0
  0
ARC
  5
2298
330
1F
100
AcDbEntity
  8
SOLBET_Emulsje_Folie
100
AcDbCircle
 10
178.5023255157725
 20
206.7253774878884
 30
0.0
 40
0.25
100
AcDbArc
 50
180.0
 51
270.0
  0
LINE
  5
229A
330
1F
100
AcDbEntity
  8
SOLBET_Tynki_Posadzki
100
AcDbLine
 10
177.6375094660998
 20
191.2795381743165
 30
0.0
 11
177.6375094660998
 21
162.0371288255638
 31
0.0
  0
LINE
  5
229B
330
1F
100
AcDbEntity
  8
SOLBET_Tynki_Posadzki
100
AcDbLine
 10
177.6375094660998
 20
191.2795381743165
 30
0.0
 11
233.6364309420087
 21
191.2795381743165
 31
0.0
  0
LWPOLYLINE
  5
22A2
102
{ACAD_REACTORS
330
23D2
102
}
330
1F
100
AcDbEntity
  8
SOLBET_Zbrojenie_Konstrukcja
100
AcDbPolyline
 90
       16
 70
     1
 43
0.0
 10
173.498413154364
 20
203.9578760723666
 42
-0.0869419154568836
 10
173.4516964084794
 20
203.9334721825576
 42
-0.04426695874853
 10
173.3950881828295
 20
203.9208451618872
 42
-0.0327594189474477
 10
173.3169522800574
 20
203.9157202884288
 42
-0.0327594189473721
 10
173.2388163772736
 20
203.9208451618872
 42
-0.0442669587487512
 10
173.1822081516356
 20
203.9334721825576
 42
-0.0869419154555393
 10
173.1354914057626
 20
203.9578760723666
 42
-0.233077666948955
 10
173.1263953061982
 20
203.9763290461235
 42
-0.2330776669476068
 10
173.1354914057626
 20
203.9947820198833
 42
-0.0869419154571649
 10
173.1822081516356
 20
204.0191859096895
 42
-0.0442669587478621
 10
173.2388163772736
 20
204.0318129303598
 42
-0.032759418947709
 10
173.3169522800574
 20
204.0369378038211
 42
-0.0327594189469762
 10
173.3950881828295
 20
204.0318129303598
 42
-0.0442669587489952
 10
173.4516964084794
 20
204.0191859096895
 42
-0.0869419154555225
 10
173.498413154364
 20
203.9947820198833
 42
-0.2095631734287794
 10
173.5074157961037
 20
203.9784123027372
 42
-0.256839199828224
1001
ASO_SCHRAFF
1005
0
1070
     1
1002
{
1070
     1
1005
0
1002
}
1002
{
1070
     2
1005
0
1002
}
1002
{
1070
     4
1000
SOFIFUELL
1040
1.0
1040
0.0
1070
     0
1000
T__SCHR
1070
   256
1000
_bylayer
1040
50.0
1070
     1
1002
}
  0
LWPOLYLINE
  5
22A4
102
{ACAD_REACTORS
330
23D2
102
}
330
1F
100
AcDbEntity
  8
SOLBET_Zbrojenie_Konstrukcja
100
AcDbPolyline
 90
       16
 70
     1
 43
0.0
 10
162.9759806600141
 20
203.9578760723666
 42
0.0869419154568836
 10
163.0226974058871
 20
203.9334721825576
 42
0.04426695874853
 10
163.0793056315369
 20
203.9208451618872
 42
0.0327594189474477
 10
163.1574415343091
 20
203.9157202884288
 42
0.0327594189473721
 10
163.2355774370928
 20
203.9208451618872
 42
0.0442669587487512
 10
163.2921856627308
 20
203.9334721825576
 42
0.0869419154555393
 10
163.3389024086154
 20
203.9578760723666
 42
0.233077666948955
 10
163.3479985081799
 20
203.9763290461235
 42
0.2330776669476068
 10
163.3389024086154
 20
203.9947820198833
 42
0.0869419154571649
 10
163.2921856627308
 20
204.0191859096895
 42
0.0442669587478621
 10
163.2355774370928
 20
204.0318129303598
 42
0.032759418947709
 10
163.1574415343091
 20
204.0369378038211
 42
0.0327594189469762
 10
163.0793056315369
 20
204.0318129303598
 42
0.0442669587489952
 10
163.0226974058987
 20
204.0191859096895
 42
0.0869419154555225
 10
162.9759806600141
 20
203.9947820198833
 42
0.2095631734287794
 10
162.9669780182744
 20
203.9784123027372
 42
0.256839199828224
1001
ASO_SCHRAFF
1005
0
1070
     1
1002
{
1070
     1
1005
0
1002
}
1002
{
1070
     2
1005
0
1002
}
1002
{
1070
     4
1000
SOFIFUELL
1040
1.0
1040
0.0
1070
     0
1000
T__SCHR
1070
   256
1000
_bylayer
1040
50.0
1070
     1
1002
}
  0
LINE
  5
22A5
330
1F
100
AcDbEntity
  8
SOLBET_Wymiary_Opisy
100
AcDbLine
 10
149.9123785064648
 20
239.628292555769
 30
0.0
 11
182.2830572818266
 21
239.628292555769
 31
0.0
  0
LWPOLYLINE
  5
22A6
330
1F
100
AcDbEntity
  8
SOLBET_Zbrojenie_Konstrukcja
100
AcDbPolyline
 90
        2
 70
     1
 43
0.3
 10
166.9038858565827
 20
185.0675873182272
 42
1.0
 10
167.2038858565827
 20
185.0675873182272
 42
1.0
  0
LWPOLYLINE
  5
22A7
330
1F
100
AcDbEntity
  8
SOLBET_Zbrojenie_Konstrukcja
100
AcDbPolyline
 90
        2
 70
     1
 43
0.3
 10
169.6044671488435
 20
185.0675873182272
 42
-1.0
 10
169.3044671488551
 20
185.0675873182272
 42
-1.0
  0
LINE
  5
22B3
330
1F
100
AcDbEntity
  8
SOLBET_Tynki_Posadzki
100
AcDbLine
 10
177.6375094660998
 20
191.2795381743165
 30
0.0
 11
177.1375094660998
 21
191.7795381743165
 31
0.0
  0
LWPOLYLINE
  5
22B5
330
1F
100
AcDbEntity
  8
SOLBET_Stolarka_Okna
100
AcDbPolyline
 90
        4
 70
     1
 43
0.0
 10
167.7184399925381
 20
224.3033541129694
 10
169.0802457322224
 20
223.9543057371362
 10
169.0802457322224
 20
223.1019499485376
 10
167.7184399925381
 20
223.1019499485376
  0
LWPOLYLINE
  5
22B6
330
1F
100
AcDbEntity
  8
SOLBET_Stolarka_Okna
100
AcDbPolyline
 90
       15
 70
     1
 43
0.0
 10
164.6375094660998
 20
216.2795381743165
 10
168.1375094660998
 20
216.2795381743165
 10
168.1375094660998
 20
219.4058588720038
 10
167.053381135091
 20
219.4058588720038
 10
167.053381135091
 20
220.2779262929248
 10
165.9796597406127
 20
220.2779262929248
 10
165.9796597406127
 20
221.2288045899734
 10
165.6339918163464
 20
221.2288045899734
 10
164.6375094660998
 20
221.0101704446739
 10
164.6375094660998
 20
219.4396081268113
 10
164.174352847014
 20
219.1775429595257
 10
164.174352847014
 20
217.7718468221045
 10
164.4347339125791
 20
217.7718468221045
 10
164.4347339125791
 20
218.2924139513309
 10
164.6375094660998
 20
218.2924139513309
  0
LWPOLYLINE
  5
22B8
330
1F
100
AcDbEntity
  8
SOLBET_Stolarka_Okna
100
AcDbPolyline
 90
       15
 70
     1
 43
0.0
 10
165.9796597406127
 20
222.0447239526921
 10
165.9796597406127
 20
221.3399823998591
 10
164.6375094660998
 20
221.3399823998591
 10
164.6375094660998
 20
224.1437544340438
 10
165.8977972149942
 20
224.5808328014212
 10
165.8977972149942
 20
223.0100181290468
 10
167.5401857968861
 20
223.0100181290468
 10
169.0802457322224
 20
223.0100181290468
 10
169.0802457322224
 20
219.1134090984148
 10
168.3854549975924
 20
219.1134090984148
 10
168.3854549975924
 20
221.3399823998591
 10
167.220660148221
 20
221.3399823998591
 10
167.220660148221
 20
220.6046012236528
 10
166.3623910836502
 20
220.6046012236528
 10
166.3623910836502
 20
222.0447239526921
  0
LINE
  5
22BC
330
1F
100
AcDbEntity
  8
SOLBET_Stolarka_Okna
100
AcDbLine
 10
164.5334941458864
 20
218.1927693127795
 30
0.0
 11
164.5334941458864
 21
215.867785195645
 31
0.0
  0
LINE
  5
22BD
330
1F
100
AcDbEntity
  8
SOLBET_Stolarka_Okna
100
AcDbLine
 10
164.5334941458864
 20
215.967785195645
 30
0.0
 11
156.3371237740944
 21
215.967785195645
 31
0.0
  0
LINE
  5
22BE
330
1F
100
AcDbEntity
  8
SOLBET_Stolarka_Okna
100
AcDbLine
 10
156.3371237740944
 20
215.967785195645
 30
0.0
 11
156.3371237740942
 21
216.4294337004037
 31
0.0
  0
LINE
  5
22BF
330
1F
100
AcDbEntity
  8
SOLBET_Stolarka_Okna
100
AcDbLine
 10
164.4936290716378
 20
218.1960929817166
 30
0.0
 11
164.4936290716378
 21
217.4552342264443
 31
0.0
  0
LINE
  5
22C0
330
1F
100
AcDbEntity
  8
SOLBET_Stolarka_Okna
100
AcDbLine
 10
164.4936290716378
 20
217.5552342264442
 30
0.0
 11
154.6719190600304
 21
216.1995940479212
 31
0.0
  0
LINE
  5
22C1
330
1F
100
AcDbEntity
  8
SOLBET_Stolarka_Okna
100
AcDbLine
 10
153.844960709519
 20
215.2146795401869
 30
0.0
 11
153.844960709519
 21
214.6422612772027
 31
0.0
  0
LINE
  5
22C2
330
1F
100
AcDbEntity
  8
SOLBET_Stolarka_Okna
100
AcDbLine
 10
153.844960709519
 20
214.6422612772027
 30
0.0
 11
154.1520425963656
 21
214.6422612772027
 31
0.0
  0
LINE
  5
22C3
330
1F
100
AcDbEntity
  8
SOLBET_Stolarka_Okna
100
AcDbLine
 10
154.1520425963656
 20
214.6422612772027
 30
0.0
 11
154.1520425963656
 21
215.1743346317463
 31
0.0
  0
ARC
  5
22C4
330
1F
100
AcDbEntity
  8
SOLBET_Stolarka_Okna
100
AcDbCircle
 10
154.844960709519
 20
215.2146795401869
 30
0.0
 40
1.0
100
AcDbArc
 50
99.9647143110222
 51
180.0
  0
LINE
  5
22C5
330
1F
100
AcDbEntity
  8
SOLBET_Stolarka_Okna
100
AcDbLine
 10
157.0741214774059
 20
216.5311577074154
 30
0.0
 11
157.0741214774059
 21
215.967785195645
 31
0.0
  0
CIRCLE
  5
22C6
330
1F
100
AcDbEntity
  8
SOLBET_Stolarka_Okna
100
AcDbCircle
 10
167.7454806878322
 20
216.0319816351893
 30
0.0
 40
0.25244346087405
  0
ARC
  5
22C7
330
1F
100
AcDbEntity
  8
SOLBET_Stolarka_Okna
100
AcDbCircle
 10
168.4562546352599
 20
216.0265630476521
 30
0.0
 40
0.4069335296814501
100
AcDbArc
 50
141.5623929961077
 51
217.3757720391884
  0
LWPOLYLINE
  5
22C9
330
1F
100
AcDbEntity
  8
SOLBET_Stolarka_Okna
100
AcDbPolyline
 90
        4
 70
     1
 43
0.0
 10
168.1749950926143
 20
216.0295381743165
 10
178.2247188347949
 20
216.0295381743165
 10
178.2247188347949
 20
216.5295381743165
 10
168.1749950926143
 20
216.5295381743165
1001
ASO_SCHRAFF
1005
22C9
1070
     1
1002
{
1070
     1
1005
22C9
1002
}
1002
{
1070
     2
1005
22D4
1002
}
1002
{
1070
     4
1000
SOFIHOLZ
1040
0.5
1040
0.0
1070
     0
1000
T__SCHR
1070
   256
1000
VONLAYER
1040
50.0
1070
     1
1002
}
  0
INSERT
  5
22CA
330
1F
100
AcDbEntity
  8
SOLBET_Izolacja
100
AcDbBlockReference
  2
*U6
 10
-322.0440395330336
 20
-141.9597891168994
 30
0.0
 41
50.0
 42
50.0
 43
50.0
1001
ASO_SCHRAFF
1005
22CA
1070
     0
1005
22BB
  0
LINE
  5
22CC
330
1F
100
AcDbEntity
  8
SOLBET_Stolarka_Okna
100
AcDbLine
 10
164.6375094660998
 20
239.628292555769
 30
0.0
 11
164.6375094660998
 21
224.1437544340438
 31
0.0
  0
LINE
  5
22CD
330
1F
100
AcDbEntity
  8
SOLBET_Stolarka_Okna
100
AcDbLine
 10
169.0802457322224
 20
239.628292555769
 30
0.0
 11
169.0802457322224
 21
223.9543057371362
 31
0.0
  0
LINE
  5
22CE
330
1F
100
AcDbEntity
  8
SOLBET_Stolarka_Okna
100
AcDbLine
 10
167.553811509928
 20
239.628292555769
 30
0.0
 11
167.553811509928
 21
223.2161193786504
 31
0.0
  0
LINE
  5
22CF
330
1F
100
AcDbEntity
  8
SOLBET_Stolarka_Okna
100
AcDbLine
 10
166.0957355027644
 20
239.628292555769
 30
0.0
 11
166.0957355027644
 21
223.2161193786504
 31
0.0
  0
LINE
  5
22D0
330
1F
100
AcDbEntity
  8
SOLBET_Tynki_Posadzki
100
AcDbLine
 10
177.6375094660998
 20
239.628292555769
 30
0.0
 11
177.6375094660998
 21
216.5295381743165
 31
0.0
  0
LINE
  5
22D3
330
1F
100
AcDbEntity
  8
SOLBET_Stolarka_Okna
100
AcDbLine
 10
168.1328762044175
 20
216.0295381743165
 30
0.0
 11
177.1375094660998
 21
216.0295381743165
 31
0.0
  0
INSERT
  5
22D4
330
1F
100
AcDbEntity
  8
SOLBET_Stolarka_Okna
100
AcDbBlockReference
  2
*U7
 10
-31.50694911071582
 20
-468.0201192078098
 30
0.0
 41
50.0
 42
50.0
 43
50.0
1001
ASO_SCHRAFF
1005
22D4
1070
     0
1005
22C9
  0
LINE
  5
22DB
330
1F
100
AcDbEntity
  8
SOLBET_Emulsje_Folie
100
AcDbLine
 10
155.2875094660883
 20
206.8781581123296
 30
0.0
 11
80.38550986597305
 21
205.3801181203244
 31
0.0
  0
LINE
  5
22DC
330
1F
100
AcDbEntity
  8
SOLBET_Emulsje_Folie
100
AcDbLine
 10
155.2875094660883
 20
206.8781581123296
 30
0.0
 11
155.2875094660883
 21
215.8795381743136
 31
0.0
  0
LINE
  5
22DD
330
1F
100
AcDbEntity
  8
SOLBET_Emulsje_Folie
100
AcDbLine
 10
164.781460821207
 20
215.8795381743136
 30
0.0
 11
155.2875094660883
 21
215.8795381743136
 31
0.0
  0
LINE
  5
22DE
330
1F
100
AcDbEntity
  8
SOLBET_Emulsje_Folie
 62
     6
100
AcDbLine
 10
88.80019931106108
 20
205.4984019102262
 30
0.0
 11
80.13251046578853
 21
205.32504813332
 31
0.0
  0
LINE
  5
22DF
330
1F
100
AcDbEntity
  8
SOLBET_Emulsje_Folie
 62
     6
100
AcDbLine
 10
79.88750946608821
 20
191.1519473813382
 30
0.0
 11
79.88750946608821
 21
205.0750981183252
 31
0.0
  0
ARC
  5
22E0
330
1F
100
AcDbEntity
  8
SOLBET_Emulsje_Folie
 62
     6
100
AcDbCircle
 10
80.13750946609979
 20
205.0750981183252
 30
0.0
 40
0.25
100
AcDbArc
 50
91.1457628382802
 51
180.0
  0
LINE
  5
22E1
330
1F
100
AcDbEntity
  8
SOLBET_Tynki_Posadzki
100
AcDbLine
 10
80.13750946609979
 20
193.2795381743136
 30
0.0
 11
80.13750946609979
 21
202.2795381743136
 31
0.0
  0
LINE
  5
22E3
330
1F
100
AcDbEntity
  8
SOLBET_Tynki_Posadzki
100
AcDbLine
 10
155.3875094660882
 20
193.2795381743136
 30
0.0
 11
80.13750946609979
 21
193.2795381743136
 31
0.0
  0
LINE
  5
22E7
330
1F
100
AcDbEntity
  8
SOLBET_Emulsje_Folie
 62
     6
100
AcDbLine
 10
79.88750946608821
 20
191.1519473813382
 30
0.0
 11
80.4061712086875
 21
192.4370813757234
 31
0.0
  0
LINE
  5
22E9
330
1F
100
AcDbEntity
  8
SOLBET_Tynki_Posadzki
100
AcDbLine
 10
155.0375094660999
 20
210.1238080473379
 30
0.0
 11
155.0375094660999
 21
215.8795381743136
 31
0.0
  0
LINE
  5
22EA
330
1F
100
AcDbEntity
  8
SOLBET_Tynki_Posadzki
100
AcDbLine
 10
154.5375094660999
 20
210.1138080473403
 30
0.0
 11
154.5375094660999
 21
215.8795381743136
 31
0.0
  0
ARC
  5
22EB
330
1F
100
AcDbEntity
  8
SOLBET_Tynki_Posadzki
100
AcDbCircle
 10
154.1263417393643
 20
210.5168346448622
 30
0.0
 40
0.4112499520568499
100
AcDbArc
 50
270.0
 51
1.145762838280213
  0
LINE
  5
22EC
330
1F
100
AcDbEntity
  8
SOLBET_Tynki_Posadzki
100
AcDbLine
 10
154.5375094660999
 20
215.8795381743136
 30
0.0
 11
155.2875094660883
 21
215.8795381743136
 31
0.0
  0
LWPOLYLINE
  5
22EE
330
1F
100
AcDbEntity
  8
SOLBET_Zbrojenie_Konstrukcja
100
AcDbPolyline
 90
        2
 70
     1
 43
0.3
 10
81.50203733461422
 20
201.2906037129224
 42
1.0
 10
81.80203733461439
 20
201.2906037129224
 42
1.0
  0
LWPOLYLINE
  5
22EF
330
1F
100
AcDbEntity
  8
SOLBET_Zbrojenie_Konstrukcja
100
AcDbPolyline
 90
        2
 70
     1
 43
0.3
 10
81.41791603138882
 20
198.3865750427964
 42
1.0
 10
81.71791603140059
 20
198.3865750427964
 42
1.0
  0
LWPOLYLINE
  5
22F0
330
1F
100
AcDbEntity
  8
SOLBET_Zbrojenie_Konstrukcja
100
AcDbPolyline
 90
        2
 70
     1
 43
0.3
 10
93.93115045363993
 20
201.3243713748898
 42
1.0
 10
94.23115045364012
 20
201.3243713748898
 42
1.0
  0
LWPOLYLINE
  5
22F1
330
1F
100
AcDbEntity
  8
SOLBET_Zbrojenie_Konstrukcja
100
AcDbPolyline
 90
        2
 70
     1
 43
0.3
 10
106.5596730192051
 20
201.4996096137208
 42
1.0
 10
106.8596730192166
 20
201.4996096137208
 42
1.0
  0
LWPOLYLINE
  5
22F2
330
1F
100
AcDbEntity
  8
SOLBET_Zbrojenie_Konstrukcja
100
AcDbPolyline
 90
        2
 70
     1
 43
0.3
 10
119.0365770606415
 20
201.5966703331297
 42
1.0
 10
119.3365770606415
 20
201.5966703331297
 42
1.0
  0
LWPOLYLINE
  5
22F3
330
1F
100
AcDbEntity
  8
SOLBET_Zbrojenie_Konstrukcja
100
AcDbPolyline
 90
        2
 70
     1
 43
0.3
 10
131.5134744736458
 20
201.7422614122358
 42
1.0
 10
131.8134744736457
 20
201.7422614122358
 42
1.0
  0
LWPOLYLINE
  5
22F4
330
1F
100
AcDbEntity
  8
SOLBET_Zbrojenie_Konstrukcja
100
AcDbPolyline
 90
        2
 70
     1
 43
0.3
 10
143.9903718866383
 20
201.8878524913448
 42
1.0
 10
144.29037188665
 20
201.8878524913448
 42
1.0
  0
LWPOLYLINE
  5
22F5
330
1F
100
AcDbEntity
  8
SOLBET_Zbrojenie_Konstrukcja
100
AcDbPolyline
 90
        2
 70
     1
 43
0.3
 10
154.5738937058811
 20
201.9849132107508
 42
1.0
 10
154.8738937058926
 20
201.9849132107508
 42
1.0
  0
LWPOLYLINE
  5
22F8
330
1F
100
AcDbEntity
  8
SOLBET_Zbrojenie_Konstrukcja
100
AcDbPolyline
 90
        2
 70
     1
 43
0.3
 10
227.5447793252742
 20
202.3648322842021
 42
1.0
 10
227.8447793252858
 20
202.3648322842021
 42
1.0
  0
LWPOLYLINE
  5
22F9
330
1F
100
AcDbEntity
  8
SOLBET_Zbrojenie_Konstrukcja
100
AcDbPolyline
 90
        2
 70
     1
 43
0.3
 10
225.8269840010882
 20
195.2577793072788
 42
1.0
 10
226.1269840010882
 20
195.2577793072788
 42
1.0
  0
LWPOLYLINE
  5
22FA
330
1F
100
AcDbEntity
  8
SOLBET_Zbrojenie_Konstrukcja
100
AcDbPolyline
 90
        6
 70
     0
 43
0.0
 10
226.7225361094088
 20
196.419278908276
 10
226.3295563941331
 20
195.2577793072788
 42
-1.0
 10
225.6244116080552
 20
195.2577793072788
 10
228.0289993090996
 20
202.3648322842021
 42
1.0
 10
227.3238545230333
 20
202.3648322842021
 10
226.9308748077576
 20
201.2033326832049
  0
LWPOLYLINE
  5
2301
330
1F
100
AcDbEntity
  8
SOLBET_Zbrojenie_Konstrukcja
100
AcDbPolyline
 90
        9
 70
     0
 43
0.0
 10
82.20962020699857
 20
197.9304215551873
 10
81.67076088564682
 20
197.9304215551873
 42
-0.4142135623731341
 10
81.17076088564681
 20
198.4304215551873
 10
81.17076088564681
 20
201.1202901292675
 42
-0.414213562373121
 10
81.67076088564682
 20
201.6202901292674
 10
164.2917876363474
 20
203.0085305411044
 10
227.5597191645156
 20
203.0085305411044
 42
-0.4142135623730951
 10
228.0597191645156
 20
202.5085305411044
 10
228.0597191645156
 20
194.8820442095336
  0
LINE
  5
230C
330
1F
100
AcDbEntity
  8
SOLBET_Wymiary_Opisy
 62
     1
100
AcDbLine
 10
126.6672715799553
 20
214.5574031896358
 30
0.0
 11
102.2723840202297
 21
214.0695054384409
 31
0.0
  0
LINE
  5
230D
330
1F
100
AcDbEntity
  8
SOLBET_Wymiary_Opisy
 62
     1
100
AcDbLine
 10
107.5236685616871
 20
217.3145259728767
 30
0.0
 11
102.2723840202297
 21
214.0695054384409
 31
0.0
  0
LINE
  5
230F
330
1F
100
AcDbEntity
  8
SOLBET_Tynki_Posadzki
100
AcDbLine
 10
155.3875094660882
 20
209.3776582622779
 30
0.0
 11
155.3875094660882
 21
239.628292555769
 31
0.0
  0
LINE
  5
2310
330
1F
100
AcDbEntity
  8
SOLBET_Zaprawy
100
AcDbLine
 10
155.8541876595559
 20
209.3776582622779
 30
0.0
 11
155.8541876595559
 21
215.8795381743136
 31
0.0
  0
LINE
  5
2311
330
1F
100
AcDbEntity
  8
SOLBET_Stolarka_Okna
100
AcDbLine
 10
162.1375094660998
 20
179.2795381743165
 30
0.0
 11
165.6375094660998
 21
179.2795381743165
 31
0.0
  0
LINE
  5
2312
330
1F
100
AcDbEntity
  8
SOLBET_Stolarka_Okna
100
AcDbLine
 10
165.6375094660998
 20
179.2795381743165
 30
0.0
 11
165.6375094660998
 21
176.1532174766233
 31
0.0
  0
LINE
  5
2313
330
1F
100
AcDbEntity
  8
SOLBET_Stolarka_Okna
100
AcDbLine
 10
165.6375094660998
 20
176.1532174766233
 30
0.0
 11
164.5533811350794
 21
176.1532174766233
 31
0.0
  0
LINE
  5
2314
330
1F
100
AcDbEntity
  8
SOLBET_Stolarka_Okna
100
AcDbLine
 10
164.5533811350794
 20
176.1532174766233
 30
0.0
 11
164.5533811350794
 21
175.2811500557082
 31
0.0
  0
LINE
  5
2315
330
1F
100
AcDbEntity
  8
SOLBET_Stolarka_Okna
100
AcDbLine
 10
164.5533811350794
 20
175.2811500557082
 30
0.0
 11
163.4796597406127
 21
175.2811500557082
 31
0.0
  0
LINE
  5
2316
330
1F
100
AcDbEntity
  8
SOLBET_Stolarka_Okna
100
AcDbLine
 10
163.4796597406127
 20
175.2811500557082
 30
0.0
 11
163.4796597406127
 21
174.3302717586567
 31
0.0
  0
LINE
  5
2318
330
1F
100
AcDbEntity
  8
SOLBET_Stolarka_Okna
100
AcDbLine
 10
163.1339918163464
 20
174.3302717586567
 30
0.0
 11
162.1375094660998
 21
174.5489059039561
 31
0.0
  0
LINE
  5
2319
330
1F
100
AcDbEntity
  8
SOLBET_Stolarka_Okna
100
AcDbLine
 10
162.1375094660998
 20
174.5489059039561
 30
0.0
 11
162.1375094660998
 21
179.2795381743165
 31
0.0
  0
LWPOLYLINE
  5
231A
330
1F
100
AcDbEntity
  8
SOLBET_Stolarka_Okna
100
AcDbPolyline
 90
        4
 70
     1
 43
0.0
 10
165.2184399925381
 20
171.2557222356578
 10
166.5802457322108
 20
171.6047706114909
 10
166.5802457322108
 20
172.4571264000925
 10
165.2184399925381
 20
172.4571264000925
  0
LWPOLYLINE
  5
231B
330
1F
100
AcDbEntity
  8
SOLBET_Stolarka_Okna
100
AcDbPolyline
 90
       15
 70
     1
 43
0.0
 10
163.4796597406127
 20
173.5143523959379
 10
163.4796597406127
 20
174.219093948771
 10
162.1375094660998
 20
174.219093948771
 10
162.1375094660998
 20
171.4153219145863
 10
163.3977972149941
 20
170.9782435472089
 10
163.3977972149941
 20
172.5490582195804
 10
165.0401857968745
 20
172.5490582195804
 10
166.5802457322108
 20
172.5490582195804
 10
166.5802457322108
 20
176.4456672502182
 10
165.8854549975924
 20
176.4456672502182
 10
165.8854549975924
 20
174.219093948771
 10
164.7206601482094
 20
174.219093948771
 10
164.7206601482094
 20
174.9544751249773
 10
163.8623910836502
 20
174.9544751249773
 10
163.8623910836502
 20
173.5143523959379
  0
LWPOLYLINE
  5
231E
102
{ACAD_REACTORS
330
2397
102
}
330
1F
100
AcDbEntity
  8
SOLBET_Izolacja
100
AcDbPolyline
 90
        4
 70
     1
 43
0.0
 10
162.281460821207
 20
179.7795381743165
 10
164.9893870096048
 20
179.7795381743165
 10
164.9893870096048
 20
179.2795381743165
 10
162.281460821207
 20
179.2795381743165
1001
ASO_SCHRAFF
1005
0
1070
     1
1002
{
1070
     1
1005
0
1002
}
1002
{
1070
     2
1005
0
1002
}
1002
{
1070
     4
1000
SOFIFUELL
1040
1.0
1040
0.0
1070
     0
1000
T__SCHR
1070
   256
1000
VONLAYER
1040
50.0
1070
     1
1002
}
  0
CIRCLE
  5
231F
330
1F
100
AcDbEntity
  8
SOLBET_Stolarka_Okna
100
AcDbCircle
 10
165.2454806878322
 20
179.5270947134409
 30
0.0
 40
0.25244346087405
  0
INSERT
  5
2320
330
1F
100
AcDbEntity
  8
SOLBET_Izolacja
100
AcDbBlockReference
  2
*U5
 10
-233.6471761857417
 20
309.8491350903841
 30
0.0
 41
-50.0
 42
50.0
 43
50.0
 50
180.0
1001
ASO_SCHRAFF
1005
0
1070
     0
1005
0
  0
ARC
  5
2321
330
1F
100
AcDbEntity
  8
SOLBET_Stolarka_Okna
100
AcDbCircle
 10
165.9562546352715
 20
179.5325133009809
 30
0.0
 40
0.4069335296814501
100
AcDbArc
 50
142.6242279608116
 51
218.4376070038922
  0
LINE
  5
2322
330
1F
100
AcDbEntity
  8
SOLBET_Stolarka_Okna
100
AcDbLine
 10
163.5957355027644
 20
172.2879722703476
 30
0.0
 11
163.5957355027644
 21
162.0371288255638
 31
0.0
  0
LINE
  5
2323
330
1F
100
AcDbEntity
  8
SOLBET_Stolarka_Okna
100
AcDbLine
 10
165.0538115099164
 20
172.2879722703476
 30
0.0
 11
165.0538115099164
 21
162.0371288255638
 31
0.0
  0
LWPOLYLINE
  5
2324
330
1F
100
AcDbEntity
  8
SOLBET_Zbrojenie_Konstrukcja
100
AcDbPolyline
 90
        3
 70
     0
 43
0.05
 10
177.3590960922974
 20
180.9874613274087
 10
177.3590960922974
 20
179.4874613274087
 10
175.8590960922859
 20
179.4874613274087
  0
LWPOLYLINE
  5
2325
330
1F
100
AcDbEntity
  8
SOLBET_Zbrojenie_Konstrukcja
100
AcDbPolyline
 90
        3
 70
     0
 43
0.05
 10
155.633753932067
 20
180.9874613274087
 10
155.633753932067
 20
179.4874613274087
 10
157.1337539320554
 20
179.4874613274087
  0
LINE
  5
2326
330
1F
100
AcDbEntity
  8
SOLBET_Stolarka_Okna
100
AcDbLine
 10
166.5802457322108
 20
171.6047706114909
 30
0.0
 11
166.5802457322224
 21
162.0371288255638
 31
0.0
  0
LINE
  5
2327
330
1F
100
AcDbEntity
  8
SOLBET_Stolarka_Okna
100
AcDbLine
 10
162.1375094660998
 20
171.4153219145863
 30
0.0
 11
162.1375094660998
 21
162.0371288255638
 31
0.0
  0
LINE
  5
2328
330
1F
100
AcDbEntity
  8
SOLBET_Zbrojenie_Konstrukcja
100
AcDbLine
 10
90.90617960173153
 20
199.9724672159902
 30
0.0
 11
78.56295762446007
 21
199.9724672159902
 31
0.0
  0
LINE
  5
2329
330
1F
100
AcDbEntity
  8
SOLBET_Zbrojenie_Konstrukcja
100
AcDbLine
 10
90.90617960173153
 20
198.9724672159932
 30
0.0
 11
78.56295762446007
 21
198.9724672159932
 31
0.0
  0
LINE
  5
232A
330
1F
100
AcDbEntity
  8
SOLBET_Zbrojenie_Konstrukcja
100
AcDbLine
 10
90.90617960173153
 20
198.9724672159932
 30
0.0
 11
90.90617960173153
 21
199.9724672159902
 31
0.0
  0
LINE
  5
232B
330
1F
100
AcDbEntity
  8
SOLBET_Zbrojenie_Konstrukcja
100
AcDbLine
 10
78.56295762446007
 20
188.1177731381201
 30
0.0
 11
78.56295762446007
 21
239.628292555769
 31
0.0
  0
LINE
  5
232C
330
1F
100
AcDbEntity
  8
SOLBET_Zbrojenie_Konstrukcja
100
AcDbLine
 10
76.56295762446006
 20
188.1177731381201
 30
0.0
 11
76.56295762446006
 21
239.628292555769
 31
0.0
  0
LINE
  5
232D
330
1F
100
AcDbEntity
  8
SOLBET_Zbrojenie_Konstrukcja
100
AcDbLine
 10
76.56295762446006
 20
188.1177731381201
 30
0.0
 11
78.56295762446007
 21
188.1177731381201
 31
0.0
  0
LINE
  5
232E
330
1F
100
AcDbEntity
  8
SOLBET_Wymiary_Opisy
 62
     1
100
AcDbLine
 10
75.12012225440457
 20
239.628292555769
 30
0.0
 11
79.95382126810477
 21
239.628292555769
 31
0.0
  0
LWPOLYLINE
  5
2338
330
1F
100
AcDbEntity
  8
SOLBET_Ramka_05
100
AcDbPolyline
 90
        4
 70
     1
 43
0.0
 10
0.209617020324913
 20
0.0
 10
334.5613911124149
 20
0.0
 10
334.5613911124149
 20
297.0
 10
0.209617020324913
 20
297.0
  0
MTEXT
  5
2339
102
{ACAD_XDICTIONARY
360
233A
102
}
330
1F
100
AcDbEntity
  8
SOLBET_Wymiary_Opisy @ 1
100
AcDbMText
 10
15.66336835863672
 20
289.8967110907779
 30
0.0
 40
5.0
 41
124.2624847080697
 71
     1
 72
     5
  1
{\LDETAL 80\P}Balkon wystawiony ze stropu Teriva
  7
Solbet_5
 73
     1
 44
1.0
1001
AcadAnnotative
1000
AnnotativeData
1002
{
1070
     1
1070
     0
1002
}
1001
ACAD
1000
MTEXTBEGIN
1070
    73
1070
     1
1070
    44
1040
1.0
1070
    74
1070
     0
1000
MTEXTEND
  0
LINE
  5
237C
330
1F
100
AcDbEntity
  8
SOLBET_Zbrojenie_Konstrukcja
100
AcDbLine
 10
230.6375094660882
 20
200.2795381743166
 30
0.0
 11
233.6364309419935
 21
194.6565604069942
 31
0.0
  0
LINE
  5
237D
330
1F
100
AcDbEntity
  8
SOLBET_Zbrojenie_Konstrukcja
100
AcDbLine
 10
227.1708427994214
 20
193.7795381743164
 30
0.0
 11
230.6375094660882
 21
200.2795381743166
 31
0.0
  0
LINE
  5
237F
330
1F
100
AcDbEntity
  8
SOLBET_Zbrojenie_Konstrukcja
100
AcDbLine
 10
203.1708427994214
 20
193.7795381743164
 30
0.0
 11
206.6375094660882
 21
200.2795381743166
 31
0.0
  0
LINE
  5
2380
330
1F
100
AcDbEntity
  8
SOLBET_Zbrojenie_Konstrukcja
100
AcDbLine
 10
211.1708427994214
 20
193.7795381743164
 30
0.0
 11
214.637509466088
 21
200.2795381743166
 31
0.0
  0
LINE
  5
2381
330
1F
100
AcDbEntity
  8
SOLBET_Zbrojenie_Konstrukcja
100
AcDbLine
 10
219.1708427994214
 20
193.7795381743164
 30
0.0
 11
222.6375094660881
 21
200.2795381743166
 31
0.0
  0
LINE
  5
2382
330
1F
100
AcDbEntity
  8
SOLBET_Zbrojenie_Konstrukcja
100
AcDbLine
 10
195.1708427994214
 20
193.7795381743164
 30
0.0
 11
198.6375094660882
 21
200.2795381743166
 31
0.0
  0
LINE
  5
2383
330
1F
100
AcDbEntity
  8
SOLBET_Zbrojenie_Konstrukcja
100
AcDbLine
 10
187.1708427994214
 20
193.7795381743164
 30
0.0
 11
190.6375094660882
 21
200.2795381743166
 31
0.0
  0
LINE
  5
2384
330
1F
100
AcDbEntity
  8
SOLBET_Zbrojenie_Konstrukcja
100
AcDbLine
 10
179.1708427994214
 20
193.7795381743164
 30
0.0
 11
182.6375094660882
 21
200.2795381743166
 31
0.0
  0
LINE
  5
2385
330
1F
100
AcDbEntity
  8
SOLBET_Zbrojenie_Konstrukcja
100
AcDbLine
 10
171.1708427994215
 20
193.7795381743164
 30
0.0
 11
174.6375094660882
 21
200.2795381743166
 31
0.0
  0
LINE
  5
2386
330
1F
100
AcDbEntity
  8
SOLBET_Zbrojenie_Konstrukcja
100
AcDbLine
 10
174.6375094660882
 20
200.2795381743166
 30
0.0
 11
178.1041761327548
 21
193.7795381743164
 31
0.0
  0
LINE
  5
2387
330
1F
100
AcDbEntity
  8
SOLBET_Zbrojenie_Konstrukcja
100
AcDbLine
 10
182.6375094660882
 20
200.2795381743166
 30
0.0
 11
186.1041761327548
 21
193.7795381743164
 31
0.0
  0
LINE
  5
2388
330
1F
100
AcDbEntity
  8
SOLBET_Zbrojenie_Konstrukcja
100
AcDbLine
 10
190.6375094660882
 20
200.2795381743166
 30
0.0
 11
194.104176132755
 21
193.7795381743164
 31
0.0
  0
LINE
  5
2389
330
1F
100
AcDbEntity
  8
SOLBET_Zbrojenie_Konstrukcja
100
AcDbLine
 10
198.6375094660882
 20
200.2795381743166
 30
0.0
 11
202.104176132755
 21
193.7795381743164
 31
0.0
  0
LINE
  5
238A
330
1F
100
AcDbEntity
  8
SOLBET_Zbrojenie_Konstrukcja
100
AcDbLine
 10
233.6364309419935
 20
200.2795381743168
 30
0.0
 11
169.1375094660882
 21
200.2795381743164
 31
0.0
  0
LINE
  5
238B
330
1F
100
AcDbEntity
  8
SOLBET_Zbrojenie_Konstrukcja
100
AcDbLine
 10
222.6375094660881
 20
200.2795381743166
 30
0.0
 11
226.1041761327549
 21
193.7795381743164
 31
0.0
  0
LINE
  5
238C
330
1F
100
AcDbEntity
  8
SOLBET_Zbrojenie_Konstrukcja
100
AcDbLine
 10
214.637509466088
 20
200.2795381743166
 30
0.0
 11
218.1041761327549
 21
193.7795381743164
 31
0.0
  0
LINE
  5
238D
330
1F
100
AcDbEntity
  8
SOLBET_Zbrojenie_Konstrukcja
100
AcDbLine
 10
206.6375094660882
 20
200.2795381743166
 30
0.0
 11
210.1041761327549
 21
193.7795381743164
 31
0.0
  0
INSERT
  5
2391
330
1F
100
AcDbEntity
  8
SOLBET_Beton
100
AcDbBlockReference
  2
*X4
 10
-400.5634064148685
 20
-264.2418028801106
 30
0.0
 41
50.0
 42
50.0
 43
50.0
1001
ASO_SCHRAFF
1005
0
1070
     0
1005
0
1001
ACAD
1000
HATCH
1002
{
1070
    16
1000
NET
1040
0.25
1040
0.7853981633974483
1002
}
  0
HATCH
  5
2397
102
{ACAD_XDICTIONARY
360
2B57
102
}
330
1F
100
AcDbEntity
  8
SOLBET_Izolacja
 62
    40
100
AcDbHatch
 10
0.0
 20
0.0
 30
0.0
210
0.0
220
0.0
230
1.0
  2
SOLID
 70
     1
 71
     1
 91
        1
 92
        1
 93
        4
 72
     1
 10
162.281460821207
 20
179.7795381743165
 11
164.9893870096048
 21
179.7795381743165
 72
     1
 10
164.9893870096048
 20
179.7795381743165
 11
164.9893870096048
 21
179.2795381743165
 72
     1
 10
164.9893870096048
 20
179.2795381743165
 11
162.281460821207
 21
179.2795381743165
 72
     1
 10
162.281460821207
 20
179.2795381743165
 11
162.281460821207
 21
179.7795381743165
 97
        1
330
231E
 75
     0
 76
     1
 98
        1
 10
946.6197995100928
 20
55.53499796175282
1001
ACAD
1010
0.0
1020
0.0
1030
0.0
  0
HATCH
  5
23D2
102
{ACAD_XDICTIONARY
360
2B59
102
}
330
1F
100
AcDbEntity
  8
SOLBET_Zbrojenie_Konstrukcja
 62
     7
100
AcDbHatch
 10
0.0
 20
0.0
 30
0.0
210
0.0
220
0.0
230
1.0
  2
SOLID
 70
     1
 71
     1
 91
        2
 92
        1
 93
       16
 72
     2
 10
163.0689815730318
 20
204.0789919252553
 40
0.1527030439876222
 50
232.480517079129
 51
252.3561575961239
 73
     1
 72
     2
 10
163.1221735484612
 20
204.2462301638412
 40
0.3281966754829413
 50
252.3561576071384
 51
262.4947782726949
 73
     1
 72
     2
 10
163.1574415343213
 20
204.51392858388
 40
0.5982082954512299
 50
262.4947782677371
 51
269.9999999988322
 73
     1
 72
     2
 10
163.1574415343026
 20
204.5139285839698
 40
0.5982082955410136
 50
270.0000000006206
 51
277.5052217316984
 73
     1
 72
     2
 10
163.1927095201629
 20
204.246230163773
 40
0.3281966754160129
 50
277.5052217298253
 51
287.6438423954324
 73
     1
 72
     2
 10
163.2459014955908
 20
204.0789919252905
 40
0.152703044019735
 50
287.6438423981978
 51
307.5194829148857
 73
     1
 72
     2
 10
163.324732971951
 20
203.9763290461277
 40
0.0232655362288652
 50
307.5194829029458
 51
359.9999999895709
 73
     1
 72
     2
 10
163.3247329719479
 20
203.9763290461207
 40
0.0232655362319747
 50
0.0000000069293892
 51
52.48051709330492
 73
     1
 72
     2
 10
163.2459014956004
 20
203.8736661669606
 40
0.1527030440130063
 50
52.48051708771982
 51
72.35615760478137
 73
     1
 72
     2
 10
163.1927095201618
 20
203.7064279284676
 40
0.3281966754225269
 50
72.35615760472621
 51
82.49477827012928
 73
     1
 72
     2
 10
163.1574415342805
 20
203.4387295082848
 40
0.5982082955363535
 50
82.49477826610387
 51
89.99999999725874
 73
     1
 72
     2
 10
163.1574415343444
 20
203.4387295083599
 40
0.5982082954613191
 50
90.00000000338097
 51
97.5052217343679
 73
     1
 72
     2
 10
163.122173548466
 20
203.7064279284745
 40
0.3281966754153943
 50
97.50522172968944
 51
107.6438423953523
 73
     1
 72
     2
 10
163.0689815730305
 20
203.8736661669581
 40
0.1527030440158468
 50
107.6438423954053
 51
127.5194829120932
 73
     1
 72
     2
 10
162.9901500966845
 20
203.9763290461289
 40
0.0232655362272651
 50
127.519482924592
 51
174.8627062311043
 73
     1
 72
     2
 10
162.990150096683
 20
203.9763290461212
 40
0.0232655362264172
 50
174.8627062120829
 51
232.4805170785764
 73
     1
 97
        1
330
22A4
 92
        1
 93
       16
 72
     2
 10
173.4054122413404
 20
204.0789919252884
 40
0.152703044017393
 50
52.48051708496348
 51
72.35615760195933
 73
     0
 72
     2
 10
173.3522202659052
 20
204.2462301638412
 40
0.3281966754829413
 50
72.3561576071384
 51
82.49477827269487
 73
     0
 72
     2
 10
173.3169522800452
 20
204.51392858388
 40
0.5982082954512299
 50
82.49477826773704
 51
89.9999999988322
 73
     0
 72
     2
 10
173.3169522800639
 20
204.5139285839698
 40
0.5982082955410136
 50
90.00000000062064
 51
97.50522173169835
 73
     0
 72
     2
 10
173.2816842942035
 20
204.246230163773
 40
0.3281966754160129
 50
97.50522172982535
 51
107.6438423954323
 73
     0
 72
     2
 10
173.2284923187815
 20
204.0789919252574
 40
0.1527030439899387
 50
107.6438424040365
 51
127.5194829207267
 73
     0
 72
     2
 10
173.1496608424271
 20
203.9763290461277
 40
0.0232655362288652
 50
127.5194829029459
 51
179.9999999895709
 73
     0
 72
     2
 10
173.1496608424302
 20
203.9763290461207
 40
0.0232655362319747
 50
180.0000000069294
 51
232.4805170933049
 73
     0
 72
     2
 10
173.2284923187719
 20
203.8736661669937
 40
0.1527030439832356
 50
232.4805170818854
 51
252.3561575989459
 73
     0
 72
     2
 10
173.2816842942046
 20
203.7064279284676
 40
0.3281966754225269
 50
252.3561576047262
 51
262.4947782701292
 73
     0
 72
     2
 10
173.316952280086
 20
203.4387295082848
 40
0.5982082955363535
 50
262.4947782661039
 51
269.9999999972588
 73
     0
 72
     2
 10
173.3169522800221
 20
203.4387295083599
 40
0.5982082954613191
 50
270.000000003381
 51
277.5052217343679
 73
     0
 72
     2
 10
173.3522202659063
 20
203.7064279284092
 40
0.3281966754794468
 50
277.5052217271953
 51
287.6438423928579
 73
     0
 72
     2
 10
173.4054122413476
 20
203.8736661669581
 40
0.1527030440158468
 50
287.6438423954054
 51
307.5194829120932
 73
     0
 72
     2
 10
173.4842437176935
 20
203.9763290461289
 40
0.0232655362272651
 50
307.519482924592
 51
354.8627062311043
 73
     0
 72
     2
 10
173.4842437176951
 20
203.9763290461212
 40
0.0232655362264172
 50
354.8627062120829
 51
412.4805170785763
 73
     0
 97
        1
330
22A2
 75
     0
 76
     1
 98
        1
 10
946.6197995100928
 20
55.53499796175282
1001
ACAD
1010
0.0
1020
0.0
1030
0.0
  0
INSERT
  5
2401
330
1F
100
AcDbEntity
  8
SOLBET_Izolacja
  6
Continuous
100
AcDbBlockReference
  2
ASOWDBLK
 10
157.0741214773907
 20
215.9677851956453
 30
0.0
 41
0.6486411016078364
 42
0.6673913043478592
 43
0.6486411016077501
  0
INSERT
  5
2402
330
1F
100
AcDbEntity
  8
SOLBET_Izolacja
  6
Continuous
100
AcDbBlockReference
  2
ASOWDBLK
 10
157.3984420281946
 20
215.9677851956453
 30
0.0
 41
0.6486411016078364
 42
0.7108695652173936
 43
0.6486411016077501
  0
INSERT
  5
2403
330
1F
100
AcDbEntity
  8
SOLBET_Izolacja
  6
Continuous
100
AcDbBlockReference
  2
ASOWDBLK
 10
157.7227625789985
 20
215.9677851956453
 30
0.0
 41
0.6486411016078364
 42
0.7543478260869563
 43
0.6486411016077501
  0
INSERT
  5
2404
330
1F
100
AcDbEntity
  8
SOLBET_Izolacja
  6
Continuous
100
AcDbBlockReference
  2
ASOWDBLK
 10
158.0470831298023
 20
215.9677851956453
 30
0.0
 41
0.6486411016078364
 42
0.7978260869564906
 43
0.6486411016077501
  0
INSERT
  5
2405
330
1F
100
AcDbEntity
  8
SOLBET_Izolacja
  6
Continuous
100
AcDbBlockReference
  2
ASOWDBLK
 10
158.3714036806061
 20
215.9677851956453
 30
0.0
 41
0.6486411016078364
 42
0.8413043478261101
 43
0.6486411016077501
  0
INSERT
  5
2406
330
1F
100
AcDbEntity
  8
SOLBET_Izolacja
  6
Continuous
100
AcDbBlockReference
  2
ASOWDBLK
 10
158.6957242314099
 20
215.9677851956453
 30
0.0
 41
0.6486411016078364
 42
0.8847826086956445
 43
0.6486411016077501
  0
INSERT
  5
2407
330
1F
100
AcDbEntity
  8
SOLBET_Izolacja
  6
Continuous
100
AcDbBlockReference
  2
ASOWDBLK
 10
159.0200447822138
 20
215.9677851956453
 30
0.0
 41
0.6486411016078364
 42
0.9282608695652072
 43
0.6486411016077501
  0
INSERT
  5
2408
330
1F
100
AcDbEntity
  8
SOLBET_Izolacja
  6
Continuous
100
AcDbBlockReference
  2
ASOWDBLK
 10
159.3443653330178
 20
215.9677851956453
 30
0.0
 41
0.6486411016078364
 42
0.9717391304347984
 43
0.6486411016077501
  0
INSERT
  5
2409
330
1F
100
AcDbEntity
  8
SOLBET_Izolacja
  6
Continuous
100
AcDbBlockReference
  2
ASOWDBLK
 10
159.6686858838216
 20
215.9677851956453
 30
0.0
 41
0.6486411016078364
 42
1.015217391304361
 43
0.6486411016077501
  0
INSERT
  5
240A
330
1F
100
AcDbEntity
  8
SOLBET_Izolacja
  6
Continuous
100
AcDbBlockReference
  2
ASOWDBLK
 10
159.9930064346254
 20
215.9677851956453
 30
0.0
 41
0.6486411016078364
 42
1.058695652173895
 43
0.6486411016077501
  0
INSERT
  5
240B
330
1F
100
AcDbEntity
  8
SOLBET_Izolacja
  6
Continuous
100
AcDbBlockReference
  2
ASOWDBLK
 10
160.3173269854292
 20
215.9677851956453
 30
0.0
 41
0.6486411016078364
 42
1.102173913043486
 43
0.6486411016077501
  0
INSERT
  5
240C
330
1F
100
AcDbEntity
  8
SOLBET_Izolacja
  6
Continuous
100
AcDbBlockReference
  2
ASOWDBLK
 10
160.6416475362331
 20
215.9677851956453
 30
0.0
 41
0.6486411016078364
 42
1.145652173913049
 43
0.6486411016077501
  0
INSERT
  5
240D
330
1F
100
AcDbEntity
  8
SOLBET_Izolacja
  6
Continuous
100
AcDbBlockReference
  2
ASOWDBLK
 10
160.9659680870369
 20
215.9677851956453
 30
0.0
 41
0.6486411016078364
 42
1.189130434782612
 43
0.6486411016077501
  0
INSERT
  5
240E
330
1F
100
AcDbEntity
  8
SOLBET_Izolacja
  6
Continuous
100
AcDbBlockReference
  2
ASOWDBLK
 10
161.2902886378408
 20
215.9677851956453
 30
0.0
 41
0.6486411016078364
 42
1.232608695652203
 43
0.6486411016077501
  0
INSERT
  5
240F
330
1F
100
AcDbEntity
  8
SOLBET_Izolacja
  6
Continuous
100
AcDbBlockReference
  2
ASOWDBLK
 10
161.6146091886446
 20
215.9677851956453
 30
0.0
 41
0.6486411016078364
 42
1.276086956521737
 43
0.6486411016077501
  0
INSERT
  5
2410
330
1F
100
AcDbEntity
  8
SOLBET_Izolacja
  6
Continuous
100
AcDbBlockReference
  2
ASOWDBLK
 10
161.9389297394484
 20
215.9677851956453
 30
0.0
 41
0.6486411016078364
 42
1.3195652173913
 43
0.6486411016077501
  0
INSERT
  5
2411
330
1F
100
AcDbEntity
  8
SOLBET_Izolacja
  6
Continuous
100
AcDbBlockReference
  2
ASOWDBLK
 10
162.2632502902522
 20
215.9677851956453
 30
0.0
 41
0.6486411016078364
 42
1.363043478260863
 43
0.6486411016077501
  0
INSERT
  5
2412
330
1F
100
AcDbEntity
  8
SOLBET_Izolacja
  6
Continuous
100
AcDbBlockReference
  2
ASOWDBLK
 10
162.5875708410561
 20
215.9677851956453
 30
0.0
 41
0.6486411016078364
 42
1.406521739130454
 43
0.6486411016077501
  0
INSERT
  5
2413
330
1F
100
AcDbEntity
  8
SOLBET_Izolacja
  6
Continuous
100
AcDbBlockReference
  2
ASOWDBLK
 10
162.9118913918601
 20
215.9677851956453
 30
0.0
 41
0.6486411016078364
 42
1.449999999999988
 43
0.6486411016077501
  0
INSERT
  5
2414
330
1F
100
AcDbEntity
  8
SOLBET_Izolacja
  6
Continuous
100
AcDbBlockReference
  2
ASOWDBLK
 10
163.2362119426639
 20
215.9677851956453
 30
0.0
 41
0.6486411016078364
 42
1.493478260869551
 43
0.6486411016077501
  0
INSERT
  5
2415
330
1F
100
AcDbEntity
  8
SOLBET_Izolacja
  6
Continuous
100
AcDbBlockReference
  2
ASOWDBLK
 10
163.5605324934677
 20
215.9677851956453
 30
0.0
 41
0.6486411016078364
 42
1.536956521739142
 43
0.6486411016077501
  0
INSERT
  5
2416
330
1F
100
AcDbEntity
  8
SOLBET_Izolacja
  6
Continuous
100
AcDbBlockReference
  2
ASOWDBLK
 10
163.8848530442715
 20
215.9677851956453
 30
0.0
 41
0.6486411016078364
 42
1.580434782608705
 43
0.6486411016077501
  0
INSERT
  5
2417
330
1F
100
AcDbEntity
  8
SOLBET_Izolacja
  6
Continuous
100
AcDbBlockReference
  2
ASOWDBLK
 10
164.2091735950754
 20
215.9677851956453
 30
0.0
 41
0.6486411016078364
 42
1.623913043478239
 43
0.6486411016077501
  0
LINE
  5
2418
330
1F
100
AcDbEntity
  8
SOLBET_Beton
100
AcDbLine
 10
175.8731816793652
 20
202.2795381743135
 30
0.0
 11
175.8731816793652
 21
193.7795381743164
 31
0.0
  0
LINE
  5
2419
330
1F
100
AcDbEntity
  8
SOLBET_Beton
100
AcDbLine
 10
175.8731816793652
 20
193.7795381743164
 30
0.0
 11
233.6364309419935
 21
193.7795381743164
 31
0.0
  0
LINE
  5
241A
330
1F
100
AcDbEntity
  8
SOLBET_Beton
100
AcDbLine
 10
233.6364309419935
 20
193.7795381743164
 30
0.0
 11
233.6364309420087
 21
202.2795381743136
 31
0.0
  0
LINE
  5
241B
330
1F
100
AcDbEntity
  8
SOLBET_Beton
100
AcDbLine
 10
233.6364309420087
 20
202.2795381743136
 30
0.0
 11
228.8731816793533
 21
202.2795381743136
 31
0.0
  0
LINE
  5
241C
330
1F
100
AcDbEntity
  8
SOLBET_Beton
100
AcDbLine
 10
228.8731816793533
 20
202.2795381743136
 30
0.0
 11
228.8731816793535
 21
193.7795381743164
 31
0.0
  0
LINE
  5
241D
330
1F
100
AcDbEntity
  8
SOLBET_Beton
100
AcDbLine
 10
228.8731816793533
 20
197.2795381743165
 30
0.0
 11
233.6364309419997
 21
197.2795381743079
 31
0.0
  0
LINE
  5
241E
330
1F
100
AcDbEntity
  8
SOLBET_Beton
100
AcDbLine
 10
223.8731816793652
 20
193.7795381743164
 30
0.0
 11
223.8731816793652
 21
202.2795381743135
 31
0.0
  0
LINE
  5
241F
330
1F
100
AcDbEntity
  8
SOLBET_Beton
100
AcDbLine
 10
223.8731816793652
 20
202.2795381743135
 30
0.0
 11
175.8731816793652
 21
202.2795381743135
 31
0.0
  0
LINE
  5
2420
330
1F
100
AcDbEntity
  8
SOLBET_Beton
100
AcDbLine
 10
175.8731816793652
 20
197.2795381743136
 30
0.0
 11
223.8731816793652
 21
197.2795381743136
 31
0.0
  0
LINE
  5
2421
330
1F
100
AcDbEntity
  8
SOLBET_Beton
100
AcDbLine
 10
187.8731816793652
 20
202.2795381743135
 30
0.0
 11
187.8731816793652
 21
193.8219724328534
 31
0.0
  0
LINE
  5
2422
330
1F
100
AcDbEntity
  8
SOLBET_Beton
100
AcDbLine
 10
199.8731816793652
 20
202.2795381743135
 30
0.0
 11
199.8731816793652
 21
193.7795381743164
 31
0.0
  0
LINE
  5
2423
330
1F
100
AcDbEntity
  8
SOLBET_Beton
100
AcDbLine
 10
211.8731816793652
 20
202.2795381743135
 30
0.0
 11
211.8731816793652
 21
193.7795381743164
 31
0.0
  0
LINE
  5
2424
330
1F
100
AcDbEntity
  8
SOLBET_Beton
100
AcDbLine
 10
169.1375094660882
 20
193.7795381743164
 30
0.0
 11
169.1375094660882
 21
191.7795381743165
 31
0.0
  0
LINE
  5
2425
330
1F
100
AcDbEntity
  8
SOLBET_Beton
100
AcDbLine
 10
169.1375094660882
 20
191.7795381743165
 30
0.0
 11
233.6364309419935
 21
191.7795381743165
 31
0.0
  0
LINE
  5
2426
330
1F
100
AcDbEntity
  8
SOLBET_Beton
100
AcDbLine
 10
233.6364309419935
 20
191.7795381743165
 30
0.0
 11
233.6364309420087
 21
193.7795381743136
 31
0.0
  0
LINE
  5
2427
330
1F
100
AcDbEntity
  8
SOLBET_Beton
100
AcDbLine
 10
233.6364309420087
 20
193.7795381743136
 30
0.0
 11
169.1375094660882
 21
193.7795381743164
 31
0.0
  0
LWPOLYLINE
  5
2439
330
1F
100
AcDbEntity
  8
SOLBET_Tynki_Posadzki
100
AcDbPolyline
 90
        5
 70
     0
 43
0.0
 10
178.4355756572888
 20
209.1528450078704
 10
178.4355756572889
 20
209.6528450078704
 10
233.6364309420087
 20
209.6528450078704
 10
233.6364309420087
 20
209.1528450078704
 10
178.4355756572888
 20
209.1528450078704
  0
LWPOLYLINE
  5
243B
102
{ACAD_REACTORS
330
243D
102
}
330
1F
100
AcDbEntity
  8
SOLBET_Tynki_Posadzki
100
AcDbPolyline
 90
        5
 70
     0
 43
0.0
 10
178.2523255157609
 20
209.1528450078704
 10
178.2523255157609
 20
206.6528450078676
 10
233.6364309420087
 20
206.6528450078676
 10
233.6364309420087
 20
209.1528450078704
 10
178.2523255157609
 20
209.1528450078704
  0
HATCH
  5
243D
330
1F
100
AcDbEntity
  8
SOLBET_Tynki_Posadzki
100
AcDbHatch
 10
0.0
 20
0.0
 30
0.0
210
0.0
220
0.0
230
1.0
  2
AR-CONC
 70
     0
 71
     1
 91
        1
 92
        1
 93
        4
 72
     1
 10
178.2523255157609
 20
209.1528450078704
 11
178.2523255157609
 21
206.6528450078676
 72
     1
 10
178.2523255157609
 20
206.6528450078676
 11
233.6364309420087
 21
206.6528450078676
 72
     1
 10
233.6364309420087
 20
206.6528450078676
 11
233.6364309420087
 21
209.1528450078704
 72
     1
 10
233.6364309420087
 20
209.1528450078704
 11
178.2523255157609
 21
209.1528450078704
 97
        1
330
243B
 75
     0
 76
     1
 52
0.0
 41
0.048
 77
     0
 78
    13
 53
50.0
 43
0.0
 44
0.0
 45
8.744864111808192
 46
-0.7650761058673483
 79
     2
 49
0.9144000000000001
 49
-10.0584
 53
355.0
 43
0.0
 44
0.0
 45
-1.691655646832015
 46
9.170718858344638
 79
     2
 49
0.7315200000000001
 49
-8.046719999999998
 53
100.451
 43
0.7287360000000001
 44
-0.063756
 45
7.053240079966044
 46
8.40560101537401
 79
     2
 49
0.7771200000000001
 49
-8.54832
 53
46.1842
 43
0.0
 44
2.4384
 45
13.01179396282223
 46
-2.018031740770902
 79
     2
 49
1.371599999999999
 49
-15.0876
 53
96.63559999999998
 43
1.0843152
 44
2.270232
 45
11.39540325437938
 46
11.87642668272236
 79
     2
 49
1.16568
 49
-12.82248
 53
351.184
 43
0.0
 44
2.4384
 45
11.39542107906883
 46
11.87640565730869
 79
     2
 49
1.09728
 49
-12.07008
 53
21.0
 43
1.2192
 44
1.8288
 45
7.277514232098397
 46
-4.9087448888046
 79
     2
 49
0.9144000000000001
 49
-10.0584
 53
326.0
 43
1.2192
 44
1.8288
 45
2.966497360687059
 46
8.841022373871325
 79
     2
 49
0.7315200000000001
 49
-8.046719999999998
 53
71.45140000000001
 43
1.825656
 44
1.419739199999999
 45
10.24399155696597
 46
3.932297170370757
 79
     2
 49
0.7771200000000001
 49
-8.54832
 53
37.5
 43
0.0
 44
0.0
 45
0.1482529560284072
 46
4.058641865911349
 79
     6
 49
0.0
 49
-7.949184
 49
0.0
 49
-8.168639999999999
 49
0.0
 49
-8.077200000000001
 53
7.499999999999999
 43
0.0
 44
0.0
 45
3.207343800494675
 46
4.808667591269736
 79
     6
 49
0.0
 49
-4.657343999999999
 49
0.0
 49
-7.766303999999999
 49
0.0
 49
-3.07848
 53
327.5
 43
-2.718815999999999
 44
0.0
 45
6.508348568009825
 46
-0.2749797116483263
 79
     6
 49
0.0
 49
-3.048
 49
0.0
 49
-9.509759999999999
 49
0.0
 49
-12.61872
 53
317.5
 43
-3.938016
 44
0.0
 45
7.110200706528866
 46
1.220471569599984
 79
     6
 49
0.0
 49
-3.9624
 49
0.0
 49
-6.315456
 49
0.0
 49
-8.961119999999999
 98
        1
 10
946.6197995100928
 20
55.53499796175282
1001
ACAD
1010
0.0
1020
0.0
1030
0.0
  0
LINE
  5
243F
330
1F
100
AcDbEntity
  8
SOLBET_Izolacja
100
AcDbLine
 10
177.1375094660882
 20
209.1528450078704
 30
0.0
 11
178.1375094660998
 21
209.1528450078704
 31
0.0
  0
LINE
  5
2440
330
1F
100
AcDbEntity
  8
SOLBET_Izolacja
100
AcDbLine
 10
178.1375094660998
 20
209.1528450078704
 30
0.0
 11
178.1375094660997
 21
203.7795381743165
 31
0.0
  0
LINE
  5
2441
330
1F
100
AcDbEntity
  8
SOLBET_Izolacja
100
AcDbLine
 10
178.1375094660997
 20
203.7795381743165
 30
0.0
 11
177.1375094660882
 21
203.7795383784648
 31
0.0
  0
LINE
  5
2442
330
1F
100
AcDbEntity
  8
SOLBET_Izolacja
100
AcDbLine
 10
177.1375094660882
 20
203.7795383784648
 30
0.0
 11
177.1375094660882
 21
209.1528450078704
 31
0.0
  0
LINE
  5
2443
330
1F
100
AcDbEntity
  8
SOLBET_Izolacja
100
AcDbLine
 10
178.1375094660997
 20
206.2795381743136
 30
0.0
 11
233.6364309420087
 21
206.2795381743136
 31
0.0
  0
LINE
  5
2444
330
1F
100
AcDbEntity
  8
SOLBET_Izolacja
100
AcDbLine
 10
233.6364309420087
 20
206.2795381743136
 30
0.0
 11
233.6364309420086
 21
203.7795381743165
 31
0.0
  0
LINE
  5
2445
330
1F
100
AcDbEntity
  8
SOLBET_Izolacja
100
AcDbLine
 10
233.6364309420086
 20
203.7795381743165
 30
0.0
 11
178.137509728514
 21
203.7795381743164
 31
0.0
  0
LINE
  5
2446
330
1F
100
AcDbEntity
  8
SOLBET_Izolacja
  6
BATTING
 48
0.049
100
AcDbLine
 10
177.637509466094
 20
209.1528450078704
 30
0.0
 11
177.6375094660939
 21
203.7795382763907
 31
0.0
  0
LINE
  5
2447
330
1F
100
AcDbEntity
  8
SOLBET_Izolacja
  6
BATTING
 48
0.12
100
AcDbLine
 10
233.6364309420087
 20
205.029538174315
 30
0.0
 11
178.1375094660997
 21
205.0295381743162
 31
0.0
  0
LINE
  5
2448
330
1F
100
AcDbEntity
  8
SOLBET_Beton
100
AcDbLine
 10
80.3875094660998
 20
202.2795381743136
 30
0.0
 11
80.3875094660998
 21
196.7795381743136
 31
0.0
  0
LINE
  5
2449
330
1F
100
AcDbEntity
  8
SOLBET_Beton
100
AcDbLine
 10
80.3875094660998
 20
196.7795381743136
 30
0.0
 11
155.8541876595559
 21
196.7795381743136
 31
0.0
  0
LINE
  5
244A
330
1F
100
AcDbEntity
  8
SOLBET_Beton
100
AcDbLine
 10
80.38750948080883
 20
202.2795381746104
 30
0.0
 11
156.1375096068375
 21
203.778366754521
 31
0.0
  0
LINE
  5
244B
330
1F
100
AcDbEntity
  8
SOLBET_Izolacja
100
AcDbLine
 10
156.1375094660882
 20
196.7795381743136
 30
0.0
 11
160.1375094660882
 21
196.7795381743136
 31
0.0
  0
LINE
  5
244C
330
1F
100
AcDbEntity
  8
SOLBET_Izolacja
100
AcDbLine
 10
160.1375094660882
 20
196.7795381743136
 30
0.0
 11
160.1375094660882
 21
193.7795381743136
 31
0.0
  0
LINE
  5
244D
330
1F
100
AcDbEntity
  8
SOLBET_Izolacja
100
AcDbLine
 10
160.1375094660882
 20
193.7795381743136
 30
0.0
 11
156.1375094660882
 21
193.7795381743136
 31
0.0
  0
LINE
  5
244E
330
1F
100
AcDbEntity
  8
SOLBET_Izolacja
100
AcDbLine
 10
156.1375094660882
 20
193.7795381743136
 30
0.0
 11
156.1375094660882
 21
196.7795381743136
 31
0.0
  0
LINE
  5
244F
330
1F
100
AcDbEntity
  8
SOLBET_Izolacja
100
AcDbLine
 10
160.1375094660882
 20
196.7795381743136
 30
0.0
 11
163.1375094660998
 21
196.7795381743136
 31
0.0
  0
LINE
  5
2450
330
1F
100
AcDbEntity
  8
SOLBET_Izolacja
100
AcDbLine
 10
163.1375094660998
 20
196.7795381743136
 30
0.0
 11
163.1375094660998
 21
183.7795381743165
 31
0.0
  0
LINE
  5
2451
330
1F
100
AcDbEntity
  8
SOLBET_Izolacja
100
AcDbLine
 10
163.1375094660998
 20
183.7795381743165
 30
0.0
 11
160.1375094660882
 21
183.7795381743164
 31
0.0
  0
LINE
  5
2452
330
1F
100
AcDbEntity
  8
SOLBET_Izolacja
100
AcDbLine
 10
160.1375094660882
 20
183.7795381743164
 30
0.0
 11
160.1375094660882
 21
196.7795381743136
 31
0.0
  0
LINE
  5
2453
330
1F
100
AcDbEntity
  8
SOLBET_Izolacja
  6
BATTING
 48
0.145
100
AcDbLine
 10
156.1375094660882
 20
195.2795381743136
 30
0.0
 11
160.1375094660882
 21
195.2795381743136
 31
0.0
  0
LINE
  5
2464
330
1F
100
AcDbEntity
  8
SOLBET_Izolacja
  6
BATTING
 48
0.145
100
AcDbLine
 10
161.637509466094
 20
196.7795381743136
 30
0.0
 11
161.637509466094
 21
183.7795381743164
 31
0.0
  0
LINE
  5
2465
330
1F
100
AcDbEntity
  8
SOLBET_Izolacja
100
AcDbLine
 10
156.1375094660882
 20
196.7795381743136
 30
0.0
 11
80.3875094660998
 21
196.7795381743136
 31
0.0
  0
LINE
  5
2466
330
1F
100
AcDbEntity
  8
SOLBET_Izolacja
100
AcDbLine
 10
80.3875094660998
 20
196.7795381743136
 30
0.0
 11
80.38750946609992
 21
193.7795381743136
 31
0.0
  0
LINE
  5
2467
330
1F
100
AcDbEntity
  8
SOLBET_Izolacja
100
AcDbLine
 10
80.38750946609992
 20
193.7795381743136
 30
0.0
 11
156.1375094660882
 21
193.7795381743136
 31
0.0
  0
LINE
  5
2468
330
1F
100
AcDbEntity
  8
SOLBET_Izolacja
  6
BATTING
 48
0.145
100
AcDbLine
 10
156.1375094660882
 20
195.2795381743136
 30
0.0
 11
80.38750946609992
 21
195.2795381743107
 31
0.0
  0
LINE
  5
2489
330
1F
100
AcDbEntity
  8
SOLBET_Zaprawy
100
AcDbLine
 10
80.35864700411366
 20
193.5439480850777
 30
0.0
 11
155.3875094660882
 21
193.5439480851051
 31
0.0
  0
LINE
  5
248A
330
1F
100
AcDbEntity
  8
SOLBET_Izolacja
100
AcDbLine
 10
80.3875094660998
 20
202.2795381743136
 30
0.0
 11
80.3875094660998
 21
205.2801381143271
 31
0.0
  0
LINE
  5
248B
330
1F
100
AcDbEntity
  8
SOLBET_Izolacja
100
AcDbLine
 10
80.3875094660998
 20
205.2801381143271
 30
0.0
 11
156.1375096068375
 21
206.7789383542545
 31
0.0
  0
LINE
  5
248D
330
1F
100
AcDbEntity
  8
SOLBET_Izolacja
100
AcDbLine
 10
156.1375096068375
 20
203.7795383784648
 30
0.0
 11
80.3875094660998
 21
202.2795381743136
 31
0.0
  0
LINE
  5
248E
330
1F
100
AcDbEntity
  8
SOLBET_Izolacja
  6
BATTING
 48
0.142
100
AcDbLine
 10
80.3875094660998
 20
203.7798381443203
 30
0.0
 11
156.1375096068375
 21
205.2786525543871
 31
0.0
  0
LINE
  5
248F
330
1F
100
AcDbEntity
  8
SOLBET_Tynki_Posadzki
100
AcDbLine
 10
80.38550986597305
 20
205.3801181203244
 30
0.0
 11
80.38550986597305
 21
207.8806180703332
 31
0.0
  0
LINE
  5
2490
330
1F
100
AcDbEntity
  8
SOLBET_Tynki_Posadzki
100
AcDbLine
 10
80.38550986597305
 20
207.8806180703332
 30
0.0
 11
155.2875094660883
 21
209.3785154148747
 31
0.0
  0
LINE
  5
2491
330
1F
100
AcDbEntity
  8
SOLBET_Tynki_Posadzki
100
AcDbLine
 10
155.2875094660883
 20
209.3785154148747
 30
0.0
 11
155.2875094660883
 21
206.8781581123296
 31
0.0
  0
LINE
  5
2492
330
1F
100
AcDbEntity
  8
SOLBET_Tynki_Posadzki
100
AcDbLine
 10
155.2875094660883
 20
206.8781581123296
 30
0.0
 11
80.38550986597305
 21
205.3801181203244
 31
0.0
  0
LINE
  5
2493
330
1F
100
AcDbEntity
  8
SOLBET_Tynki_Posadzki
100
AcDbLine
 10
80.38550986597305
 20
207.8806180703332
 30
0.0
 11
80.38550986597305
 21
208.6307680553373
 31
0.0
  0
LINE
  5
2494
330
1F
100
AcDbEntity
  8
SOLBET_Tynki_Posadzki
100
AcDbLine
 10
80.38550986597305
 20
208.6307680553373
 30
0.0
 11
155.2875094660883
 21
210.1288080473404
 31
0.0
  0
LINE
  5
2495
330
1F
100
AcDbEntity
  8
SOLBET_Tynki_Posadzki
100
AcDbLine
 10
155.2875094660883
 20
210.1288080473404
 30
0.0
 11
155.2875094660883
 21
209.629364910892
 31
0.0
  0
LINE
  5
2496
330
1F
100
AcDbEntity
  8
SOLBET_Tynki_Posadzki
100
AcDbLine
 10
155.2875094660883
 20
209.629364910892
 30
0.0
 11
80.38550986597305
 21
208.1306680653356
 31
0.0
  0
CIRCLE
  5
2497
330
1F
100
AcDbEntity
  8
SOLBET_Wymiary_Opisy
100
AcDbCircle
 10
84.7345686130958
 20
199.9724672159902
 30
0.0
 40
10.53960988850147
  0
LINE
  5
24C6
330
1F
100
AcDbEntity
  8
SOLBET_Emulsje_Folie
 62
     6
100
AcDbLine
 10
96.00499748845278
 20
92.24644896512947
 30
0.0
 11
70.00193095263466
 21
91.72638763441089
 31
0.0
  0
LINE
  5
24C7
330
1F
100
AcDbEntity
  8
SOLBET_Emulsje_Folie
 62
     6
100
AcDbLine
 10
69.26692795353346
 20
49.2070853784655
 30
0.0
 11
69.26692795353346
 21
90.97653758942655
 31
0.0
  0
ARC
  5
24C8
330
1F
100
AcDbEntity
  8
SOLBET_Emulsje_Folie
 62
     6
100
AcDbCircle
 10
70.01692795356894
 20
90.97653758942655
 30
0.0
 40
0.75
100
AcDbArc
 50
91.1457628382802
 51
180.0
  0
LINE
  5
24C9
330
1F
100
AcDbEntity
  8
SOLBET_Tynki_Posadzki
100
AcDbLine
 10
70.01692795356894
 20
55.58985775739163
 30
0.0
 11
70.01692795356894
 21
82.58985775739162
 31
0.0
  0
LINE
  5
24CA
330
1F
100
AcDbEntity
  8
SOLBET_Tynki_Posadzki
100
AcDbLine
 10
111.1473438761882
 20
55.58985775739151
 30
0.0
 11
70.01692795356894
 21
55.58985775739163
 31
0.0
  0
LINE
  5
24CC
330
1F
100
AcDbEntity
  8
SOLBET_Emulsje_Folie
 62
     6
100
AcDbLine
 10
69.26692795353346
 20
49.2070853784655
 30
0.0
 11
70.82291318133184
 21
53.06248736162112
 31
0.0
  0
LWPOLYLINE
  5
24CD
330
1F
100
AcDbEntity
  8
SOLBET_Zbrojenie_Konstrukcja
100
AcDbPolyline
 90
        2
 70
     1
 43
0.9000000000000001
 10
74.11051155911218
 20
79.62305437321808
 42
1.0
 10
75.01051155911273
 20
79.62305437321808
 42
1.0
  0
LWPOLYLINE
  5
24CE
330
1F
100
AcDbEntity
  8
SOLBET_Zbrojenie_Konstrukcja
100
AcDbPolyline
 90
        2
 70
     1
 43
0.9000000000000001
 10
73.85814764943598
 20
70.91096836284018
 42
1.0
 10
74.75814764947108
 20
70.91096836284018
 42
1.0
  0
LWPOLYLINE
  5
24CF
330
1F
100
AcDbEntity
  8
SOLBET_Zbrojenie_Konstrukcja
100
AcDbPolyline
 90
        2
 70
     1
 43
0.9000000000000001
 10
111.3978509161893
 20
79.72435735912037
 42
1.0
 10
112.2978509161898
 20
79.72435735912037
 42
1.0
  0
LWPOLYLINE
  5
24D0
330
1F
100
AcDbEntity
  8
SOLBET_Zbrojenie_Konstrukcja
100
AcDbPolyline
 90
        6
 70
     0
 43
0.0
 10
76.23326017626505
 20
69.54250790001274
 10
74.61668221220998
 20
69.54250790001274
 42
-0.4142135623731341
 10
73.11668221220998
 20
71.04250790001273
 10
73.11668221220998
 20
79.11211362225319
 42
-0.414213562373121
 10
74.61668221220998
 20
80.6121136222532
 10
117.25294927401
 20
81.32850981427415
  0
LINE
  5
24D1
330
1F
100
AcDbEntity
  8
SOLBET_Zbrojenie_Konstrukcja
100
AcDbLine
 10
102.3229383604634
 20
75.6686448824216
 30
0.0
 11
65.29327242864974
 21
75.6686448824216
 31
0.0
  0
LINE
  5
24D2
330
1F
100
AcDbEntity
  8
SOLBET_Zbrojenie_Konstrukcja
100
AcDbLine
 10
102.3229383604634
 20
72.66864488243047
 30
0.0
 11
65.29327242864974
 21
72.66864488243047
 31
0.0
  0
LINE
  5
24D3
330
1F
100
AcDbEntity
  8
SOLBET_Zbrojenie_Konstrukcja
100
AcDbLine
 10
102.3229383604634
 20
72.66864488243047
 30
0.0
 11
102.3229383604634
 21
75.6686448824216
 31
0.0
  0
LINE
  5
24D4
330
1F
100
AcDbEntity
  8
SOLBET_Zbrojenie_Konstrukcja
100
AcDbLine
 10
65.29327242864974
 20
47.24695222676891
 30
0.0
 11
65.29327242864974
 21
104.090337538074
 31
0.0
  0
LINE
  5
24D5
330
1F
100
AcDbEntity
  8
SOLBET_Zbrojenie_Konstrukcja
100
AcDbLine
 10
59.29327242864975
 20
52.2247838987548
 30
0.0
 11
59.29327242864883
 21
99.11250586608785
 31
0.0
  0
LINE
  5
24D7
330
1F
100
AcDbEntity
  8
SOLBET_Beton
100
AcDbLine
 10
70.76692795356894
 20
82.58985775739162
 30
0.0
 11
70.76692795356894
 21
66.08985775739163
 31
0.0
  0
LINE
  5
24D8
330
1F
100
AcDbEntity
  8
SOLBET_Izolacja
100
AcDbLine
 10
116.3479039554136
 20
66.08985775739163
 30
0.0
 11
70.76692795356894
 21
66.08985775739163
 31
0.0
  0
LINE
  5
24D9
330
1F
100
AcDbEntity
  8
SOLBET_Izolacja
100
AcDbLine
 10
70.76692795356894
 20
66.08985775739163
 30
0.0
 11
70.76692795356894
 21
57.08985775739162
 31
0.0
  0
LINE
  5
24DA
330
1F
100
AcDbEntity
  8
SOLBET_Izolacja
100
AcDbLine
 10
70.76692795356894
 20
57.08985775739162
 30
0.0
 11
112.1880335503961
 21
57.08985775739162
 31
0.0
  0
LINE
  5
24DB
330
1F
100
AcDbEntity
  8
SOLBET_Izolacja
  6
BATTING
 48
0.4400000000000001
100
AcDbLine
 10
114.6687503368725
 20
61.58985775738457
 30
0.0
 11
70.76692795356894
 21
61.58985775738298
 31
0.0
  0
LINE
  5
24DC
330
1F
100
AcDbEntity
  8
SOLBET_Zaprawy
100
AcDbLine
 10
70.68034056761053
 20
56.38308748968402
 30
0.0
 11
111.7125661350869
 21
56.38308748969902
 31
0.0
  0
LINE
  5
24DD
330
1F
100
AcDbEntity
  8
SOLBET_Izolacja
100
AcDbLine
 10
70.76692795356894
 20
82.58985775739162
 30
0.0
 11
70.76692795356894
 21
91.59165757743208
 31
0.0
  0
LINE
  5
24DE
330
1F
100
AcDbEntity
  8
SOLBET_Izolacja
100
AcDbLine
 10
70.76692795356894
 20
91.59165757743208
 30
0.0
 11
113.2910079367816
 21
92.44213917709599
 31
0.0
  0
LINE
  5
24DF
330
1F
100
AcDbEntity
  8
SOLBET_Izolacja
100
AcDbLine
 10
116.8095246473954
 20
83.51070969126997
 30
0.0
 11
70.76692795356894
 21
82.58985775739162
 31
0.0
  0
LINE
  5
24E0
330
1F
100
AcDbEntity
  8
SOLBET_Izolacja
  6
BATTING
 48
0.4400000000000001
100
AcDbLine
 10
70.76692795356894
 20
87.09075766741184
 30
0.0
 11
115.4139767483771
 21
87.9836986433087
 31
0.0
  0
LINE
  5
24E1
330
1F
100
AcDbEntity
  8
SOLBET_Tynki_Posadzki
100
AcDbLine
 10
70.7609291531885
 20
91.89159759542414
 30
0.0
 11
70.7609291531885
 21
99.39309744545059
 31
0.0
  0
LINE
  5
24E2
330
1F
100
AcDbEntity
  8
SOLBET_Tynki_Posadzki
100
AcDbLine
 10
70.7609291531885
 20
99.39309744545059
 30
0.0
 11
107.3139127484323
 21
100.1240875038561
 31
0.0
  0
LINE
  5
24E3
330
1F
100
AcDbEntity
  8
SOLBET_Tynki_Posadzki
100
AcDbLine
 10
113.1202530667801
 20
92.73878407369764
 30
0.0
 11
70.7609291531885
 21
91.89159759542414
 31
0.0
  0
LINE
  5
24E4
330
1F
100
AcDbEntity
  8
SOLBET_Tynki_Posadzki
100
AcDbLine
 10
70.7609291531885
 20
99.39309744545059
 30
0.0
 11
70.7609291531885
 21
101.6435474004629
 31
0.0
  0
LINE
  5
24E5
330
1F
100
AcDbEntity
  8
SOLBET_Tynki_Posadzki
100
AcDbLine
 10
70.7609291531885
 20
101.6435474004629
 30
0.0
 11
104.7862099416265
 21
102.324053016232
 31
0.0
  0
LINE
  5
24E6
330
1F
100
AcDbEntity
  8
SOLBET_Tynki_Posadzki
100
AcDbLine
 10
106.524748019287
 20
100.8588374388128
 30
0.0
 11
70.7609291531885
 21
100.1432474304576
 31
0.0
  0
ARC
  5
24E7
330
1F
100
AcDbEntity
  8
SOLBET_Wymiary_Opisy
100
AcDbCircle
 10
83.8081053945566
 20
75.6686448824216
 30
0.0
 40
33.92037224394517
100
AcDbArc
 50
223.7207329362492
 51
136.2792670637507
  0
LEADER
  5
24E8
330
1F
100
AcDbEntity
  8
SOLBET_Wymiary_Opisy
100
AcDbLeader
  3
Solbet$7
 73
     0
 75
     1
 40
5.0
 41
4.5
 76
     3
 10
75.78239036348259
 20
205.5350099069681
 30
0.0
 10
73.20073654486953
 20
209.2609554760644
 30
0.0
 10
70.70073654486953
 20
209.2609554760644
 30
0.0
340
24E9
213
-0.8791749024171622
223
-0.1753245211093599
233
0.0
1001
ACAD
1000
DSTYLE
1002
{
1070
   341
1005
1EF2
1070
   147
1040
0.625
1070
    77
1070
     1
1002
}
  0
MTEXT
  5
24E9
102
{ACAD_REACTORS
330
24E8
102
}
330
1F
100
AcDbEntity
  8
SOLBET_Wymiary_Opisy
100
AcDbMText
 10
70.95491144728669
 20
215.0612799971738
 30
0.0
 40
5.0
 41
0.0
 71
     3
 72
     1
  1
A
  7
Solbet_5
 73
     1
 44
1.0
1001
ACAD
1000
MTEXTBEGIN
1070
    73
1070
     1
1070
    44
1040
1.0
1070
    74
1070
     0
1000
MTEXTEND
  0
LEADER
  5
24EA
330
1F
100
AcDbEntity
  8
SOLBET_Wymiary_Opisy
100
AcDbLeader
  3
Solbet$7
 73
     0
 74
     0
 75
     1
 40
3.25
 41
35.75
 76
     3
 10
99.85526159317215
 20
102.2254340492628
 30
0.0
 10
118.5211045923952
 20
115.7220327300453
 30
0.0
 10
121.0211045923952
 20
115.7220327300453
 30
0.0
340
24EB
213
-0.625
223
0.625
233
0.0
1001
ACAD
1000
DSTYLE
1002
{
1070
   147
1040
0.625
1070
    77
1070
     1
1002
}
  0
MTEXT
  5
24EB
102
{ACAD_REACTORS
330
24EA
102
}
330
1F
100
AcDbEntity
  8
SOLBET_Wymiary_Opisy
100
AcDbMText
 10
122.2711045923952
 20
118.9720327300454
 30
0.0
 40
2.5
 41
0.0
 71
     1
 72
     1
  1
Mrozoodporna terakota
  7
Solbet_2_5
 73
     1
 44
1.0
1001
ACAD
1000
MTEXTBEGIN
1070
    73
1070
     1
1070
    44
1040
1.0
1070
    74
1070
     0
1000
MTEXTEND
  0
LEADER
  5
24FD
330
1F
100
AcDbEntity
  8
SOLBET_Wymiary_Opisy
100
AcDbLeader
  3
Solbet$7
 73
     0
 75
     1
 40
6.668560606060606
 41
25.25
 76
     3
 10
81.9839737763432
 20
99.96149986382775
 30
0.0
 10
52.44899669247956
 20
112.2356781156287
 30
0.0
 10
49.94899669247956
 20
112.2356781156287
 30
0.0
340
24FE
213
-2.958848453827158
223
-0.3775149691354187
233
0.0
1001
ACAD
1000
DSTYLE
1002
{
1070
   147
1040
0.625
1070
    77
1070
     1
1002
}
  0
MTEXT
  5
24FE
102
{ACAD_XDICTIONARY
360
2B5B
102
}
102
{ACAD_REACTORS
330
24FD
102
}
330
1F
100
AcDbEntity
  8
SOLBET_Wymiary_Opisy
100
AcDbMText
 10
52.28284514630672
 20
119.9067536908247
 30
0.0
 40
2.5
 41
0.0
 71
     3
 72
     1
  1
Zaprawa klejowa \PSOLBET Gabit T
  7
Solbet_2_5
 73
     1
 44
1.0
1001
ACAD
1000
MTEXTBEGIN
1070
    73
1070
     1
1070
    44
1040
1.0
1070
    74
1070
     0
1000
MTEXTEND
  0
LEADER
  5
24FF
330
1F
100
AcDbEntity
  8
SOLBET_Wymiary_Opisy
100
AcDbLeader
  3
Solbet$7
 73
     0
 75
     1
 40
3.5
 41
35.0
 76
     3
 10
79.3829148777736
 20
94.53854163376595
 30
0.0
 10
54.12244176956301
 20
104.6956512383173
 30
0.0
 10
51.62244176956301
 20
104.6956512383173
 30
0.0
340
2500
213
-0.625
223
0.625
233
0.0
1001
ACAD
1000
DSTYLE
1002
{
1070
   147
1040
0.625
1070
    77
1070
     1
1002
}
  0
MTEXT
  5
2500
102
{ACAD_XDICTIONARY
360
2B5D
102
}
102
{ACAD_REACTORS
330
24FF
102
}
330
1F
100
AcDbEntity
  8
SOLBET_Wymiary_Opisy
100
AcDbMText
 10
51.62244176956301
 20
108.1956512383173
 30
0.0
 40
2.5
 41
0.0
 71
     3
 72
     1
  1
Warstwa wyr\U+00F3wnawcza
  7
Solbet_2_5
 73
     1
 44
1.0
1001
ACAD
1000
MTEXTBEGIN
1070
    73
1070
     1
1070
    44
1040
1.0
1070
    74
1070
     0
1000
MTEXTEND
  0
LEADER
  5
2501
330
1F
100
AcDbEntity
  8
SOLBET_Wymiary_Opisy
100
AcDbLeader
  3
Solbet$7
 73
     0
 75
     1
 40
3.25
 41
19.75
 76
     3
 10
69.26692795353336
 20
85.90387406523374
 30
0.0
 10
53.18945333071861
 20
92.12816826424356
 30
0.0
 10
50.68945333071861
 20
92.12816826424356
 30
0.0
340
2502
213
-0.625
223
0.625
233
0.0
1001
ACAD
1000
DSTYLE
1002
{
1070
   147
1040
0.625
1070
    77
1070
     1
1002
}
  0
MTEXT
  5
2502
102
{ACAD_REACTORS
330
2501
102
}
330
1F
100
AcDbEntity
  8
SOLBET_Wymiary_Opisy
100
AcDbMText
 10
50.68945333071861
 20
95.37816826424355
 30
0.0
 40
2.5
 41
0.0
 71
     3
 72
     1
  1
Hydroizolacja
  7
Solbet_2_5
 73
     1
 44
1.0
1001
ACAD
1000
MTEXTBEGIN
1070
    73
1070
     1
1070
    44
1040
1.0
1070
    74
1070
     0
1000
MTEXTEND
  0
LEADER
  5
2503
330
1F
100
AcDbEntity
  8
SOLBET_Wymiary_Opisy
100
AcDbLeader
  3
Solbet$7
 73
     0
 74
     0
 75
     1
 40
7.416666666666666
 41
40.75
 76
     3
 10
102.4706861419381
 20
85.85393158733964
 30
0.0
 10
118.2973303243379
 20
96.7535844547001
 30
0.0
 10
120.7973303243379
 20
96.7535844547001
 30
0.0
340
2504
213
-0.625
223
0.625
233
0.0
1001
ACAD
1000
DSTYLE
1002
{
1070
   147
1040
0.625
1070
    77
1070
     1
1002
}
  0
MTEXT
  5
2504
102
{ACAD_XDICTIONARY
360
2B5F
102
}
102
{ACAD_REACTORS
330
2503
102
}
330
1F
100
AcDbEntity
  8
SOLBET_Wymiary_Opisy
100
AcDbMText
 10
122.0473303243379
 20
104.1702511213667
 30
0.0
 40
2.5
 41
0.0
 71
     1
 72
     1
  1
Izolacja termiczna \Pna kleju SOLBET Gabit T-1
  7
Solbet_2_5
 73
     1
 44
1.0
1001
ACAD
1000
MTEXTBEGIN
1070
    73
1070
     1
1070
    44
1040
1.0
1070
    74
1070
     0
1000
MTEXTEND
  0
LEADER
  5
2505
330
1F
100
AcDbEntity
  8
SOLBET_Wymiary_Opisy
100
AcDbLeader
  3
Solbet$7
 73
     0
 75
     1
 40
3.25
 41
25.5
 76
     3
 10
79.16746008867358
 20
78.45390591765195
 30
0.0
 10
53.56109502421441
 20
65.43832786469389
 30
0.0
 10
51.06109502421441
 20
65.43832786469389
 30
0.0
340
2506
213
-0.625
223
0.625
233
0.0
1001
ACAD
1000
DSTYLE
1002
{
1070
   147
1040
0.625
1070
    77
1070
     1
1002
}
  0
MTEXT
  5
2506
102
{ACAD_XDICTIONARY
360
2B61
102
}
102
{ACAD_REACTORS
330
2505
102
}
330
1F
100
AcDbEntity
  8
SOLBET_Wymiary_Opisy
100
AcDbMText
 10
51.06109502421441
 20
68.68832786469389
 30
0.0
 40
2.5
 41
0.0
 71
     3
 72
     1
  1
P\U+0142yta balkonowa
  7
Solbet_2_5
 73
     1
 44
1.0
1001
ACAD
1000
MTEXTBEGIN
1070
    73
1070
     1
1070
    44
1040
1.0
1070
    74
1070
     0
1000
MTEXTEND
  0
LEADER
  5
2508
330
1F
100
AcDbEntity
  8
SOLBET_Wymiary_Opisy
100
AcDbLeader
  3
Solbet$7
 73
     0
 75
     1
 40
7.416666666666666
 41
40.75
 76
     3
 10
82.42048679929395
 20
63.77243322463678
 30
0.0
 10
52.73521892311283
 20
46.89459979884076
 30
0.0
 10
50.23521892311283
 20
46.89459979884076
 30
0.0
340
2509
213
-0.625
223
0.625
233
0.0
1001
ACAD
1000
DSTYLE
1002
{
1070
   147
1040
0.625
1070
    77
1070
     1
1002
}
  0
MTEXT
  5
2509
102
{ACAD_XDICTIONARY
360
2B63
102
}
102
{ACAD_REACTORS
330
2508
102
}
330
1F
100
AcDbEntity
  8
SOLBET_Wymiary_Opisy
100
AcDbMText
 10
50.23521892311283
 20
54.31126646550743
 30
0.0
 40
2.5
 41
0.0
 71
     3
 72
     1
  1
Izolacja termiczna \Pna kleju SOLBET Gabit T-1
  7
Solbet_2_5
 73
     1
 44
1.0
1001
ACAD
1000
MTEXTBEGIN
1070
    73
1070
     1
1070
    44
1040
1.0
1070
    74
1070
     0
1000
MTEXTEND
  0
LEADER
  5
250A
330
1F
100
AcDbEntity
  8
SOLBET_Wymiary_Opisy
100
AcDbLeader
  3
Solbet$7
 73
     0
 74
     0
 75
     1
 40
7.416666666666666
 41
49.25
 76
     3
 10
108.7467736544763
 20
56.38308748969793
 30
0.0
 10
117.8641897843474
 20
49.70121610946501
 30
0.0
 10
120.3641897843474
 20
49.70121610946501
 30
0.0
340
250B
213
-0.1224312201989051
223
-0.796942733242183
233
0.0
1001
ACAD
1000
DSTYLE
1002
{
1070
   147
1040
0.625
1070
    77
1070
     1
1002
}
  0
MTEXT
  5
250B
102
{ACAD_XDICTIONARY
360
2A22
102
}
102
{ACAD_REACTORS
330
250A
102
}
330
1F
100
AcDbEntity
  8
SOLBET_Wymiary_Opisy
100
AcDbMText
 10
173.1031063387715
 20
58.53982550937385
 30
0.0
 40
2.5
 41
51.99148533422522
 71
     3
 72
     1
  1
Siatka z klejem SOLBET Gabit T\Pje\U+017Celi wymagane
  7
Solbet_2_5
 73
     1
 44
1.0
1001
ACAD
1000
MTEXTBEGIN
1070
    73
1070
     1
1070
    44
1040
1.0
1070
    74
1070
     0
1000
MTEXTEND
  0
LEADER
  5
250C
330
1F
100
AcDbEntity
  8
SOLBET_Wymiary_Opisy
100
AcDbLeader
  3
Solbet$7
 73
     0
 74
     0
 75
     1
 40
3.25
 41
20.25
 76
     3
 10
99.03794407202486
 20
55.58985775739154
 30
0.0
 10
118.0639041894881
 20
39.47831368869766
 30
0.0
 10
120.5639041894881
 20
39.47831368869766
 30
0.0
340
250D
213
-0.625
223
0.625
233
0.0
1001
ACAD
1000
DSTYLE
1002
{
1070
   147
1040
0.625
1070
    77
1070
     1
1002
}
  0
MTEXT
  5
250D
102
{ACAD_REACTORS
330
250C
102
}
330
1F
100
AcDbEntity
  8
SOLBET_Wymiary_Opisy
100
AcDbMText
 10
142.0639041894881
 20
42.72831368869765
 30
0.0
 40
2.5
 41
0.0
 71
     3
 72
     1
  1
Tynk SOLBET
  7
Solbet_2_5
 73
     1
 44
1.0
1001
ACAD
1000
MTEXTBEGIN
1070
    73
1070
     1
1070
    44
1040
1.0
1070
    74
1070
     0
1000
MTEXTEND
  0
LEADER
  5
251E
330
1F
100
AcDbEntity
  8
SOLBET_Wymiary_Opisy
100
AcDbLeader
  3
Solbet$7
 73
     0
 74
     0
 75
     1
 40
3.25
 41
41.25
 76
     3
 10
101.3035901610667
 20
81.06052059005042
 30
0.0
 10
118.3643533488295
 20
70.42769134023197
 30
0.0
 10
120.8643533488296
 20
70.42769134023197
 30
0.0
340
251F
213
-0.625
223
0.625
233
0.0
1001
ACAD
1000
DSTYLE
1002
{
1070
   147
1040
0.625
1070
    77
1070
     1
1002
}
  0
MTEXT
  5
251F
102
{ACAD_XDICTIONARY
360
2B66
102
}
102
{ACAD_REACTORS
330
251E
102
}
330
1F
100
AcDbEntity
  8
SOLBET_Wymiary_Opisy
100
AcDbMText
 10
163.3643533488296
 20
73.67769134023197
 30
0.0
 40
2.5
 41
0.0
 71
     3
 72
     1
  1
Zbrojenie p\U+0142yty balkonowej
  7
Solbet_2_5
 73
     1
 44
1.0
1001
ACAD
1000
MTEXTBEGIN
1070
    73
1070
     1
1070
    44
1040
1.0
1070
    74
1070
     0
1000
MTEXTEND
  0
LEADER
  5
2532
330
1F
100
AcDbEntity
  8
SOLBET_Wymiary_Opisy
100
AcDbLeader
  3
Solbet$7
 73
     0
 75
     1
 40
2.501893939393939
 41
29.75
 76
     3
 10
65.29327242864974
 20
83.78683389763924
 30
0.0
 10
54.65360167497602
 20
78.81380311504901
 30
0.0
 10
52.15360167497602
 20
78.81380311504901
 30
0.0
340
2533
213
-0.1378614245804783
223
-0.10829748795868
233
0.0
1001
ACAD
1000
DSTYLE
1002
{
1070
   147
1040
0.625
1070
    77
1070
     1
1002
}
  0
MTEXT
  5
2533
102
{ACAD_REACTORS
330
2532
102
}
330
1F
100
AcDbEntity
  8
SOLBET_Wymiary_Opisy
100
AcDbMText
 10
51.66646309955649
 20
82.04899454240162
 30
0.0
 40
2.5
 41
0.0
 71
     3
 72
     1
  1
Barierka balkonowa
  7
Solbet_2_5
 73
     1
 44
1.0
1001
ACAD
1000
MTEXTBEGIN
1070
    73
1070
     1
1070
    44
1040
1.0
1070
    74
1070
     0
1000
MTEXTEND
  0
MTEXT
  5
2545
102
{ACAD_XDICTIONARY
360
2A24
102
}
330
1F
100
AcDbEntity
  8
SOLBET_Wymiary_Opisy
100
AcDbMText
 10
62.03232046976245
 20
145.3999210934378
 30
0.0
 40
5.0
 41
30.77919768571883
 71
     1
 72
     5
  1
\pxqc;A\P(3 : 1)
  7
Solbet_5
 73
     1
 44
1.0
1001
ACAD
1000
MTEXTBEGIN
1070
    73
1070
     1
1070
    44
1040
1.0
1070
    74
1070
     0
1000
MTEXTEND
1000
ACAD_MTEXT_DEFINED_HEIGHT_BEGIN
1070
    46
1040
23.42535011036716
1000
ACAD_MTEXT_DEFINED_HEIGHT_END
  0
LEADER
  5
25D1
330
1F
100
AcDbEntity
  8
SOLBET_Wymiary_Opisy
100
AcDbLeader
  3
Solbet$7
 73
     0
 74
     0
 75
     1
 40
3.5
 41
37.25
 76
     3
 10
253.9357669818271
 20
102.2665174411999
 30
0.0
 10
278.6373506019688
 20
114.6921494566211
 30
0.0
 10
281.1373506019688
 20
114.6921494566211
 30
0.0
213
1.177601578005123
223
-0.1753245211093599
233
0.0
1001
ACAD
1000
DSTYLE
1002
{
1070
   147
1040
0.625
1070
    77
1070
     1
1002
}
  0
MTEXT
  5
25D2
102
{ACAD_XDICTIONARY
360
2B68
102
}
102
{ACAD_REACTORS
330
25D1
102
}
330
1F
100
AcDbEntity
  8
SOLBET_Wymiary_Opisy
100
AcDbMText
 10
280.9244366262626
 20
118.1921494566211
 30
0.0
 40
2.5
 41
0.0
 71
     1
 72
     1
  1
Warstwa wyko\U+0144czeniowa
  7
Solbet_2_5
 73
     1
 44
1.0
1001
ACAD
1000
MTEXTBEGIN
1070
    73
1070
     1
1070
    44
1040
1.0
1070
    74
1070
     0
1000
MTEXTEND
  0
LEADER
  5
25D3
330
1F
100
AcDbEntity
  8
SOLBET_Wymiary_Opisy
100
AcDbLeader
  3
Solbet$7
 73
     0
 74
     0
 75
     1
 40
3.25
 41
32.5
 76
     3
 10
255.0503058040234
 20
95.93263773371097
 30
0.0
 10
278.2709403084207
 20
107.8862917558813
 30
0.0
 10
280.7709403084207
 20
107.8862917558813
 30
0.0
213
0.0
223
-0.2322806831707567
233
0.0
1001
ACAD
1000
DSTYLE
1002
{
1070
   147
1040
0.625
1070
    77
1070
     1
1002
}
  0
MTEXT
  5
25D4
102
{ACAD_REACTORS
330
25D3
102
}
330
1F
100
AcDbEntity
  8
SOLBET_Wymiary_Opisy
100
AcDbMText
 10
280.7709403084207
 20
111.1362917558813
 30
0.0
 40
2.5
 41
0.0
 71
     1
 72
     1
  1
Wylewka jastrychowa
  7
Solbet_2_5
 73
     1
 44
1.0
1001
ACAD
1000
MTEXTBEGIN
1070
    73
1070
     1
1070
    44
1040
1.0
1070
    74
1070
     0
1000
MTEXTEND
  0
LEADER
  5
25D5
330
1F
100
AcDbEntity
  8
SOLBET_Wymiary_Opisy
100
AcDbLeader
  3
Solbet$7
 73
     0
 74
     0
 75
     1
 40
3.25
 41
19.75
 76
     3
 10
256.5325843246335
 20
87.63141158060284
 30
0.0
 10
278.8849193257367
 20
100.3702704201323
 30
0.0
 10
281.3849193257368
 20
100.3702704201323
 30
0.0
213
0.0
223
-0.2322806831707567
233
0.0
1001
ACAD
1000
DSTYLE
1002
{
1070
   147
1040
0.625
1070
    77
1070
     1
1002
}
  0
MTEXT
  5
25D6
102
{ACAD_REACTORS
330
25D5
102
}
330
1F
100
AcDbEntity
  8
SOLBET_Wymiary_Opisy
100
AcDbMText
 10
281.3849193257368
 20
103.6202704201323
 30
0.0
 40
2.5
 41
0.0
 71
     1
 72
     1
  1
Hydroizolacja
  7
Solbet_2_5
 73
     1
 44
1.0
1001
ACAD
1000
MTEXTBEGIN
1070
    73
1070
     1
1070
    44
1040
1.0
1070
    74
1070
     0
1000
MTEXTEND
  0
LEADER
  5
25D7
330
1F
100
AcDbEntity
  8
SOLBET_Wymiary_Opisy
100
AcDbLeader
  3
Solbet$7
 73
     0
 74
     0
 75
     1
 40
3.25
 41
36.5
 76
     3
 10
258.8656432016313
 20
79.48297277397171
 30
0.0
 10
278.2709403084207
 20
90.70681605601931
 30
0.0
 10
280.7709403084207
 20
90.70681605601931
 30
0.0
213
0.0
223
-0.2322806831707567
233
0.0
1001
ACAD
1000
DSTYLE
1002
{
1070
   147
1040
0.625
1070
    77
1070
     1
1002
}
  0
MTEXT
  5
25D8
102
{ACAD_XDICTIONARY
360
2B6A
102
}
102
{ACAD_REACTORS
330
25D7
102
}
330
1F
100
AcDbEntity
  8
SOLBET_Wymiary_Opisy
100
AcDbMText
 10
280.7709403084207
 20
93.9568160560193
 30
0.0
 40
2.5
 41
0.0
 71
     1
 72
     1
  1
P\U+0142yty izolacyjne twarde
  7
Solbet_2_5
 73
     1
 44
1.0
1001
ACAD
1000
MTEXTBEGIN
1070
    73
1070
     1
1070
    44
1040
1.0
1070
    74
1070
     0
1000
MTEXTEND
  0
MTEXT
  5
25E3
102
{ACAD_XDICTIONARY
360
2A26
102
}
330
1F
100
AcDbEntity
  8
SOLBET_Wymiary_Opisy
100
AcDbMText
 10
231.9509800779745
 20
128.8528202340767
 30
0.0
 40
5.0
 41
30.77919768571883
 71
     1
 72
     5
  1
\pxqc;B\P(5 : 1)
  7
Solbet_5
 73
     1
 44
1.0
1001
ACAD
1000
MTEXTBEGIN
1070
    73
1070
     1
1070
    44
1040
1.0
1070
    74
1070
     0
1000
MTEXTEND
1000
ACAD_MTEXT_DEFINED_HEIGHT_BEGIN
1070
    46
1040
23.42535011036716
1000
ACAD_MTEXT_DEFINED_HEIGHT_END
  0
CIRCLE
  5
25E8
330
1F
100
AcDbEntity
  8
SOLBET_Wymiary_Opisy
100
AcDbCircle
 10
229.7718975004264
 20
205.0295381743151
 30
0.0
 40
6.72794034480946
  0
LEADER
  5
25E9
330
1F
100
AcDbEntity
  8
SOLBET_Wymiary_Opisy
100
AcDbLeader
  3
Solbet$7
 73
     0
 74
     0
 75
     1
 40
5.0
 41
4.0
 76
     3
 10
234.3156514498387
 20
209.9913404003732
 30
0.0
 10
237.2868016506552
 20
213.9898271394172
 30
0.0
 10
239.7868016506552
 20
213.9898271394172
 30
0.0
213
0.8103787685154202
223
-0.1753245211093599
233
0.0
1001
ACAD
1000
DSTYLE
1002
{
1070
   341
1005
1EF2
1070
   147
1040
0.625
1070
    77
1070
     1
1002
}
  0
MTEXT
  5
25EA
102
{ACAD_REACTORS
330
25E9
102
}
330
1F
100
AcDbEntity
  8
SOLBET_Wymiary_Opisy
100
AcDbMText
 10
243.6014228821398
 20
219.7901516605265
 30
0.0
 40
5.0
 41
0.0
 71
     3
 72
     1
  1
B
  7
Solbet_5
 73
     1
 44
1.0
1001
ACAD
1000
MTEXTBEGIN
1070
    73
1070
     1
1070
    44
1040
1.0
1070
    74
1070
     0
1000
MTEXTEND
  0
LINE
  5
25FA
330
1F
100
AcDbEntity
  8
SOLBET_Zbrojenie_Konstrukcja
100
AcDbLine
 10
251.2919514122952
 20
56.65221501274368
 30
0.0
 11
255.9190609332957
 21
47.97638466086937
 31
0.0
  0
LINE
  5
25FB
330
1F
100
AcDbEntity
  8
SOLBET_Zbrojenie_Konstrukcja
100
AcDbLine
 10
246.0244414209267
 20
46.77563377892693
 30
0.0
 11
251.2919514122952
 21
56.65221501274368
 31
0.0
  0
LINE
  5
25FC
330
1F
100
AcDbEntity
  8
SOLBET_Zbrojenie_Konstrukcja
100
AcDbLine
 10
266.2865587918215
 20
56.65221501274436
 30
0.0
 11
223.1402262051399
 21
56.65221501274413
 31
0.0
  0
LINE
  5
25FD
330
1F
100
AcDbEntity
  8
SOLBET_Emulsje_Folie
100
AcDbLine
 10
214.1101513240703
 20
87.63141158060284
 30
0.0
 11
266.286558791898
 21
87.63141158060284
 31
0.0
  0
LWPOLYLINE
  5
25FE
330
1F
100
AcDbEntity
  8
SOLBET_Zbrojenie_Konstrukcja
100
AcDbPolyline
 90
        2
 70
     1
 43
1.5
 10
235.8283007082257
 20
67.07868556217113
 42
1.0
 10
237.3283007082835
 20
67.07868556217113
 42
1.0
  0
LWPOLYLINE
  5
25FF
330
1F
100
AcDbEntity
  8
SOLBET_Zbrojenie_Konstrukcja
100
AcDbPolyline
 90
        4
 70
     0
 43
0.0
 10
232.4840129186712
 20
50.03837721313288
 10
238.2494006273526
 20
67.07868556217113
 42
1.0
 10
234.7236766970211
 20
67.07868556217113
 10
232.7587781206423
 20
61.27118755718538
  0
LWPOLYLINE
  5
2600
330
1F
100
AcDbEntity
  8
SOLBET_Zbrojenie_Konstrukcja
100
AcDbPolyline
 90
        4
 70
     0
 43
0.0
 10
214.8777927911212
 20
70.29717684668276
 10
235.9029999044326
 20
70.29717684668276
 42
-0.4142135623730951
 10
238.4029999044326
 20
67.79717684668276
 10
238.4029999044326
 20
47.87006682461606
  0
LINE
  5
2601
330
1F
100
AcDbEntity
  8
SOLBET_Beton
100
AcDbLine
 10
266.286558791898
 20
66.65221501272867
 30
0.0
 11
242.4703124786213
 21
66.65221501272867
 31
0.0
  0
LINE
  5
2602
330
1F
100
AcDbEntity
  8
SOLBET_Beton
100
AcDbLine
 10
242.4703124786213
 20
66.65221501272867
 30
0.0
 11
242.4703124786213
 21
47.06398952146741
 31
0.0
  0
LWPOLYLINE
  5
2603
330
1F
100
AcDbEntity
  8
SOLBET_Tynki_Posadzki
100
AcDbPolyline
 90
        4
 70
     0
 43
0.0
 10
222.5250826900799
 20
103.5187491805129
 10
266.286558791898
 20
103.5187491805129
 10
266.286558791898
 20
101.0187491805129
 10
220.3821675806078
 20
101.0187491805129
  0
HATCH
  5
2604
330
1F
100
AcDbEntity
  8
SOLBET_Tynki_Posadzki
100
AcDbHatch
 10
0.0
 20
0.0
 30
0.0
210
0.0
220
0.0
230
1.0
  2
AR-CONC
 70
     0
 71
     1
 91
        1
 92
        7
 72
     1
 73
     1
 93
        4
 10
266.286558791898
 20
88.51874918049839
 42
0.0
 10
266.2865587918979
 20
101.0187491805129
 42
0.0
 10
220.382167580608
 20
101.0187491805129
 42
0.1043755579106064
 10
214.318043376497
 20
88.51874918049839
 42
0.0
 97
        2
330
2605
330
260A
 75
     0
 76
     1
 52
0.0
 41
0.05
 77
     0
 78
    13
 53
50.0
 43
0.0
 44
0.0
 45
9.1092334498002
 46
-0.7969542769451543
 79
     2
 49
0.9525000000000002
 49
-10.4775
 53
355.0
 43
0.0
 44
0.0
 45
-1.762141298783349
 46
9.552832144108998
 79
     2
 49
0.762
 49
-8.381999999999999
 53
100.451
 43
0.7591000000000001
 44
-0.0664125
 45
7.347125083297962
 46
8.755834391014593
 79
     2
 49
0.8095
 49
-8.9045
 53
46.1842
 43
0.0
 44
2.54
 45
13.5539520446065
 46
-2.102116396636357
 79
     2
 49
1.428749999999999
 49
-15.71625
 53
96.63559999999998
 43
1.129495
 44
2.364825
 45
11.87021172331186
 46
12.37127779450246
 79
     2
 49
1.21425
 49
-13.35675
 53
351.184
 43
0.0
 44
2.54
 45
11.87023029069669
 46
12.37125589302988
 79
     2
 49
1.143
 49
-12.573
 53
21.0
 43
1.27
 44
1.905
 45
7.580743991769164
 46
-5.113275925838125
 79
     2
 49
0.9525000000000002
 49
-10.4775
 53
326.0
 43
1.27
 44
1.905
 45
3.090101417382353
 46
9.209398306115962
 79
     2
 49
0.762
 49
-8.381999999999999
 53
71.45140000000001
 43
1.901725
 44
1.478895
 45
10.67082453850622
 46
4.096142885802872
 79
     2
 49
0.8095
 49
-8.9045
 53
37.5
 43
0.0
 44
0.0
 45
0.1544301625295909
 46
4.227751943657655
 79
     6
 49
0.0
 49
-8.2804
 49
0.0
 49
-8.509
 49
0.0
 49
-8.41375
 53
7.499999999999999
 43
0.0
 44
0.0
 45
3.340983125515287
 46
5.009028740905975
 79
     6
 49
0.0
 49
-4.851399999999999
 49
0.0
 49
-8.0899
 49
0.0
 49
-3.20675
 53
327.5
 43
-2.8321
 44
0.0
 45
6.779529758343568
 46
-0.2864371996336732
 79
     6
 49
0.0
 49
-3.175
 49
0.0
 49
-9.906
 49
0.0
 49
-13.1445
 53
317.5
 43
-4.1021
 44
0.0
 45
7.406459069300902
 46
1.27132455166665
 79
     6
 49
0.0
 49
-4.1275
 49
0.0
 49
-6.5786
 49
0.0
 49
-9.3345
 47
0.0
 98
        1
 10
241.5182392428244
 20
94.64245124565946
1001
ACAD
1010
0.0
1020
0.0
1030
0.0
  0
LWPOLYLINE
  5
2605
102
{ACAD_REACTORS
330
2604
102
}
330
1F
100
AcDbEntity
  8
SOLBET_Tynki_Posadzki
100
AcDbPolyline
 90
        4
 70
     0
 43
0.0
 10
214.3180433764972
 20
88.51874918049839
 10
266.286558791898
 20
88.51874918049839
 10
266.286558791898
 20
101.0187491805129
 10
220.3821675806078
 20
101.0187491805129
  0
LINE
  5
2606
330
1F
100
AcDbEntity
  8
SOLBET_Izolacja
100
AcDbLine
 10
213.909889828027
 20
86.65221501272867
 30
0.0
 11
266.286558791898
 21
86.65221501272867
 31
0.0
  0
LINE
  5
2607
330
1F
100
AcDbEntity
  8
SOLBET_Izolacja
100
AcDbLine
 10
266.2865587918975
 20
74.15221501274323
 30
0.0
 11
213.909889828027
 21
74.15221501274277
 31
0.0
  0
LINE
  5
2608
330
1F
100
AcDbEntity
  8
SOLBET_Izolacja
  6
BATTING
 48
0.61
100
AcDbLine
 10
266.286558791898
 20
80.40221501273595
 30
0.0
 11
213.3241898599392
 21
80.40221501273686
 31
0.0
  0
LINE
  5
2609
330
1F
100
AcDbEntity
  8
SOLBET_Wymiary_Opisy
 62
     1
100
AcDbLine
 10
266.2865587918975
 20
103.5187491805129
 30
0.0
 11
266.2865587918984
 21
52.86562001525794
 31
0.0
  0
ARC
  5
260A
102
{ACAD_REACTORS
330
2604
102
}
330
1F
100
AcDbEntity
  8
SOLBET_Wymiary_Opisy
100
AcDbCircle
 10
246.9638915839862
 20
80.4022150127364
 30
0.0
 40
33.6397017240473
100
AcDbArc
 50
136.5926968744802
 51
305.0576715446705
  0
LEADER
  5
2623
330
1F
100
AcDbEntity
  8
SOLBET_Wymiary_Opisy
100
AcDbLeader
  3
Solbet$7
 73
     0
 74
     0
 75
     1
 40
3.25
 41
50.0
 76
     3
 10
229.9059373325883
 20
64.19907322925041
 30
0.0
 10
275.879983411344
 20
40.74841353805368
 30
0.0
 10
278.379983411344
 20
40.74841353805368
 30
0.0
340
2624
213
1.177601578005123
223
-0.1753245211093599
233
0.0
1001
ACAD
1000
DSTYLE
1002
{
1070
   147
1040
0.625
1070
    77
1070
     1
1002
}
  0
MTEXT
  5
2624
102
{ACAD_XDICTIONARY
360
2B6C
102
}
102
{ACAD_REACTORS
330
2623
102
}
330
1F
100
AcDbEntity
  8
SOLBET_Wymiary_Opisy
100
AcDbMText
 10
277.8273818333389
 20
44.79873805916304
 30
0.0
 40
2.5
 41
0.0
 71
     1
 72
     1
  1
Zbrojenie w \U+017Cebrze rozdzielczym
  7
Solbet_2_5
 73
     1
 44
1.0
1001
ACAD
1000
MTEXTBEGIN
1070
    73
1070
     1
1070
    44
1040
1.0
1070
    74
1070
     0
1000
MTEXTEND
  0
LEADER
  5
262F
330
1F
100
AcDbEntity
  8
SOLBET_Wymiary_Opisy
100
AcDbLeader
  3
Solbet$7
 73
     0
 74
     0
 75
     1
 40
3.25
 41
20.25
 76
     3
 10
216.2482835520634
 20
191.2795381743165
 30
0.0
 10
232.8868851448201
 20
164.3728600393101
 30
0.0
 10
235.3868851448201
 20
164.3728600393101
 30
0.0
340
2630
213
1.177601578005123
223
-0.1753245211093599
233
0.0
1001
ACAD
1000
DSTYLE
1002
{
1070
   147
1040
0.625
1070
    77
1070
     1
1002
}
  0
MTEXT
  5
2630
102
{ACAD_REACTORS
330
262F
102
}
330
1F
100
AcDbEntity
  8
SOLBET_Wymiary_Opisy
100
AcDbMText
 10
255.084283566815
 20
168.4231845604195
 30
0.0
 40
2.5
 41
0.0
 71
     3
 72
     1
  1
Tynk SOLBET
  7
Solbet_2_5
 73
     1
 44
1.0
1001
ACAD
1000
MTEXTBEGIN
1070
    73
1070
     1
1070
    44
1040
1.0
1070
    74
1070
     0
1000
MTEXTEND
  0
LEADER
  5
2631
330
1F
100
AcDbEntity
  8
SOLBET_Wymiary_Opisy
100
AcDbLeader
  3
Solbet$7
 73
     0
 74
     0
 75
     1
 40
3.25
 41
19.5
 76
     3
 10
222.9474761832985
 20
194.9950456155646
 30
0.0
 10
232.2436796051561
 20
178.4388499211101
 30
0.0
 10
234.7436796051561
 20
178.4388499211101
 30
0.0
340
2632
213
0.6250000000000285
223
-0.1753245211093031
233
0.0
1001
ACAD
1000
DSTYLE
1002
{
1070
   147
1040
0.625
1070
    77
1070
     1
1002
}
  0
MTEXT
  5
2632
102
{ACAD_REACTORS
330
2631
102
}
330
1F
100
AcDbEntity
  8
SOLBET_Wymiary_Opisy
100
AcDbMText
 10
254.2436796051561
 20
182.4891744422194
 30
0.0
 40
2.5
 41
0.0
 71
     3
 72
     1
  1
Strop Teriva
  7
Solbet_2_5
 73
     1
 44
1.0
1001
ACAD
1000
MTEXTBEGIN
1070
    73
1070
     1
1070
    44
1040
1.0
1070
    74
1070
     0
1000
MTEXTEND
  0
MTEXT
  5
263E
330
1F
100
AcDbEntity
  8
SOLBET_Wymiary_Opisy
100
AcDbMText
 10
113.9847094972306
 20
220.7346299050549
 30
0.0
 40
5.0
 41
8.119090237798445
 71
     1
 72
     5
  1
2%
  7
Solbet_5
 73
     1
 44
1.0
1001
ACAD
1000
MTEXTBEGIN
1070
    73
1070
     1
1070
    44
1040
1.0
1070
    74
1070
     0
1000
MTEXTEND
  0
LINE
  5
26A6
330
1F
100
AcDbEntity
  8
SOLBET_Zaprawy
100
AcDbLine
 10
80.35864700411366
 20
193.5439480850777
 30
0.0
 11
80.22698511480802
 21
193.5439480850777
 31
0.0
  0
LINE
  5
26A7
330
1F
100
AcDbEntity
  8
SOLBET_Zaprawy
100
AcDbLine
 10
80.22698511480802
 20
193.5439480850777
 30
0.0
 11
80.22698511480802
 21
202.2733757121778
 31
0.0
  0
LINE
  5
27A6
330
1F
100
AcDbEntity
  8
SOLBET_Tynki_Posadzki
100
AcDbLine
 10
155.3875094660934
 20
179.5097967972395
 30
0.0
 11
177.6375094660997
 21
179.5097967972395
 31
0.0
  0
LINE
  5
27F7
330
1F
100
AcDbEntity
  8
SOLBET_Tynki_Posadzki
100
AcDbLine
 10
155.2875094660883
 20
215.8795381743136
 30
0.0
 11
155.2875094660883
 21
206.8781581123296
 31
0.0
  0
LINE
  5
27F8
330
1F
100
AcDbEntity
  8
SOLBET_Tynki_Posadzki
100
AcDbLine
 10
155.2875094660883
 20
215.8795381743136
 30
0.0
 11
155.3875094660882
 21
215.8795381743136
 31
0.0
  0
LINE
  5
2946
330
1F
100
AcDbEntity
  8
SOLBET_Zbrojenie_Konstrukcja
100
AcDbLine
 10
163.3479985081799
 20
203.9763290461277
 30
0.0
 11
173.1263953061982
 21
203.9763290461207
 31
0.0
  0
LINE
  5
2962
330
1F
100
AcDbEntity
  8
SOLBET_Wymiary_Opisy
100
AcDbLine
 10
212.0297128289992
 20
216.7574531874375
 30
0.0
 11
184.3749684795703
 21
216.7574531874375
 31
0.0
1001
ACAD
1000
DSTYLE
1002
{
1070
   147
1040
0.625
1070
    77
1070
     1
1002
}
  0
MTEXT
  5
2963
330
1F
100
AcDbEntity
  8
SOLBET_Wymiary_Opisy
100
AcDbMText
 10
211.9598987718137
 20
220.0359579035598
 30
0.0
 40
2.5
 41
0.0
 71
     3
 72
     1
  1
Zbrojenie MURFOR
  7
Solbet_2_5
 73
     1
 44
1.0
1001
ACAD
1000
MTEXTBEGIN
1070
    73
1070
     1
1070
    44
1040
1.0
1070
    74
1070
     0
1000
MTEXTEND
  0
INSERT
  5
2964
330
1F
100
AcDbEntity
  8
SOLBET_Wymiary_Opisy
100
AcDbBlockReference
  2
_DotSmall
 10
168.5559335105233
 20
204.229080619594
 30
0.0
 41
2.499999999999988
 42
2.5
 43
2.5
 50
331.5103074696751
1001
ACAD
1000
DSTYLE
1002
{
1070
   147
1040
0.625
1070
    77
1070
     1
1002
}
  0
LINE
  5
2965
330
1F
100
AcDbEntity
  8
SOLBET_Wymiary_Opisy
100
AcDbLine
 10
168.5559335105233
 20
204.229080619594
 30
0.0
 11
184.3749684795703
 21
216.7574531874375
 31
0.0
1001
ACAD
1000
DSTYLE
1002
{
1070
   147
1040
0.625
1070
    77
1070
     1
1002
}
  0
INSERT
  5
2A7A
330
1F
100
AcDbEntity
  8
SOLBET_Bloczki
100
AcDbBlockReference
  2
SOLBET_Ksztaltka_U_420x240x500_KG400_PRA
 10
156.1375095455989
 20
191.7795393448925
 30
0.0
 50
270.0
  0
INSERT
  5
2AC3
330
1F
100
AcDbEntity
  8
SOLBET_Bloczki
100
AcDbBlockReference
  2
SOLBET_Bloczek_Ideal_420x240x590_P+W_KG400_PRA
 10
156.1375096068375
 20
203.778366754521
 30
0.0
  0
MTEXT
  5
2B0C
102
{ACAD_XDICTIONARY
360
2B0D
102
}
330
1F
100
AcDbEntity
  8
SOLBET_Wymiary_Opisy
100
AcDbMText
 10
301.4638803459066
 20
7.273150535415538
 30
0.0
 40
5.0
 41
0.0
 71
     1
 72
     5
  1
Skala 1:20
  7
Solbet_5
 73
     1
 44
1.0
1001
ACAD
1000
MTEXTBEGIN
1070
    73
1070
     1
1070
    44
1040
1.0
1070
    74
1070
     0
1000
MTEXTEND
1000
ACAD_MTEXT_DEFINED_HEIGHT_BEGIN
1070
    46
1040
5.395147572682731
1000
ACAD_MTEXT_DEFINED_HEIGHT_END
  0
LWPOLYLINE
  5
2B0F
330
1F
100
AcDbEntity
  8
SOLBET_Ramka_05
100
AcDbPolyline
 90
        4
 70
     1
 43
0.0
 10
298.4452142249927
 20
9.804221198935465
 10
334.5613911124149
 20
9.804221198935465
 10
334.5613911124149
 20
0.0
 10
298.4452142249928
 20
0.0
  0
ENDSEC
  0
SECTION
  2
OBJECTS
  0
DICTIONARY
  5
C
330
0
100
AcDbDictionary
281
     1
  3
ACAD_COLOR
350
6B
  3
ACAD_GROUP
350
D
  3
ACAD_LAYOUT
350
1A
  3
ACAD_MATERIAL
350
6A
  3
ACAD_MLEADERSTYLE
350
12D
  3
ACAD_MLINESTYLE
350
17
  3
ACAD_PLOTSETTINGS
350
19
  3
ACAD_PLOTSTYLENAME
350
E
  3
ACAD_SCALELIST
350
10C
  3
ACAD_TABLESTYLE
350
7E
  3
ACAD_VISUALSTYLE
350
EF
  3
ACDB_RECOMPOSE_DATA
350
15D
  3
AcDbVariableDictionary
350
5E
  3
DWGPROPS
350
2B4A
  0
DICTIONARY
  5
443
330
8
100
AcDbDictionary
280
     1
281
     1
  0
DICTIONARY
  5
3E5
330
2
100
AcDbDictionary
280
     1
281
     1
  3
ACAD_LAYERFILTERS
360
1883
  3
ACLYDICTIONARY
360
1882
  0
DICTIONARY
  5
13C
330
10
100
AcDbDictionary
280
     1
281
     1
  3
ADSK_XREC_LAYER_RECONCILED
360
3F4
  0
DICTIONARY
  5
403
330
3DD
100
AcDbDictionary
280
     1
281
     1
  3
ADSK_XREC_LAYER_RECONCILED
360
404
  0
DICTIONARY
  5
405
330
3DF
100
AcDbDictionary
280
     1
281
     1
  3
ADSK_XREC_LAYER_RECONCILED
360
406
  0
DICTIONARY
  5
407
330
3E0
100
AcDbDictionary
280
     1
281
     1
  3
ADSK_XREC_LAYER_RECONCILED
360
408
  0
DICTIONARY
  5
409
330
3E1
100
AcDbDictionary
280
     1
281
     1
  3
ADSK_XREC_LAYER_RECONCILED
360
40A
  0
DICTIONARY
  5
40B
330
3E2
100
AcDbDictionary
280
     1
281
     1
  3
ADSK_XREC_LAYER_RECONCILED
360
40C
  0
DICTIONARY
  5
40F
330
3E4
100
AcDbDictionary
280
     1
281
     1
  3
ADSK_XREC_LAYER_RECONCILED
360
410
  0
DICTIONARY
  5
411
330
3E8
100
AcDbDictionary
280
     1
281
     1
  3
ADSK_XREC_LAYER_RECONCILED
360
412
  0
DICTIONARY
  5
2A20
330
2A1F
100
AcDbDictionary
280
     1
281
     1
  3
ASDK_XREC_ANNO_SCALE_INFO
360
2A21
  0
DICTIONARY
  5
4A3
330
1F
100
AcDbDictionary
280
     1
281
     1
  3
ACAD_SORTENTS
360
4A4
  0
DICTIONARY
  5
234C
330
2340
100
AcDbDictionary
280
     1
281
     1
  3
ACAD_SORTENTS
360
234D
  0
DICTIONARY
  5
2361
330
2353
100
AcDbDictionary
280
     1
281
     1
  3
ACAD_SORTENTS
360
2362
  0
DICTIONARY
  5
2A76
330
2A68
100
AcDbDictionary
280
     1
281
     1
  3
ACAD_SORTENTS
360
2A77
  0
DICTIONARY
  5
2ABF
330
2AB3
100
AcDbDictionary
280
     1
281
     1
  3
ACAD_SORTENTS
360
2AC0
  0
DICTIONARY
  5
233A
330
2339
100
AcDbDictionary
280
     1
281
     1
  3
AcDbContextDataManager
360
233B
  0
DICTIONARY
  5
2B57
330
2397
100
AcDbDictionary
280
     1
281
     1
  3
ACAD_XREC_ROUNDTRIP
360
2B58
  0
DICTIONARY
  5
2B59
330
23D2
100
AcDbDictionary
280
     1
281
     1
  3
ACAD_XREC_ROUNDTRIP
360
2B5A
  0
DICTIONARY
  5
2B5B
330
24FE
100
AcDbDictionary
280
     1
281
     1
  3
ACAD_MTEXT_RT
360
2B5C
  0
DICTIONARY
  5
2B5D
330
2500
100
AcDbDictionary
280
     1
281
     1
  3
ACAD_MTEXT_RT
360
2B5E
  0
DICTIONARY
  5
2B5F
330
2504
100
AcDbDictionary
280
     1
281
     1
  3
ACAD_MTEXT_RT
360
2B60
  0
DICTIONARY
  5
2B61
330
2506
100
AcDbDictionary
280
     1
281
     1
  3
ACAD_MTEXT_RT
360
2B62
  0
DICTIONARY
  5
2B63
330
2509
100
AcDbDictionary
280
     1
281
     1
  3
ACAD_MTEXT_RT
360
2B64
  0
DICTIONARY
  5
2A22
330
250B
100
AcDbDictionary
280
     1
281
     1
  3
ACAD_MTEXT_2008_RT
360
2A23
  3
ACAD_MTEXT_RT
360
2B65
  0
DICTIONARY
  5
2B66
330
251F
100
AcDbDictionary
280
     1
281
     1
  3
ACAD_MTEXT_RT
360
2B67
  0
DICTIONARY
  5
2A24
330
2545
100
AcDbDictionary
280
     1
281
     1
  3
ACAD_MTEXT_2008_RT
360
2A25
  0
DICTIONARY
  5
2B68
330
25D2
100
AcDbDictionary
280
     1
281
     1
  3
ACAD_MTEXT_RT
360
2B69
  0
DICTIONARY
  5
2B6A
330
25D8
100
AcDbDictionary
280
     1
281
     1
  3
ACAD_MTEXT_RT
360
2B6B
  0
DICTIONARY
  5
2A26
330
25E3
100
AcDbDictionary
280
     1
281
     1
  3
ACAD_MTEXT_2008_RT
360
2A27
  0
DICTIONARY
  5
2B6C
330
2624
100
AcDbDictionary
280
     1
281
     1
  3
ACAD_MTEXT_RT
360
2B6D
  0
DICTIONARY
  5
2B0D
330
2B0C
100
AcDbDictionary
280
     1
281
     1
  3
ACAD_MTEXT_2008_RT
360
2B0E
  0
DICTIONARY
  5
6B
102
{ACAD_REACTORS
330
C
102
}
330
C
100
AcDbDictionary
281
     1
  0
DICTIONARY
  5
D
102
{ACAD_REACTORS
330
C
102
}
330
C
100
AcDbDictionary
281
     1
  0
DICTIONARY
  5
1A
102
{ACAD_REACTORS
330
C
102
}
330
C
100
AcDbDictionary
281
     1
  3
Arkusz1
350
D3
  3
Arkusz2
350
D7
  3
Model
350
22
  0
DICTIONARY
  5
6A
102
{ACAD_REACTORS
330
C
102
}
330
C
100
AcDbDictionary
281
     1
  3
ByBlock
350
ED
  3
ByLayer
350
EC
  3
Global
350
EE
  0
DICTIONARY
  5
12D
102
{ACAD_REACTORS
330
C
102
}
330
C
100
AcDbDictionary
281
     1
  3
Standard
350
12E
  0
DICTIONARY
  5
17
102
{ACAD_REACTORS
330
C
102
}
330
C
100
AcDbDictionary
281
     1
  3
SOLBET_IZOLACJA
350
7E9
  3
Standard
350
18
  0
DICTIONARY
  5
19
102
{ACAD_REACTORS
330
C
102
}
330
C
100
AcDbDictionary
281
     1
  0
ACDBDICTIONARYWDFLT
  5
E
102
{ACAD_REACTORS
330
C
102
}
330
C
100
AcDbDictionary
281
     1
  3
Normal
350
F
100
AcDbDictionaryWithDefault
340
F
  0
DICTIONARY
  5
10C
102
{ACAD_REACTORS
330
C
102
}
330
C
100
AcDbDictionary
281
     1
  3
A0
350
10D
  3
A1
350
188
  3
A2
350
189
  3
A3
350
18A
  3
A4
350
18B
  3
A5
350
18C
  3
A6
350
18D
  3
A7
350
18E
  3
A8
350
18F
  3
A9
350
190
  3
B0
350
191
  3
B1
350
192
  3
B2
350
193
  3
B3
350
194
  3
B4
350
195
  3
B5
350
196
  3
B6
350
197
  3
B7
350
198
  3
B8
350
199
  3
B9
350
19A
  3
C0
350
19B
  3
C1
350
19C
  3
C2
350
19D
  3
C3
350
19E
  3
C4
350
19F
  3
C5
350
1A0
  3
C6
350
1A1
  3
C7
350
1A2
  3
C8
350
1A3
  3
C9
350
1A4
  3
D0
350
1A5
  3
D1
350
1A6
  3
D2
350
1A7
  0
DICTIONARY
  5
7E
102
{ACAD_REACTORS
330
C
102
}
330
C
100
AcDbDictionary
281
     1
  3
Standard
350
7F
  0
DICTIONARY
  5
EF
102
{ACAD_REACTORS
330
C
102
}
330
C
100
AcDbDictionary
281
     1
  3
2dWireframe
350
F5
  3
3D Hidden
350
F7
  3
3dWireframe
350
F6
  3
Basic
350
F4
  3
Brighten
350
FB
  3
ColorChange
350
FF
  3
Conceptual
350
F8
  3
Dim
350
FA
  3
Facepattern
350
FE
  3
Flat
350
F0
  3
FlatWithEdges
350
F1
  3
Gouraud
350
F2
  3
GouraudWithEdges
350
F3
  3
Linepattern
350
FD
  3
Realistic
350
F9
  3
Thicken
350
FC
  0
XRECORD
  5
15D
102
{ACAD_REACTORS
330
C
102
}
330
C
100
AcDbXrecord
280
     1
 90
        1
330
7F
330
2339
330
250B
330
2545
330
25E3
  0
DICTIONARY
  5
5E
102
{ACAD_REACTORS
330
C
102
}
330
C
100
AcDbDictionary
281
     1
  3
CANNOSCALE
350
146
  3
CMLEADERSTYLE
350
145
  3
CTABLESTYLE
350
84
  3
DIMASSOC
350
5F
  3
HIDETEXT
350
63
  3
INDEXCTL
350
466
  3
LIGHTINGUNITS
350
464
  3
MSLTSCALE
350
463
  3
PSOLHEIGHT
350
2B49
  3
PSOLWIDTH
350
2B48
  3
SORTENTS
350
465
  0
XRECORD
  5
2B4A
102
{ACAD_REACTORS
330
C
102
}
330
C
100
AcDbXrecord
280
     1
  1
DWGPROPS COOKIE
  2

  3

  4

  6

  7

  8
Olus
  9

300
=
301
=
302
=
303
=
304
=
305
=
306
=
307
=
308
=
309
=
 40
0.5782454976851853
 41
2454690.075573148
 42
2454848.881120961
  1

 90
        0
  0
DICTIONARY
  5
1883
102
{ACAD_REACTORS
330
3E5
102
}
330
3E5
100
AcDbDictionary
281
     1
  0
DICTIONARY
  5
1882
102
{ACAD_REACTORS
330
3E5
102
}
330
3E5
100
AcDbDictionary
281
     1
1001
ACAD
1000
<All
  0
XRECORD
  5
3F4
102
{ACAD_REACTORS
330
13C
102
}
330
13C
100
AcDbXrecord
280
     1
290
     1
  0
XRECORD
  5
404
102
{ACAD_REACTORS
330
403
102
}
330
403
100
AcDbXrecord
280
     1
290
     1
  0
XRECORD
  5
406
102
{ACAD_REACTORS
330
405
102
}
330
405
100
AcDbXrecord
280
     1
290
     1
  0
XRECORD
  5
408
102
{ACAD_REACTORS
330
407
102
}
330
407
100
AcDbXrecord
280
     1
290
     1
  0
XRECORD
  5
40A
102
{ACAD_REACTORS
330
409
102
}
330
409
100
AcDbXrecord
280
     1
290
     1
  0
XRECORD
  5
40C
102
{ACAD_REACTORS
330
40B
102
}
330
40B
100
AcDbXrecord
280
     1
290
     1
  0
XRECORD
  5
410
102
{ACAD_REACTORS
330
40F
102
}
330
40F
100
AcDbXrecord
280
     1
290
     1
  0
XRECORD
  5
412
102
{ACAD_REACTORS
330
411
102
}
330
411
100
AcDbXrecord
280
     1
290
     1
  0
XRECORD
  5
2A21
102
{ACAD_REACTORS
330
2A20
102
}
330
2A20
100
AcDbXrecord
280
     1
 70
     1
340
10D
340
3DF
 70
    -1
  0
SORTENTSTABLE
  5
4A4
102
{ACAD_REACTORS
330
4A3
102
}
330
4A3
100
AcDbSortentsTable
330
1F
331
2297
  5
22AC
331
22A7
  5
22BE
331
2468
  5
2468
331
2411
  5
22F3
331
2382
  5
2286
331
232B
  5
2405
331
22F4
  5
2321
331
22B5
  5
22CC
331
24E7
  5
24E7
331
2419
  5
2415
331
238A
  5
228E
331
22BD
  5
22D4
331
2490
  5
2490
331
2421
  5
241D
331
22C5
  5
22DC
331
2439
  5
2425
331
230C
  5
237E
331
22CD
  5
22FB
331
24FF
  5
24FF
331
2288
  5
229D
331
24C8
  5
24C8
331
2441
  5
243F
331
23D2
  5
22B7
331
2314
  5
2386
331
24D0
  5
24D0
331
2449
  5
2449
331
2402
  5
22E4
331
22DD
  5
230A
331
24D8
  5
24D8
331
240A
  5
22EC
331
2324
  5
2397
331
2451
  5
2451
331
251F
  5
251F
331
2298
  5
22AD
331
24E0
  5
24E0
331
2412
  5
22F4
331
2383
  5
2287
331
232C
  5
2406
331
22F5
  5
2322
331
22B6
  5
22CD
331
24E8
  5
24E8
331
2489
  5
2489
331
241A
  5
2416
331
238B
  5
228F
331
22BE
  5
22D5
331
2491
  5
2491
331
2422
  5
241E
331
22C6
  5
22DD
331
2500
  5
2500
331
230D
  5
237F
331
22CE
  5
22FC
331
2279
  5
2279
331
2281
  5
2446
331
2508
  5
2508
331
24C9
  5
24C9
331
2442
  5
2440
331
2315
  5
2387
331
24D1
  5
24D1
331
244A
  5
244A
331
2403
  5
22E5
331
22DE
  5
230B
331
24D9
  5
24D9
331
240B
  5
22ED
331
2325
  5
23D1
331
2452
  5
2452
331
237C
  5
2280
331
22EE
  5
231B
331
24E1
  5
24E1
331
2413
  5
22F5
331
2384
  5
2288
331
232D
  5
2407
331
24E9
  5
24E9
331
248A
  5
248A
331
241B
  5
2417
331
238C
  5
2290
331
22BF
  5
22D6
331
2492
  5
2492
331
2423
  5
241F
331
22C7
  5
22DE
331
2501
  5
2501
331
243B
  5
2427
331
22CF
  5
22FD
331
227A
  5
227A
331
2282
  5
2297
331
228A
  5
229F
331
2509
  5
2509
331
24CA
  5
24CA
331
2443
  5
2441
331
2316
  5
2388
331
24D2
  5
24D2
331
244B
  5
244B
331
2404
  5
22E6
331
231E
  5
2391
331
22DF
  5
230C
331
24DA
  5
24DA
331
240C
  5
22EE
331
2326
  5
23D2
331
22E7
  5
2314
331
2453
  5
2453
331
237D
  5
2281
331
22EF
  5
231C
331
229A
  5
22AE
331
22A2
  5
22B9
331
24E2
  5
24E2
331
2414
  5
22F6
331
2385
  5
2289
331
232E
  5
2408
331
22B8
  5
22CF
331
24EA
  5
24EA
331
248B
  5
248B
331
241C
  5
2418
331
238D
  5
2291
331
22C0
  5
22D7
331
2493
  5
2493
331
2424
  5
2420
331
2502
  5
2502
331
230F
  5
2381
331
227B
  5
227B
331
2283
  5
2298
331
22D0
  5
2424
331
250A
  5
250A
331
2444
  5
2442
331
24D3
  5
24D3
331
244C
  5
244C
331
2405
  5
22E7
331
231F
  5
2392
331
22E0
  5
230D
331
24DB
  5
24DB
331
240D
  5
22EF
331
2327
  5
2401
331
2532
  5
2532
331
2464
  5
2464
331
229B
  5
22B0
331
22F0
  5
231D
331
24E3
  5
24E3
331
2415
  5
22F7
331
2386
  5
228A
331
22F8
  5
2325
331
24EB
  5
24EB
331
241D
  5
2419
331
22C1
  5
22D8
331
2494
  5
2494
331
22C9
  5
22E0
331
2425
  5
2421
331
2503
  5
2503
331
243D
  5
2426
331
2284
  5
2299
331
2310
  5
2382
331
250B
  5
250B
331
24CC
  5
24CC
331
2445
  5
2443
331
2318
  5
238A
331
24D4
  5
24D4
331
244D
  5
244D
331
2320
  5
2393
331
22E1
  5
230E
331
2406
  5
22E8
331
24DC
  5
24DC
331
240E
  5
22F0
331
22E9
  5
2316
331
2533
  5
2533
331
2465
  5
2465
331
237F
  5
2283
331
2294
  5
22A9
331
22A4
  5
22BB
331
2328
  5
2402
331
22F1
  5
231E
331
24E4
  5
24E4
331
2416
  5
22F8
331
2387
  5
228B
331
2338
  5
2412
331
22F9
  5
2326
331
248D
  5
248D
331
241E
  5
241A
331
2301
  5
232E
331
22C2
  5
22D9
331
2495
  5
2495
331
2426
  5
2422
331
22CA
  5
22E1
331
2397
  5
2390
331
2504
  5
2504
331
2285
  5
229A
331
2311
  5
2383
331
250C
  5
250C
331
24CD
  5
24CD
331
2446
  5
2444
331
2319
  5
238B
331
24D5
  5
24D5
331
244E
  5
244E
331
2321
  5
2394
331
2407
  5
22E9
331
24DD
  5
24DD
331
240F
  5
22F1
331
22EA
  5
2317
331
2466
  5
2466
331
22A5
  5
22BC
331
2380
  5
2284
331
2329
  5
2403
331
22F2
  5
231F
331
22B3
  5
22C9
331
24E5
  5
24E5
331
2417
  5
22F9
331
2388
  5
228C
331
2339
  5
2413
331
22FA
  5
2327
331
248E
  5
248E
331
241F
  5
241B
331
22C3
  5
22DA
331
24FD
  5
24FD
331
2496
  5
2496
331
2427
  5
2423
331
2505
  5
2505
331
24C6
  5
24C6
331
243F
  5
243C
331
2286
  5
229B
331
2312
  5
2384
331
22D3
  5
2300
331
250D
  5
250D
331
24CE
  5
24CE
331
2447
  5
2445
331
231A
  5
238C
331
22DB
  5
2308
331
2408
  5
22EA
331
2322
  5
2395
331
22E3
  5
2310
331
244F
  5
244F
331
24DE
  5
24DE
331
22EB
  5
2318
331
2545
  5
2545
331
2467
  5
2467
331
2296
  5
22AB
331
22A6
  5
22BD
331
2410
  5
22F2
331
2381
  5
2285
331
232A
  5
2404
331
22F3
  5
2320
331
24E6
  5
24E6
331
2418
  5
2414
331
2389
  5
228D
331
22BC
  5
22D3
331
248F
  5
248F
331
2420
  5
241C
331
2391
  5
2295
331
22C4
  5
22DB
331
24FE
  5
24FE
331
2497
  5
2497
331
22CC
  5
22FA
331
2506
  5
2506
331
24C7
  5
24C7
331
2287
  5
229C
331
2440
  5
243D
331
2313
  5
2385
331
22D4
  5
2301
331
24CF
  5
24CF
331
2448
  5
2448
331
2401
  5
22E2
331
231B
  5
238D
331
22DC
  5
2309
331
251E
  5
251E
331
24D7
  5
24D7
331
2409
  5
22EB
331
2323
  5
2396
331
2450
  5
2450
331
24DF
  5
24DF
331
22EC
  5
2319
  0
SORTENTSTABLE
  5
234D
102
{ACAD_REACTORS
330
234C
102
}
330
234C
100
AcDbSortentsTable
330
2340
  0
SORTENTSTABLE
  5
2362
102
{ACAD_REACTORS
330
2361
102
}
330
2361
100
AcDbSortentsTable
330
2353
  0
SORTENTSTABLE
  5
2A77
102
{ACAD_REACTORS
330
2A76
102
}
330
2A76
100
AcDbSortentsTable
330
2A68
  0
SORTENTSTABLE
  5
2AC0
102
{ACAD_REACTORS
330
2ABF
102
}
330
2ABF
100
AcDbSortentsTable
330
2AB3
  0
DICTIONARY
  5
233B
102
{ACAD_REACTORS
330
233A
102
}
330
233A
100
AcDbDictionary
281
     1
  3
ACDB_ANNOTATIONSCALES
350
233C
  0
XRECORD
  5
2B58
102
{ACAD_REACTORS
330
2B57
102
}
330
2B57
100
AcDbXrecord
280
     1
102
Gradient1
1004
7B0000000200000001000000000000000000000000000000000000000000000001000000000000E051B8DE3F02000000000000000000000018000000010000000DD7F2C2000000000000000000000000000000000000F03F18000000010000000CCFE9C2000000000000000000000000070000004C494E45415200
  0
XRECORD
  5
2B5A
102
{ACAD_REACTORS
330
2B59
102
}
330
2B59
100
AcDbXrecord
280
     1
102
Gradient1
1004
7B0000000200000001000000000000000000000000000000000000000000000001000000000000E051B8DE3F0200000000000000000000001800000001000000FFFFFFC2000000000000000000000000000000000000F03F18000000010000007A7A7AC2000000000000000000000000070000004C494E45415200
  0
XRECORD
  5
2B5C
102
{ACAD_REACTORS
330
2B5B
102
}
330
2B5B
100
AcDbXrecord
280
     1
 40
43738.0
  1
Zaprawa klejowa ^JSOLBET Gabit T
  0
XRECORD
  5
2B5E
102
{ACAD_REACTORS
330
2B5D
102
}
330
2B5D
100
AcDbXrecord
280
     1
 40
30000.0
  1
Warstwa wyrównawcza
  0
XRECORD
  5
2B60
102
{ACAD_REACTORS
330
2B5F
102
}
330
2B5F
100
AcDbXrecord
280
     1
 40
88029.0
  1
Izolacja termiczna ^Jna kleju SOLBET Gabit T-1
  0
XRECORD
  5
2B62
102
{ACAD_REACTORS
330
2B61
102
}
330
2B61
100
AcDbXrecord
280
     1
 40
22046.0
  1
Płyta balkonowa
  0
XRECORD
  5
2B64
102
{ACAD_REACTORS
330
2B63
102
}
330
2B63
100
AcDbXrecord
280
     1
 40
88029.0
  1
Izolacja termiczna ^Jna kleju SOLBET Gabit T-1
  0
XRECORD
  5
2A23
102
{ACAD_REACTORS
330
2A22
102
}
330
2A22
100
AcDbXrecord
280
     1
 40
106696.0
  1
\pxql;Siatka z klejem SOLBET Gabit T^Jjeżeli wymagane
  0
XRECORD
  5
2B65
102
{ACAD_REACTORS
330
2A22
102
}
330
2A22
100
AcDbXrecord
280
     1
 40
124059.0
  1
Siatka z klejem SOLBET Gabit T\Pjeżeli wymagane
  0
XRECORD
  5
2B67
102
{ACAD_REACTORS
330
2B66
102
}
330
2B66
100
AcDbXrecord
280
     1
 40
49695.0
  1
Zbrojenie płyty balkonowej
  0
XRECORD
  5
2A25
102
{ACAD_REACTORS
330
2A24
102
}
330
2A24
100
AcDbXrecord
280
     1
 40
24645.0
  1
\pxqc;A\P(3 : 1)
  0
XRECORD
  5
2B69
102
{ACAD_REACTORS
330
2B68
102
}
330
2B68
100
AcDbXrecord
280
     1
 40
34960.0
  1
Warstwa wykończeniowa
  0
XRECORD
  5
2B6B
102
{ACAD_REACTORS
330
2B6A
102
}
330
2B6A
100
AcDbXrecord
280
     1
 40
42625.0
  1
Płyty izolacyjne twarde
  0
XRECORD
  5
2A27
102
{ACAD_REACTORS
330
2A26
102
}
330
2A26
100
AcDbXrecord
280
     1
 40
24757.0
  1
\pxqc;B\P(5 : 1)
  0
XRECORD
  5
2B6D
102
{ACAD_REACTORS
330
2B6C
102
}
330
2B6C
100
AcDbXrecord
280
     1
 40
68264.0
  1
Zbrojenie w żebrze rozdzielczym
  0
XRECORD
  5
2B0E
102
{ACAD_REACTORS
330
2B0D
102
}
330
2B0D
100
AcDbXrecord
280
     1
 40
24748.0
  1
\pxqc;C\P(5 : 1)
  0
LAYOUT
  5
D3
102
{ACAD_XDICTIONARY
360
2B4E
102
}
102
{ACAD_REACTORS
330
1A
102
}
330
1A
100
AcDbPlotSettings
  1

  2
C:\Documents and Settings\basas\Application Data\Autodesk\AutoCAD 2005\R16.1\enu\plotters\Default Windows System Printer.pc3
  4

  6

 40
0.0
 41
0.0
 42
0.0
 43
0.0
 44
0.0
 45
0.0
 46
0.0
 47
0.0
 48
0.0
 49
0.0
140
0.0
141
0.0
142
1.0
143
1.0
 70
   688
 72
     0
 73
     0
 74
     5
  7

 75
    16
147
1.0
148
0.0
149
0.0
100
AcDbLayout
  1
Arkusz1
 70
     1
 71
     1
 10
0.0
 20
0.0
 11
12.0
 21
9.0
 12
0.0
 22
0.0
 32
0.0
 14
0.0
 24
0.0
 34
0.0
 15
0.0
 25
0.0
 35
0.0
146
0.0
 13
0.0
 23
0.0
 33
0.0
 16
1.0
 26
0.0
 36
0.0
 17
0.0
 27
1.0
 37
0.0
 76
     0
330
D2
  0
LAYOUT
  5
D7
102
{ACAD_XDICTIONARY
360
2B50
102
}
102
{ACAD_REACTORS
330
1A
102
}
330
1A
100
AcDbPlotSettings
  1

  2
C:\Documents and Settings\basas\Application Data\Autodesk\AutoCAD 2005\R16.1\enu\plotters\Default Windows System Printer.pc3
  4

  6

 40
0.0
 41
0.0
 42
0.0
 43
0.0
 44
0.0
 45
0.0
 46
0.0
 47
0.0
 48
0.0
 49
0.0
140
0.0
141
0.0
142
1.0
143
1.0
 70
   688
 72
     0
 73
     0
 74
     5
  7

 75
    16
147
1.0
148
0.0
149
0.0
100
AcDbLayout
  1
Arkusz2
 70
     1
 71
     2
 10
0.0
 20
0.0
 11
12.0
 21
9.0
 12
0.0
 22
0.0
 32
0.0
 14
0.0
 24
0.0
 34
0.0
 15
0.0
 25
0.0
 35
0.0
146
0.0
 13
0.0
 23
0.0
 33
0.0
 16
1.0
 26
0.0
 36
0.0
 17
0.0
 27
1.0
 37
0.0
 76
     0
330
D6
  0
LAYOUT
  5
22
102
{ACAD_XDICTIONARY
360
2B4B
102
}
102
{ACAD_REACTORS
330
1A
102
}
330
1A
100
AcDbPlotSettings
  1

  2
none_device
  4
Letter_(8.50_x_11.00_Inches)
  6

 40
6.349999904632568
 41
6.349999904632568
 42
6.350006103515625
 43
6.350006103515625
 44
215.8999938964844
 45
279.3999938964844
 46
11.54999923706054
 47
-13.65000009536743
 48
0.0
 49
0.0
140
210.0
141
297.0
142
1.0
143
1.0
 70
 11936
 72
     1
 73
     0
 74
     4
  7

 75
     0
147
0.9999999999999998
148
0.0
149
0.0
100
AcDbLayout
  1
Model
 70
     1
 71
     0
 10
0.0
 20
0.0
 11
12.0
 21
9.0
 12
0.0
 22
0.0
 32
0.0
 14
0.0
 24
0.0
 34
0.0
 15
0.0
 25
0.0
 35
0.0
146
0.0
 13
0.0
 23
0.0
 33
0.0
 16
1.0
 26
0.0
 36
0.0
 17
0.0
 27
1.0
 37
0.0
 76
     0
330
1F
331
EA
1001
ACAD_PSEXT
1000
Brak
1000
Brak
1000
Nie można zastosować.
1000
Arkusz nie zostanie wydrukowany dopóki nie wybrano konfiguracji plotera.
1070
     0
  0
MATERIAL
  5
ED
102
{ACAD_XDICTIONARY
360
2B54
102
}
102
{ACAD_REACTORS
330
6A
102
}
330
6A
100
AcDbMaterial
  1
ByBlock
 73
     2
 78
     2
172
     2
176
     2
270
     2
274
     2
  0
MATERIAL
  5
EC
102
{ACAD_XDICTIONARY
360
2B52
102
}
102
{ACAD_REACTORS
330
6A
102
}
330
6A
100
AcDbMaterial
  1
ByLayer
 73
     2
 78
     2
172
     2
176
     2
270
     2
274
     2
  0
MATERIAL
  5
EE
102
{ACAD_XDICTIONARY
360
173
102
}
102
{ACAD_REACTORS
330
6A
102
}
330
6A
100
AcDbMaterial
  1
Global
 73
     2
 43
0.0007999999797903
 43
0.0
 43
0.0
 43
0.0
 43
0.0
 43
0.0007999999797903
 43
0.0
 43
0.0
 43
0.0
 43
0.0
 43
1.0
 43
0.0
 43
0.0
 43
0.0
 43
0.0
 43
1.0
 78
     2
172
     2
 49
0.0007999999797903
 49
0.0
 49
0.0
 49
0.0
 49
0.0
 49
0.0007999999797903
 49
0.0
 49
0.0
 49
0.0
 49
0.0
 49
1.0
 49
0.0
 49
0.0
 49
0.0
 49
0.0
 49
1.0
176
     2
142
0.0007999999797903
142
0.0
142
0.0
142
0.0
142
0.0
142
0.0007999999797903
142
0.0
142
0.0
142
0.0
142
0.0
142
1.0
142
0.0
142
0.0
142
0.0
142
0.0
142
1.0
270
     2
144
0.0007999999797903
144
0.0
144
0.0
144
0.0
144
0.0
144
0.0007999999797903
144
0.0
144
0.0
144
0.0
144
0.0
144
1.0
144
0.0
144
0.0
144
0.0
144
0.0
144
1.0
274
     2
1001
ACAD
1070
    -1
1070
     3
1070
     0
1000

1071
        0
1070
     0
  0
ACAD_PROXY_OBJECT
  5
12E
102
{ACAD_REACTORS
330
12D
102
}
330
12D
100
AcDbProxyObject
 90
      499
 91
      508
 95
       23
 70
     0
 93
      618
310
40901902A4063FBFFFFFE0000000000000020400000000000020404254DD185B99185C99000000000000000104090140501A0000000000000410000000000000004102576400000000000003903F
340
14
340
0
340
11
340
0
 94
        0
1001
ACAD_MLEADERVER
1070
     2
1001
ACAD
1000
AcRTDxfName
1000
MLEADERSTYLE
1000
AcRTDxfName
1000
MLEADERSTYLE
  0
MLINESTYLE
  5
7E9
102
{ACAD_REACTORS
330
17
102
}
330
17
100
AcDbMlineStyle
  2
SOLBET_IZOLACJA
 70
   272
  3

 62
   256
 51
90.0
 52
90.0
 71
     2
 49
0.008
 62
   256
  6
BYLAYER
 49
-0.008
 62
   256
  6
BYLAYER
  0
MLINESTYLE
  5
18
102
{ACAD_REACTORS
330
17
102
}
330
17
100
AcDbMlineStyle
  2
STANDARD
 70
     0
  3

 62
   256
 51
90.0
 52
90.0
 71
     2
 49
0.5
 62
   256
  6
BYLAYER
 49
-0.5
 62
   256
  6
BYLAYER
  0
ACDBPLACEHOLDER
  5
F
102
{ACAD_REACTORS
330
E
102
}
330
E
  0
ACAD_PROXY_OBJECT
  5
10D
102
{ACAD_REACTORS
330
10C
102
}
330
10C
100
AcDbProxyObject
 90
      499
 91
      507
 95
       23
 70
     0
 93
       49
310
904313A31005FF
 94
        0
1001
ACAD
1000
AcRTDxfName
1000
SCALE
1000
AcRTDxfName
1000
SCALE
  0
ACAD_PROXY_OBJECT
  5
188
102
{ACAD_REACTORS
330
10C
102
}
330
10C
100
AcDbProxyObject
 90
      499
 91
      507
 95
       23
 70
     0
 93
      113
310
904313A3200400000000000000407F
 94
        0
1001
ACAD
1000
AcRTDxfName
1000
SCALE
1000
AcRTDxfName
1000
SCALE
  0
ACAD_PROXY_OBJECT
  5
189
102
{ACAD_REACTORS
330
10C
102
}
330
10C
100
AcDbProxyObject
 90
      499
 91
      507
 95
       23
 70
     0
 93
      113
310
904313A3400400000000000010407F
 94
        0
1001
ACAD
1000
AcRTDxfName
1000
SCALE
1000
AcRTDxfName
1000
SCALE
  0
ACAD_PROXY_OBJECT
  5
18A
102
{ACAD_REACTORS
330
10C
102
}
330
10C
100
AcDbProxyObject
 90
      499
 91
      507
 95
       23
 70
     0
 93
      113
310
904313A3500400000000000014407F
 94
        0
1001
ACAD
1000
AcRTDxfName
1000
SCALE
1000
AcRTDxfName
1000
SCALE
  0
ACAD_PROXY_OBJECT
  5
18B
102
{ACAD_REACTORS
330
10C
102
}
330
10C
100
AcDbProxyObject
 90
      499
 91
      507
 95
       23
 70
     0
 93
      113
310
904313A3800400000000000020407F
 94
        0
1001
ACAD
1000
AcRTDxfName
1000
SCALE
1000
AcRTDxfName
1000
SCALE
  0
ACAD_PROXY_OBJECT
  5
18C
102
{ACAD_REACTORS
330
10C
102
}
330
10C
100
AcDbProxyObject
 90
      499
 91
      507
 95
       23
 70
     0
 93
      121
310
905313A313000400000000000024407F
 94
        0
1001
ACAD
1000
AcRTDxfName
1000
SCALE
1000
AcRTDxfName
1000
SCALE
  0
ACAD_PROXY_OBJECT
  5
18D
102
{ACAD_REACTORS
330
10C
102
}
330
10C
100
AcDbProxyObject
 90
      499
 91
      507
 95
       23
 70
     0
 93
      121
310
905313A313600400000000000030407F
 94
        0
1001
ACAD
1000
AcRTDxfName
1000
SCALE
1000
AcRTDxfName
1000
SCALE
  0
ACAD_PROXY_OBJECT
  5
18E
102
{ACAD_REACTORS
330
10C
102
}
330
10C
100
AcDbProxyObject
 90
      499
 91
      507
 95
       23
 70
     0
 93
      121
310
905313A323000400000000000034407F
 94
        0
1001
ACAD
1000
AcRTDxfName
1000
SCALE
1000
AcRTDxfName
1000
SCALE
  0
ACAD_PROXY_OBJECT
  5
18F
102
{ACAD_REACTORS
330
10C
102
}
330
10C
100
AcDbProxyObject
 90
      499
 91
      507
 95
       23
 70
     0
 93
      121
310
905313A33300040000000000003E407F
 94
        0
1001
ACAD
1000
AcRTDxfName
1000
SCALE
1000
AcRTDxfName
1000
SCALE
  0
ACAD_PROXY_OBJECT
  5
190
102
{ACAD_REACTORS
330
10C
102
}
330
10C
100
AcDbProxyObject
 90
      499
 91
      507
 95
       23
 70
     0
 93
      121
310
905313A343000400000000000044407F
 94
        0
1001
ACAD
1000
AcRTDxfName
1000
SCALE
1000
AcRTDxfName
1000
SCALE
  0
ACAD_PROXY_OBJECT
  5
191
102
{ACAD_REACTORS
330
10C
102
}
330
10C
100
AcDbProxyObject
 90
      499
 91
      507
 95
       23
 70
     0
 93
      121
310
905313A353000400000000000049407F
 94
        0
1001
ACAD
1000
AcRTDxfName
1000
SCALE
1000
AcRTDxfName
1000
SCALE
  0
ACAD_PROXY_OBJECT
  5
192
102
{ACAD_REACTORS
330
10C
102
}
330
10C
100
AcDbProxyObject
 90
      499
 91
      507
 95
       23
 70
     0
 93
      129
310
906313A31303000400000000000059407F
 94
        0
1001
ACAD
1000
AcRTDxfName
1000
SCALE
1000
AcRTDxfName
1000
SCALE
  0
ACAD_PROXY_OBJECT
  5
193
102
{ACAD_REACTORS
330
10C
102
}
330
10C
100
AcDbProxyObject
 90
      499
 91
      507
 95
       23
 70
     0
 93
      113
310
904323A3100000000000000001017F
 94
        0
1001
ACAD
1000
AcRTDxfName
1000
SCALE
1000
AcRTDxfName
1000
SCALE
  0
ACAD_PROXY_OBJECT
  5
194
102
{ACAD_REACTORS
330
10C
102
}
330
10C
100
AcDbProxyObject
 90
      499
 91
      507
 95
       23
 70
     0
 93
      113
310
904343A3100000000000000041017F
 94
        0
1001
ACAD
1000
AcRTDxfName
1000
SCALE
1000
AcRTDxfName
1000
SCALE
  0
ACAD_PROXY_OBJECT
  5
195
102
{ACAD_REACTORS
330
10C
102
}
330
10C
100
AcDbProxyObject
 90
      499
 91
      507
 95
       23
 70
     0
 93
      113
310
904383A3100000000000000081017F
 94
        0
1001
ACAD
1000
AcRTDxfName
1000
SCALE
1000
AcRTDxfName
1000
SCALE
  0
ACAD_PROXY_OBJECT
  5
196
102
{ACAD_REACTORS
330
10C
102
}
330
10C
100
AcDbProxyObject
 90
      499
 91
      507
 95
       23
 70
     0
 93
      121
310
90531303A3100000000000000091017F
 94
        0
1001
ACAD
1000
AcRTDxfName
1000
SCALE
1000
AcRTDxfName
1000
SCALE
  0
ACAD_PROXY_OBJECT
  5
197
102
{ACAD_REACTORS
330
10C
102
}
330
10C
100
AcDbProxyObject
 90
      499
 91
      507
 95
       23
 70
     0
 93
      129
310
9063130303A3100000000000000165017F
 94
        0
1001
ACAD
1000
AcRTDxfName
1000
SCALE
1000
AcRTDxfName
1000
SCALE
  0
ACAD_PROXY_OBJECT
  5
198
102
{ACAD_REACTORS
330
10C
102
}
330
10C
100
AcDbProxyObject
 90
      499
 91
      507
 95
       23
 70
     0
 93
      265
310
90F312F31323822203D2031272D302200000000000000200FC00000000000028407F
 94
        0
1001
ACAD
1000
AcRTDxfName
1000
SCALE
1000
AcRTDxfName
1000
SCALE
  0
ACAD_PROXY_OBJECT
  5
199
102
{ACAD_REACTORS
330
10C
102
}
330
10C
100
AcDbProxyObject
 90
      499
 91
      507
 95
       23
 70
     0
 93
      257
310
90E312F363422203D2031272D302200000000000000240FC00000000000028407F
 94
        0
1001
ACAD
1000
AcRTDxfName
1000
SCALE
1000
AcRTDxfName
1000
SCALE
  0
ACAD_PROXY_OBJECT
  5
19A
102
{ACAD_REACTORS
330
10C
102
}
330
10C
100
AcDbProxyObject
 90
      499
 91
      507
 95
       23
 70
     0
 93
      257
310
90E312F333222203D2031272D302200000000000000280FC00000000000028407F
 94
        0
1001
ACAD
1000
AcRTDxfName
1000
SCALE
1000
AcRTDxfName
1000
SCALE
  0
ACAD_PROXY_OBJECT
  5
19B
102
{ACAD_REACTORS
330
10C
102
}
330
10C
100
AcDbProxyObject
 90
      499
 91
      507
 95
       23
 70
     0
 93
      257
310
90E312F313622203D2031272D3022000000000000002C0FC00000000000028407F
 94
        0
1001
ACAD
1000
AcRTDxfName
1000
SCALE
1000
AcRTDxfName
1000
SCALE
  0
ACAD_PROXY_OBJECT
  5
19C
102
{ACAD_REACTORS
330
10C
102
}
330
10C
100
AcDbProxyObject
 90
      499
 91
      507
 95
       23
 70
     0
 93
      257
310
90E332F333222203D2031272D3022000000000000002E0FC00000000000028407F
 94
        0
1001
ACAD
1000
AcRTDxfName
1000
SCALE
1000
AcRTDxfName
1000
SCALE
  0
ACAD_PROXY_OBJECT
  5
19D
102
{ACAD_REACTORS
330
10C
102
}
330
10C
100
AcDbProxyObject
 90
      499
 91
      507
 95
       23
 70
     0
 93
      249
310
90D312F3822203D2031272D302200000000000000300FC00000000000028407F
 94
        0
1001
ACAD
1000
AcRTDxfName
1000
SCALE
1000
AcRTDxfName
1000
SCALE
  0
ACAD_PROXY_OBJECT
  5
19E
102
{ACAD_REACTORS
330
10C
102
}
330
10C
100
AcDbProxyObject
 90
      499
 91
      507
 95
       23
 70
     0
 93
      257
310
90E332F313622203D2031272D302200000000000000320FC00000000000028407F
 94
        0
1001
ACAD
1000
AcRTDxfName
1000
SCALE
1000
AcRTDxfName
1000
SCALE
  0
ACAD_PROXY_OBJECT
  5
19F
102
{ACAD_REACTORS
330
10C
102
}
330
10C
100
AcDbProxyObject
 90
      499
 91
      507
 95
       23
 70
     0
 93
      249
310
90D312F3422203D2031272D302200000000000000340FC00000000000028407F
 94
        0
1001
ACAD
1000
AcRTDxfName
1000
SCALE
1000
AcRTDxfName
1000
SCALE
  0
ACAD_PROXY_OBJECT
  5
1A0
102
{ACAD_REACTORS
330
10C
102
}
330
10C
100
AcDbProxyObject
 90
      499
 91
      507
 95
       23
 70
     0
 93
      249
310
90D332F3822203D2031272D302200000000000000360FC00000000000028407F
 94
        0
1001
ACAD
1000
AcRTDxfName
1000
SCALE
1000
AcRTDxfName
1000
SCALE
  0
ACAD_PROXY_OBJECT
  5
1A1
102
{ACAD_REACTORS
330
10C
102
}
330
10C
100
AcDbProxyObject
 90
      499
 91
      507
 95
       23
 70
     0
 93
      249
310
90D312F3222203D2031272D302200000000000000380FC00000000000028407F
 94
        0
1001
ACAD
1000
AcRTDxfName
1000
SCALE
1000
AcRTDxfName
1000
SCALE
  0
ACAD_PROXY_OBJECT
  5
1A2
102
{ACAD_REACTORS
330
10C
102
}
330
10C
100
AcDbProxyObject
 90
      499
 91
      507
 95
       23
 70
     0
 93
      249
310
90D332F3422203D2031272D3022000000000000003A0FC00000000000028407F
 94
        0
1001
ACAD
1000
AcRTDxfName
1000
SCALE
1000
AcRTDxfName
1000
SCALE
  0
ACAD_PROXY_OBJECT
  5
1A3
102
{ACAD_REACTORS
330
10C
102
}
330
10C
100
AcDbProxyObject
 90
      499
 91
      507
 95
       23
 70
     0
 93
      169
310
90B3122203D2031272D302200400000000000028407F
 94
        0
1001
ACAD
1000
AcRTDxfName
1000
SCALE
1000
AcRTDxfName
1000
SCALE
  0
ACAD_PROXY_OBJECT
  5
1A4
102
{ACAD_REACTORS
330
10C
102
}
330
10C
100
AcDbProxyObject
 90
      499
 91
      507
 95
       23
 70
     0
 93
      265
310
90F312D312F3222203D2031272D3022000000000000003E0FC00000000000028407F
 94
        0
1001
ACAD
1000
AcRTDxfName
1000
SCALE
1000
AcRTDxfName
1000
SCALE
  0
ACAD_PROXY_OBJECT
  5
1A5
102
{ACAD_REACTORS
330
10C
102
}
330
10C
100
AcDbProxyObject
 90
      499
 91
      507
 95
       23
 70
     0
 93
      233
310
90B3322203D2031272D3022000000000000000210000000000000028407F
 94
        0
1001
ACAD
1000
AcRTDxfName
1000
SCALE
1000
AcRTDxfName
1000
SCALE
  0
ACAD_PROXY_OBJECT
  5
1A6
102
{ACAD_REACTORS
330
10C
102
}
330
10C
100
AcDbProxyObject
 90
      499
 91
      507
 95
       23
 70
     0
 93
      233
310
90B3622203D2031272D3022000000000000000610000000000000028407F
 94
        0
1001
ACAD
1000
AcRTDxfName
1000
SCALE
1000
AcRTDxfName
1000
SCALE
  0
ACAD_PROXY_OBJECT
  5
1A7
102
{ACAD_REACTORS
330
10C
102
}
330
10C
100
AcDbProxyObject
 90
      499
 91
      507
 95
       23
 70
     0
 93
      257
310
90E31272D3022203D2031272D3022000000000000000A10000000000000028407F
 94
        0
1001
ACAD
1000
AcRTDxfName
1000
SCALE
1000
AcRTDxfName
1000
SCALE
  0
TABLESTYLE
  5
7F
102
{ACAD_XDICTIONARY
360
162
102
}
102
{ACAD_REACTORS
330
7E
102
}
330
7E
100
AcDbTableStyle
  3
Standard
 70
     0
 71
     0
 40
1.5
 41
1.5
280
     0
281
     0
  7
Standard
140
4.5
170
     2
 62
     0
 63
     7
283
     0
274
    -2
284
     1
 64
     0
275
    -2
285
     1
 65
     0
276
    -2
286
     1
 66
     0
277
    -2
287
     1
 67
     0
278
    -2
288
     1
 68
     0
279
    -2
289
     1
 69
     0
  7
Standard
140
6.0
170
     5
 62
     0
 63
     7
283
     0
274
    -2
284
     1
 64
     0
275
    -2
285
     1
 65
     0
276
    -2
286
     1
 66
     0
277
    -2
287
     1
 67
     0
278
    -2
288
     1
 68
     0
279
    -2
289
     1
 69
     0
  7
Standard
140
4.5
170
     5
 62
     0
 63
     7
283
     0
274
    -2
284
     1
 64
     0
275
    -2
285
     1
 65
     0
276
    -2
286
     1
 66
     0
277
    -2
287
     1
 67
     0
278
    -2
288
     1
 68
     0
279
    -2
289
     1
 69
     0
  0
VISUALSTYLE
  5
F5
102
{ACAD_REACTORS
330
EF
102
}
330
EF
100
AcDbVisualStyle
  2
2dWireframe
 70
     4
 71
     0
 72
     2
 73
     1
 90
        0
 40
-0.6
 41
-30.0
 62
     5
 63
     7
 74
     1
 91
        4
 64
     7
 65
   257
 75
     1
175
     1
 42
1.0
 92
        0
 66
   257
 43
1.0
 76
     1
 77
     6
 78
     2
 67
     7
 79
     5
170
     0
171
     0
290
     0
174
     0
 93
        1
 44
0.0
173
     0
291
     0
 45
0.0
1001
ACAD
1000
AcDbSavedByObjectVersion
1070
     0
  0
VISUALSTYLE
  5
F7
102
{ACAD_REACTORS
330
EF
102
}
330
EF
100
AcDbVisualStyle
  2
3D Hidden
 70
     6
 71
     1
 72
     2
 73
     2
 90
        0
 40
-0.6
 41
-30.0
 62
     5
 63
     7
 74
     2
 91
        2
 64
     7
 65
   257
 75
     2
175
     1
 42
40.0
 92
        0
 66
   257
 43
1.0
 76
     1
 77
     6
 78
     2
 67
     7
 79
     3
170
     0
171
     0
290
     0
174
     0
 93
        1
 44
0.0
173
     0
291
     0
 45
0.0
1001
ACAD
1000
AcDbSavedByObjectVersion
1070
     0
  0
VISUALSTYLE
  5
F6
102
{ACAD_REACTORS
330
EF
102
}
330
EF
100
AcDbVisualStyle
  2
3dWireframe
 70
     5
 71
     0
 72
     2
 73
     1
 90
        0
 40
-0.6
 41
-30.0
 62
     5
 63
     7
 74
     1
 91
        4
 64
     7
 65
   257
 75
     1
175
     1
 42
1.0
 92
        0
 66
   257
 43
1.0
 76
     1
 77
     6
 78
     2
 67
     7
 79
     5
170
     0
171
     0
290
     0
174
     0
 93
        1
 44
0.0
173
     0
291
     0
 45
0.0
1001
ACAD
1000
AcDbSavedByObjectVersion
1070
     0
  0
VISUALSTYLE
  5
F4
102
{ACAD_REACTORS
330
EF
102
}
330
EF
100
AcDbVisualStyle
  2
Basic
 70
     7
 71
     1
 72
     0
 73
     1
 90
        0
 40
-0.6
 41
-30.0
 62
     5
 63
     7
 74
     0
 91
        4
 64
     7
 65
   257
 75
     1
175
     1
 42
1.0
 92
        8
 66
     7
 43
1.0
 76
     1
 77
     6
 78
     2
 67
     7
 79
     5
170
     0
171
     0
290
     0
174
     0
 93
        1
 44
0.0
173
     0
291
     1
 45
0.0
1001
ACAD
1000
AcDbSavedByObjectVersion
1070
     0
  0
VISUALSTYLE
  5
FB
102
{ACAD_REACTORS
330
EF
102
}
330
EF
100
AcDbVisualStyle
  2
Brighten
 70
    12
 71
     2
 72
     2
 73
     1
 90
        0
 40
-0.6
 41
-30.0
 62
     5
 63
     7
 74
     1
 91
        4
 64
     7
 65
   257
 75
     1
175
     1
 42
1.0
 92
        8
 66
     7
 43
1.0
 76
     1
 77
     6
 78
     2
 67
     7
 79
     5
170
     0
171
     0
290
     0
174
     0
 93
        1
 44
50.0
173
     0
291
     1
 45
0.0
1001
ACAD
1000
AcDbSavedByObjectVersion
1070
     0
  0
VISUALSTYLE
  5
FF
102
{ACAD_REACTORS
330
EF
102
}
330
EF
100
AcDbVisualStyle
  2
ColorChange
 70
    16
 71
     2
 72
     2
 73
     3
 90
        0
 40
-0.6
 41
-30.0
 62
     5
 63
     8
 74
     1
 91
        4
 64
     7
 65
   257
 75
     1
175
     1
 42
1.0
 92
        8
 66
     8
 43
1.0
 76
     1
 77
     6
 78
     2
 67
     7
 79
     5
170
     0
171
     0
290
     0
174
     0
 93
        1
 44
0.0
173
     0
291
     1
 45
0.0
1001
ACAD
1000
AcDbSavedByObjectVersion
1070
     0
  0
VISUALSTYLE
  5
F8
102
{ACAD_REACTORS
330
EF
102
}
330
EF
100
AcDbVisualStyle
  2
Conceptual
 70
     9
 71
     3
 72
     2
 73
     1
 90
        0
 40
-0.6
 41
-30.0
 62
     5
 63
     7
 74
     2
 91
        2
 64
     7
 65
   257
 75
     1
175
     1
 42
40.0
 92
        8
 66
     7
 43
1.0
 76
     1
 77
     6
 78
     2
 67
     7
 79
     3
170
     0
171
     0
290
     0
174
     0
 93
        1
 44
0.0
173
     0
291
     0
 45
0.0
1001
ACAD
1000
AcDbSavedByObjectVersion
1070
     0
  0
VISUALSTYLE
  5
FA
102
{ACAD_REACTORS
330
EF
102
}
330
EF
100
AcDbVisualStyle
  2
Dim
 70
    11
 71
     2
 72
     2
 73
     1
 90
        0
 40
-0.6
 41
-30.0
 62
     5
 63
     7
 74
     1
 91
        4
 64
     7
 65
   257
 75
     1
175
     1
 42
1.0
 92
        8
 66
     7
 43
1.0
 76
     1
 77
     6
 78
     2
 67
     7
 79
     5
170
     0
171
     0
290
     0
174
     0
 93
        1
 44
-50.0
173
     0
291
     1
 45
0.0
1001
ACAD
1000
AcDbSavedByObjectVersion
1070
     0
  0
VISUALSTYLE
  5
FE
102
{ACAD_REACTORS
330
EF
102
}
330
EF
100
AcDbVisualStyle
  2
Facepattern
 70
    15
 71
     2
 72
     2
 73
     1
 90
        0
 40
-0.6
 41
-30.0
 62
     5
 63
     7
 74
     1
 91
        4
 64
     7
 65
   257
 75
     1
175
     1
 42
1.0
 92
        8
 66
     7
 43
1.0
 76
     1
 77
     6
 78
     2
 67
     7
 79
     5
170
     0
171
     0
290
     0
174
     0
 93
        1
 44
0.0
173
     0
291
     1
 45
0.0
1001
ACAD
1000
AcDbSavedByObjectVersion
1070
     0
  0
VISUALSTYLE
  5
F0
102
{ACAD_REACTORS
330
EF
102
}
330
EF
100
AcDbVisualStyle
  2
Flat
 70
     0
 71
     2
 72
     1
 73
     1
 90
        2
 40
-0.6
 41
30.0
 62
     5
 63
     7
 74
     0
 91
        4
 64
     7
 65
   257
 75
     1
175
     1
 42
1.0
 92
        8
 66
     7
 43
1.0
 76
     1
 77
     6
 78
     2
 67
     7
 79
     5
170
     0
171
     0
290
     0
174
     0
 93
        1
 44
0.0
173
     0
291
     1
 45
0.0
1001
ACAD
1000
AcDbSavedByObjectVersion
1070
     0
  0
VISUALSTYLE
  5
F1
102
{ACAD_REACTORS
330
EF
102
}
330
EF
100
AcDbVisualStyle
  2
FlatWithEdges
 70
     1
 71
     2
 72
     1
 73
     1
 90
        2
 40
-0.6
 41
30.0
 62
     5
 63
     7
 74
     1
 91
        4
 64
     7
 65
   257
 75
     1
175
     1
 42
1.0
 92
        0
 66
   257
 43
1.0
 76
     1
 77
     6
 78
     2
 67
     7
 79
     5
170
     0
171
     0
290
     0
174
     0
 93
        1
 44
0.0
173
     0
291
     1
 45
0.0
1001
ACAD
1000
AcDbSavedByObjectVersion
1070
     0
  0
VISUALSTYLE
  5
F2
102
{ACAD_REACTORS
330
EF
102
}
330
EF
100
AcDbVisualStyle
  2
Gouraud
 70
     2
 71
     2
 72
     2
 73
     1
 90
        2
 40
-0.6
 41
30.0
 62
     5
 63
     7
 74
     0
 91
        4
 64
     7
 65
   257
 75
     1
175
     1
 42
1.0
 92
        0
 66
     7
 43
1.0
 76
     1
 77
     6
 78
     2
 67
     7
 79
     5
170
     0
171
     0
290
     0
174
     0
 93
        1
 44
0.0
173
     0
291
     1
 45
0.0
1001
ACAD
1000
AcDbSavedByObjectVersion
1070
     0
  0
VISUALSTYLE
  5
F3
102
{ACAD_REACTORS
330
EF
102
}
330
EF
100
AcDbVisualStyle
  2
GouraudWithEdges
 70
     3
 71
     2
 72
     2
 73
     1
 90
        2
 40
-0.6
 41
30.0
 62
     5
 63
     7
 74
     1
 91
        4
 64
     7
 65
   257
 75
     1
175
     1
 42
1.0
 92
        0
 66
   257
 43
1.0
 76
     1
 77
     6
 78
     2
 67
     7
 79
     5
170
     0
171
     0
290
     0
174
     0
 93
        1
 44
0.0
173
     0
291
     1
 45
0.0
1001
ACAD
1000
AcDbSavedByObjectVersion
1070
     0
  0
VISUALSTYLE
  5
FD
102
{ACAD_REACTORS
330
EF
102
}
330
EF
100
AcDbVisualStyle
  2
Linepattern
 70
    14
 71
     2
 72
     2
 73
     1
 90
        0
 40
-0.6
 41
-30.0
 62
     5
 63
     7
 74
     1
 91
        4
 64
     7
 65
   257
 75
     7
175
     7
 42
1.0
 92
        8
 66
     7
 43
1.0
 76
     1
 77
     6
 78
     2
 67
     7
 79
     5
170
     0
171
     0
290
     0
174
     0
 93
        1
 44
0.0
173
     0
291
     1
 45
0.0
1001
ACAD
1000
AcDbSavedByObjectVersion
1070
     0
  0
VISUALSTYLE
  5
F9
102
{ACAD_REACTORS
330
EF
102
}
330
EF
100
AcDbVisualStyle
  2
Realistic
 70
     8
 71
     2
 72
     2
 73
     1
 90
        0
 40
-0.6
 41
-30.0
 62
     5
 63
     7
 74
     1
 91
        0
 64
     7
 65
   257
 75
     1
175
     1
 42
1.0
 92
        8
 66
     8
 43
1.0
 76
     1
 77
     6
 78
     2
 67
     7
 79
     5
170
     0
171
     0
290
     0
174
     0
 93
       13
 44
0.0
173
     0
291
     0
 45
0.0
1001
ACAD
1000
AcDbSavedByObjectVersion
1070
     0
  0
VISUALSTYLE
  5
FC
102
{ACAD_REACTORS
330
EF
102
}
330
EF
100
AcDbVisualStyle
  2
Thicken
 70
    13
 71
     2
 72
     2
 73
     1
 90
        0
 40
-0.6
 41
-30.0
 62
     5
 63
     7
 74
     1
 91
        4
 64
     7
 65
   257
 75
     1
175
     1
 42
1.0
 92
       12
 66
     7
 43
1.0
 76
     1
 77
     6
 78
     2
 67
     7
 79
     5
170
     0
171
     0
290
     0
174
     0
 93
        1
 44
0.0
173
     0
291
     1
 45
0.0
1001
ACAD
1000
AcDbSavedByObjectVersion
1070
     0
  0
DICTIONARYVAR
  5
146
102
{ACAD_REACTORS
330
5E
102
}
330
5E
100
DictionaryVariables
280
     0
  1
1:1
  0
DICTIONARYVAR
  5
145
102
{ACAD_REACTORS
330
5E
102
}
330
5E
100
DictionaryVariables
280
     0
  1
STANDARD
  0
DICTIONARYVAR
  5
84
102
{ACAD_REACTORS
330
5E
102
}
330
5E
100
DictionaryVariables
280
     0
  1
STANDARD
  0
DICTIONARYVAR
  5
5F
102
{ACAD_REACTORS
330
5E
102
}
330
5E
100
DictionaryVariables
280
     0
  1
2
  0
DICTIONARYVAR
  5
63
102
{ACAD_REACTORS
330
5E
102
}
330
5E
100
DictionaryVariables
280
     0
  1
1
  0
DICTIONARYVAR
  5
466
102
{ACAD_REACTORS
330
5E
102
}
330
5E
100
DictionaryVariables
280
     0
  1
0
  0
DICTIONARYVAR
  5
464
102
{ACAD_REACTORS
330
5E
102
}
330
5E
100
DictionaryVariables
280
     0
  1
2
  0
DICTIONARYVAR
  5
463
102
{ACAD_REACTORS
330
5E
102
}
330
5E
100
DictionaryVariables
280
     0
  1
1
  0
DICTIONARYVAR
  5
2B49
102
{ACAD_REACTORS
330
5E
102
}
330
5E
100
DictionaryVariables
280
     0
  1
80.000000
  0
DICTIONARYVAR
  5
2B48
102
{ACAD_REACTORS
330
5E
102
}
330
5E
100
DictionaryVariables
280
     0
  1
5.000000
  0
DICTIONARYVAR
  5
465
102
{ACAD_REACTORS
330
5E
102
}
330
5E
100
DictionaryVariables
280
     0
  1
127
  0
DICTIONARY
  5
233C
102
{ACAD_REACTORS
330
233B
102
}
330
233B
100
AcDbDictionary
281
     1
  0
DICTIONARY
  5
2B4E
330
D3
100
AcDbDictionary
280
     1
281
     1
  3
ACAD_XREC_ROUNDTRIP
360
2B4F
  0
DICTIONARY
  5
2B50
330
D7
100
AcDbDictionary
280
     1
281
     1
  3
ACAD_XREC_ROUNDTRIP
360
2B51
  0
DICTIONARY
  5
2B4B
330
22
100
AcDbDictionary
280
     1
281
     1
  3
ACAD_XREC_ROUNDTRIP
360
2B4C
  0
DICTIONARY
  5
2B54
330
ED
100
AcDbDictionary
280
     1
281
     1
  3
ACAD_XREC_ROUNDTRIP
360
2B55
  0
DICTIONARY
  5
2B52
330
EC
100
AcDbDictionary
280
     1
281
     1
  3
ACAD_XREC_ROUNDTRIP
360
2B53
  0
DICTIONARY
  5
173
330
EE
100
AcDbDictionary
280
     1
281
     1
  3
ACAD_XREC_ROUNDTRIP
360
2B56
  3
BUMPTILE
360
175
  3
DIFFUSETILE
360
174
  3
OPACITYTILE
360
176
  3
REFLECTIONTILE
360
177
  0
DICTIONARY
  5
162
330
7F
100
AcDbDictionary
280
     1
281
     1
  3
ACAD_ROUNDTRIP_2008_TABLESTYLE_CELLSTYLEMAP
360
2A1E
  3
ACAD_XREC_ROUNDTRIP
360
2B4D
  0
XRECORD
  5
2B4F
102
{ACAD_REACTORS
330
2B4E
102
}
330
2B4E
100
AcDbXrecord
280
     1
102
SHADEPLOT
 70
     0
102
SHADEPLOTRESLEVEL
 70
     2
102
SHADEPLOTCUSTOMDPI
 70
   300
  0
XRECORD
  5
2B51
102
{ACAD_REACTORS
330
2B50
102
}
330
2B50
100
AcDbXrecord
280
     1
102
SHADEPLOT
 70
     0
102
SHADEPLOTRESLEVEL
 70
     2
102
SHADEPLOTCUSTOMDPI
 70
   300
  0
XRECORD
  5
2B4C
102
{ACAD_REACTORS
330
2B4B
102
}
330
2B4B
100
AcDbXrecord
280
     1
102
SHADEPLOT
 70
     0
102
SHADEPLOTRESLEVEL
 70
     2
102
SHADEPLOTCUSTOMDPI
 70
   300
  0
XRECORD
  5
2B55
102
{ACAD_REACTORS
330
2B54
102
}
330
2B54
100
AcDbXrecord
280
     1
102
MATERIAL
148
0.0
149
0.0
149
0.0
 93
        0
 94
       63
282
     0
 72
     1
 77
     1
171
     1
175
     1
179
     1
273
     0
  0
XRECORD
  5
2B53
102
{ACAD_REACTORS
330
2B52
102
}
330
2B52
100
AcDbXrecord
280
     1
102
MATERIAL
148
0.0
149
0.0
149
0.0
 93
        0
 94
       63
282
     0
 72
     1
 77
     1
171
     1
175
     1
179
     1
273
     0
  0
XRECORD
  5
2B56
102
{ACAD_REACTORS
330
173
102
}
330
173
100
AcDbXrecord
280
     1
102
MATERIAL
148
0.0
149
0.0
149
0.0
 93
        0
 94
       63
282
     0
 72
     1
 77
     1
171
     1
175
     1
179
     1
273
     0
  0
XRECORD
  5
175
102
{ACAD_REACTORS
330
173
102
}
330
173
100
AcDbXrecord
280
     1
270
     1
271
     1
  0
XRECORD
  5
174
102
{ACAD_REACTORS
330
173
102
}
330
173
100
AcDbXrecord
280
     1
270
     1
271
     1
  0
XRECORD
  5
176
102
{ACAD_REACTORS
330
173
102
}
330
173
100
AcDbXrecord
280
     1
270
     1
271
     1
  0
XRECORD
  5
177
102
{ACAD_REACTORS
330
173
102
}
330
173
100
AcDbXrecord
280
     1
270
     1
271
     1
  0
ACAD_PROXY_OBJECT
  5
2A1E
102
{ACAD_REACTORS
330
162
102
}
330
162
100
AcDbProxyObject
 90
      499
 91
      509
 95
       23
 70
     0
 93
     5304
310
40D054060020000020000003200101A000080002A5058000000C10000000000000006101010000000000003E0FC000000000000F83F0000000000003E0FC000000000000F83F000000000000049000000000000001240419019018000000C1003FBFFFFFE0000000000003C8FD029018000000C1003FBFFFFFE00000000000
310
03C8FD049018000000C1003FBFFFFFE0000000000003C8FD089018000000C1003FBFFFFFE0000000000003C8FD109018000000C1003FBFFFFFE0000000000003C8FD209018000000C1003FBFFFFFE0000000000003C8FD01405075F5449544C450041501A8000000C800406800020000A94160000003040000000000000012
310
40404000000000000F83F0000000000003E0FC000000000000F83F0000000000003E0FC0000000000001240000000000000049010640640600000030400FEFFFFFF8000000000000F23F40A40600000030400FEFFFFFF8000000000000F23F41240600000030400FEFFFFFF8000000000000F23F42240600000030400FEFFF
310
FFF8000000000000F23F44240600000030400FEFFFFFF8000000000000F23F48240600000030400FEFFFFFF8000000000000F23F409014217D2115051115480105406A0000003200101A000080002A5028000000C10000000000000004901010000000000003E0FC000000000000F83F0000000000003E0FC000000000000F
310
83F000000000000049000000000000001240419019018000000C1003FBFFFFFE0000000000003C8FD029018000000C1003FBFFFFFE0000000000003C8FD049018000000C1003FBFFFFFE0000000000003C8FD089018000000C1003FBFFFFFE0000000000003C8FD109018000000C1003FBFFFFFE0000000000003C8FD20901
310
8000000C1003FBFFFFFE0000000000003C8FD03409065F444154410000
340
11
340
14
340
14
340
14
340
14
340
14
340
14
340
11
340
14
340
14
340
14
340
14
340
14
340
14
340
11
340
14
340
14
340
14
340
14
340
14
340
14
 94
        0
1001
ACAD
1000
AcRTDxfName
1000
CELLSTYLEMAP
1000
AcRTDxfName
1000
CELLSTYLEMAP
  0
XRECORD
  5
2B4D
102
{ACAD_REACTORS
330
162
102
}
330
162
100
AcDbXrecord
280
     1
102
ACAD_ROUNDTRIP_PRE2007_TABLESTYLE
 90
      512
 91
        0
  1

 92
      512
 93
        0
  2

 94
      512
 95
        0
  3

  0
ENDSEC
  0
EOF
