  0
SECTION
  2
HEADER
  9
$ACADVER
  1
AC1015
  9
$ACADMAINTVER
 70
    20
  9
$DWGCODEPAGE
  3
ANSI_1250
  9
$INSBASE
 10
0.0
 20
0.0
 30
0.0
  9
$EXTMIN
 10
-0.6253078003196606
 20
0.6357672371379977
 30
-0.0000000000112498
  9
$EXTMAX
 10
333.7366674069405
 20
297.6448287449279
 30
0.0000000000002956
  9
$LIMMIN
 10
-0.6202095782973629
 20
0.6402959163851847
  9
$LIMMAX
 10
333.7315645137926
 20
297.6402959163852
  9
$ORTHOMODE
 70
     1
  9
$REGENMODE
 70
     1
  9
$FILLMODE
 70
     1
  9
$QTEXTMODE
 70
     0
  9
$MIRRTEXT
 70
     0
  9
$LTSCALE
 40
1.0
  9
$ATTMODE
 70
     2
  9
$TEXTSIZE
 40
5.0
  9
$TRACEWID
 40
1.0
  9
$TEXTSTYLE
  7
Solbet_5
  9
$CLAYER
  8
SOLBET_Bloczki
  9
$CELTYPE
  6
ByLayer
  9
$CECOLOR
 62
   256
  9
$CELTSCALE
 40
1.0
  9
$DISPSILH
 70
     0
  9
$DIMSCALE
 40
1.0
  9
$DIMASZ
 40
2.5
  9
$DIMEXO
 40
0.0
  9
$DIMDLI
 40
3.75
  9
$DIMRND
 40
0.0
  9
$DIMDLE
 40
0.0
  9
$DIMEXE
 40
1.25
  9
$DIMTP
 40
0.0
  9
$DIMTM
 40
0.0
  9
$DIMTXT
 40
2.5
  9
$DIMCEN
 40
2.5
  9
$DIMTSZ
 40
0.0
  9
$DIMTOL
 70
     0
  9
$DIMLIM
 70
     0
  9
$DIMTIH
 70
     0
  9
$DIMTOH
 70
     0
  9
$DIMSE1
 70
     0
  9
$DIMSE2
 70
     0
  9
$DIMTAD
 70
     1
  9
$DIMZIN
 70
     8
  9
$DIMBLK
  1

  9
$DIMASO
 70
     1
  9
$DIMSHO
 70
     1
  9
$DIMPOST
  1

  9
$DIMAPOST
  1

  9
$DIMALT
 70
     0
  9
$DIMALTD
 70
     3
  9
$DIMALTF
 40
0.03937007874016
  9
$DIMLFAC
 40
1.0
  9
$DIMTOFL
 70
     1
  9
$DIMTVP
 40
0.0
  9
$DIMTIX
 70
     0
  9
$DIMSOXD
 70
     0
  9
$DIMSAH
 70
     0
  9
$DIMBLK1
  1

  9
$DIMBLK2
  1

  9
$DIMSTYLE
  2
Solbet
  9
$DIMCLRD
 70
     0
  9
$DIMCLRE
 70
     0
  9
$DIMCLRT
 70
     0
  9
$DIMTFAC
 40
1.0
  9
$DIMGAP
 40
0.625
  9
$DIMJUST
 70
     0
  9
$DIMSD1
 70
     0
  9
$DIMSD2
 70
     0
  9
$DIMTOLJ
 70
     0
  9
$DIMTZIN
 70
     8
  9
$DIMALTZ
 70
     0
  9
$DIMALTTZ
 70
     0
  9
$DIMUPT
 70
     0
  9
$DIMDEC
 70
     2
  9
$DIMTDEC
 70
     2
  9
$DIMALTU
 70
     2
  9
$DIMALTTD
 70
     3
  9
$DIMTXSTY
  7
Solbet_2_5
  9
$DIMAUNIT
 70
     0
  9
$DIMADEC
 70
     0
  9
$DIMALTRND
 40
0.0
  9
$DIMAZIN
 70
     0
  9
$DIMDSEP
 70
    44
  9
$DIMATFIT
 70
     3
  9
$DIMFRAC
 70
     0
  9
$DIMLDRBLK
  1

  9
$DIMLUNIT
 70
     2
  9
$DIMLWD
 70
    -2
  9
$DIMLWE
 70
    -2
  9
$DIMTMOVE
 70
     0
  9
$LUNITS
 70
     2
  9
$LUPREC
 70
     4
  9
$SKETCHINC
 40
1.0
  9
$FILLETRAD
 40
0.0
  9
$AUNITS
 70
     0
  9
$AUPREC
 70
     0
  9
$MENU
  1
.
  9
$ELEVATION
 40
0.0
  9
$PELEVATION
 40
0.0
  9
$THICKNESS
 40
0.0
  9
$LIMCHECK
 70
     0
  9
$CHAMFERA
 40
0.0
  9
$CHAMFERB
 40
0.0
  9
$CHAMFERC
 40
0.0
  9
$CHAMFERD
 40
0.0
  9
$SKPOLY
 70
     0
  9
$TDCREATE
 40
2454690.075573148
  9
$TDUCREATE
 40
2454690.033906482
  9
$TDUPDATE
 40
2454848.881443414
  9
$TDUUPDATE
 40
2454848.839776748
  9
$TDINDWG
 40
0.4598017245
  9
$TDUSRTIMER
 40
0.4597971991
  9
$USRTIMER
 70
     1
  9
$ANGBASE
 50
0.0
  9
$ANGDIR
 70
     0
  9
$PDMODE
 70
     0
  9
$PDSIZE
 40
0.0
  9
$PLINEWID
 40
0.0
  9
$SPLFRAME
 70
     0
  9
$SPLINETYPE
 70
     6
  9
$SPLINESEGS
 70
     8
  9
$HANDSEED
  5
294D
  9
$SURFTAB1
 70
     6
  9
$SURFTAB2
 70
     6
  9
$SURFTYPE
 70
     6
  9
$SURFU
 70
     6
  9
$SURFV
 70
     6
  9
$UCSBASE
  2

  9
$UCSNAME
  2

  9
$UCSORG
 10
0.0
 20
0.0
 30
0.0
  9
$UCSXDIR
 10
1.0
 20
0.0
 30
0.0
  9
$UCSYDIR
 10
0.0
 20
1.0
 30
0.0
  9
$UCSORTHOREF
  2

  9
$UCSORTHOVIEW
 70
     0
  9
$UCSORGTOP
 10
0.0
 20
0.0
 30
0.0
  9
$UCSORGBOTTOM
 10
0.0
 20
0.0
 30
0.0
  9
$UCSORGLEFT
 10
0.0
 20
0.0
 30
0.0
  9
$UCSORGRIGHT
 10
0.0
 20
0.0
 30
0.0
  9
$UCSORGFRONT
 10
0.0
 20
0.0
 30
0.0
  9
$UCSORGBACK
 10
0.0
 20
0.0
 30
0.0
  9
$PUCSBASE
  2

  9
$PUCSNAME
  2

  9
$PUCSORG
 10
0.0
 20
0.0
 30
0.0
  9
$PUCSXDIR
 10
1.0
 20
0.0
 30
0.0
  9
$PUCSYDIR
 10
0.0
 20
1.0
 30
0.0
  9
$PUCSORTHOREF
  2

  9
$PUCSORTHOVIEW
 70
     0
  9
$PUCSORGTOP
 10
0.0
 20
0.0
 30
0.0
  9
$PUCSORGBOTTOM
 10
0.0
 20
0.0
 30
0.0
  9
$PUCSORGLEFT
 10
0.0
 20
0.0
 30
0.0
  9
$PUCSORGRIGHT
 10
0.0
 20
0.0
 30
0.0
  9
$PUCSORGFRONT
 10
0.0
 20
0.0
 30
0.0
  9
$PUCSORGBACK
 10
0.0
 20
0.0
 30
0.0
  9
$USERI1
 70
     0
  9
$USERI2
 70
     0
  9
$USERI3
 70
     0
  9
$USERI4
 70
     0
  9
$USERI5
 70
     0
  9
$USERR1
 40
0.0
  9
$USERR2
 40
0.0
  9
$USERR3
 40
0.0
  9
$USERR4
 40
0.0
  9
$USERR5
 40
0.0
  9
$WORLDVIEW
 70
     1
  9
$SHADEDGE
 70
     3
  9
$SHADEDIF
 70
    70
  9
$TILEMODE
 70
     1
  9
$MAXACTVP
 70
    64
  9
$PINSBASE
 10
0.0
 20
0.0
 30
0.0
  9
$PLIMCHECK
 70
     0
  9
$PEXTMIN
 10
0.0
 20
0.0
 30
0.0
  9
$PEXTMAX
 10
0.0
 20
0.0
 30
0.0
  9
$PLIMMIN
 10
0.0
 20
0.0
  9
$PLIMMAX
 10
12.0
 20
9.0
  9
$UNITMODE
 70
     0
  9
$VISRETAIN
 70
     1
  9
$PLINEGEN
 70
     0
  9
$PSLTSCALE
 70
     1
  9
$TREEDEPTH
 70
  3020
  9
$CMLSTYLE
  2
SOLBET_IZOLACJA
  9
$CMLJUST
 70
     0
  9
$CMLSCALE
 40
20.0
  9
$PROXYGRAPHICS
 70
     1
  9
$MEASUREMENT
 70
     1
  9
$CELWEIGHT
370
    -1
  9
$ENDCAPS
280
     0
  9
$JOINSTYLE
280
     0
  9
$LWDISPLAY
290
     1
  9
$INSUNITS
 70
     4
  9
$HYPERLINKBASE
  1

  9
$STYLESHEET
  1

  9
$XEDIT
290
     1
  9
$CEPSNTYPE
380
     0
  9
$PSTYLEMODE
290
     1
  9
$FINGERPRINTGUID
  2
{6B12AB33-8E39-428E-8E85-461C8D99A3CB}
  9
$VERSIONGUID
  2
{D9579D68-A3A4-4395-B328-363D26DD011E}
  9
$EXTNAMES
290
     1
  9
$PSVPSCALE
 40
0.0
  9
$OLESTARTUP
290
     0
  0
ENDSEC
  0
SECTION
  2
CLASSES
  0
CLASS
  1
ACDBDICTIONARYWDFLT
  2
AcDbDictionaryWithDefault
  3
ObjectDBX Classes
 90
        0
280
     0
281
     0
  0
CLASS
  1
ACDBPLACEHOLDER
  2
AcDbPlaceHolder
  3
ObjectDBX Classes
 90
        0
280
     0
281
     0
  0
CLASS
  1
LAYOUT
  2
AcDbLayout
  3
ObjectDBX Classes
 90
        0
280
     0
281
     0
  0
CLASS
  1
DICTIONARYVAR
  2
AcDbDictionaryVar
  3
ObjectDBX Classes
 90
        0
280
     0
281
     0
  0
CLASS
  1
TABLESTYLE
  2
AcDbTableStyle
  3
ObjectDBX Classes
 90
     4095
280
     0
281
     0
  0
CLASS
  1
MATERIAL
  2
AcDbMaterial
  3
ObjectDBX Classes
 90
     1024
280
     0
281
     0
  0
CLASS
  1
VISUALSTYLE
  2
AcDbVisualStyle
  3
ObjectDBX Classes
 90
     4095
280
     0
281
     0
  0
CLASS
  1
SCALE
  2
AcDbScale
  3
ObjectDBX Classes
 90
     1153
280
     0
281
     0
  0
CLASS
  1
MLEADERSTYLE
  2
AcDbMLeaderStyle
  3
ACDB_MLEADERSTYLE_CLASS
 90
     4095
280
     0
281
     0
  0
CLASS
  1
CELLSTYLEMAP
  2
AcDbCellStyleMap
  3
ObjectDBX Classes
 90
     1152
280
     0
281
     0
  0
CLASS
  1
DIMASSOC
  2
AcDbDimAssoc
  3
"AcDbDimAssoc|Product Desc:     AcDim ARX App For Dimension|Company:          Autodesk, Inc.|WEB Address:      www.autodesk.com"
 90
    32768
280
     0
281
     0
  0
CLASS
  1
SORTENTSTABLE
  2
AcDbSortentsTable
  3
ObjectDBX Classes
 90
        0
280
     0
281
     0
  0
CLASS
  1
MULTILEADER
  2
AcDbMLeader
  3
ACDB_MLEADER_CLASS
 90
    33793
280
     0
281
     1
  0
CLASS
  1
ACDB_MTEXTOBJECTCONTEXTDATA_CLASS
  2
AcDbMTextObjectContextData
  3
ObjectDBX Classes
 90
    33921
280
     0
281
     0
  0
ENDSEC
  0
SECTION
  2
TABLES
  0
TABLE
  2
VPORT
  5
8
102
{ACAD_XDICTIONARY
360
443
102
}
330
0
100
AcDbSymbolTable
 70
     1
  0
VPORT
  5
EA
330
8
100
AcDbSymbolTableRecord
100
AcDbViewportTableRecord
  2
*Active
 70
     0
 10
0.0
 20
0.0
 11
1.0
 21
1.0
 12
166.5556798033104
 22
149.1402979910329
 13
0.0
 23
0.0
 14
10.0
 24
10.0
 15
10.0
 25
10.0
 16
0.0
 26
0.0
 36
1.0
 17
0.0
 27
0.0
 37
0.0
 40
300.3091621912098
 41
1.74582560296846
 42
50.0
 43
0.0
 44
0.0
 50
0.0
 51
0.0
 71
     0
 72
  1000
 73
     1
 74
     3
 75
     0
 76
     0
 77
     0
 78
     0
281
     0
 65
     1
110
0.0
120
0.0
130
0.0
111
1.0
121
0.0
131
0.0
112
0.0
122
1.0
132
0.0
 79
     0
146
0.0
  0
ENDTAB
  0
TABLE
  2
LTYPE
  5
5
330
0
100
AcDbSymbolTable
 70
     2
  0
LTYPE
  5
14
330
5
100
AcDbSymbolTableRecord
100
AcDbLinetypeTableRecord
  2
ByBlock
 70
     0
  3

 72
    65
 73
     0
 40
0.0
  0
LTYPE
  5
15
330
5
100
AcDbSymbolTableRecord
100
AcDbLinetypeTableRecord
  2
ByLayer
 70
     0
  3

 72
    65
 73
     0
 40
0.0
  0
LTYPE
  5
16
330
5
100
AcDbSymbolTableRecord
100
AcDbLinetypeTableRecord
  2
Continuous
 70
     0
  3
Solid line
 72
    65
 73
     0
 40
0.0
  0
LTYPE
  5
982
330
5
100
AcDbSymbolTableRecord
100
AcDbLinetypeTableRecord
  2
BATTING
 70
     0
  3
Batting SSSSSSSSSSSSSSSSSSSSSSSSSSSSSSSSSSSSSSSSSSSSSSS
 72
    65
 73
     4
 40
10.16254
 49
0.00254
 74
     0
 49
-2.54
 74
     4
 75
   134
340
7E7
 46
2.54
 50
0.0
 44
-2.54
 45
0.0
 49
-5.08
 74
     4
 75
   134
340
7E7
 46
2.54
 50
180.0
 44
2.54
 45
0.0
 49
-2.54
 74
     0
  0
ENDTAB
  0
TABLE
  2
LAYER
  5
2
102
{ACAD_XDICTIONARY
360
3E5
102
}
330
0
100
AcDbSymbolTable
 70
    13
  0
LAYER
  5
10
102
{ACAD_XDICTIONARY
360
13C
102
}
330
2
100
AcDbSymbolTableRecord
100
AcDbLayerTableRecord
  2
0
 70
     0
 62
     7
  6
Continuous
370
    -3
390
F
  0
LAYER
  5
2BB
330
2
100
AcDbSymbolTableRecord
100
AcDbLayerTableRecord
  2
DEFPOINTS
 70
     0
 62
     7
  6
Continuous
290
     0
370
    -3
390
F
  0
LAYER
  5
3DD
102
{ACAD_XDICTIONARY
360
403
102
}
330
2
100
AcDbSymbolTableRecord
100
AcDbLayerTableRecord
  2
SOLBET_Bloczki
 70
     0
 62
   140
  6
Continuous
370
    -3
390
F
1001
AcAecLayerStandard
1000

1000

  0
LAYER
  5
3DF
102
{ACAD_XDICTIONARY
360
405
102
}
330
2
100
AcDbSymbolTableRecord
100
AcDbLayerTableRecord
  2
SOLBET_Wymiary_Opisy
 70
     0
 62
     1
  6
Continuous
370
    -3
390
F
1001
AcAecLayerStandard
1000

1000

  0
LAYER
  5
3E0
102
{ACAD_XDICTIONARY
360
407
102
}
330
2
100
AcDbSymbolTableRecord
100
AcDbLayerTableRecord
  2
SOLBET_Beton
 70
     0
 62
     9
  6
Continuous
370
    -3
390
F
1001
AcAecLayerStandard
1000

1000

  0
LAYER
  5
3E1
102
{ACAD_XDICTIONARY
360
409
102
}
330
2
100
AcDbSymbolTableRecord
100
AcDbLayerTableRecord
  2
SOLBET_Izolacja
 70
     0
 62
    40
  6
Continuous
370
    -3
390
F
1001
AcAecLayerStandard
1000

1000

  0
LAYER
  5
3E2
102
{ACAD_XDICTIONARY
360
40B
102
}
330
2
100
AcDbSymbolTableRecord
100
AcDbLayerTableRecord
  2
SOLBET_Zbrojenie_Konstrukcja
 70
     0
 62
     7
  6
Continuous
370
    -3
390
F
1001
AcAecLayerStandard
1000

1000

  0
LAYER
  5
3E4
102
{ACAD_XDICTIONARY
360
40F
102
}
330
2
100
AcDbSymbolTableRecord
100
AcDbLayerTableRecord
  2
SOLBET_Tynki_Posadzki
 70
     0
 62
     3
  6
Continuous
370
    -3
390
F
1001
AcAecLayerStandard
1000

1000

  0
LAYER
  5
3E8
102
{ACAD_XDICTIONARY
360
411
102
}
330
2
100
AcDbSymbolTableRecord
100
AcDbLayerTableRecord
  2
SOLBET_Ramka_05
 70
     0
 62
     2
  6
Continuous
370
    -3
390
F
1001
AcAecLayerStandard
1000

1000

  0
LAYER
  5
472
330
2
100
AcDbSymbolTableRecord
100
AcDbLayerTableRecord
  2
SOLBET_Zaprawy
 70
     0
 62
     4
  6
Continuous
370
    -3
390
F
1001
AcAecLayerStandard
1000

1000

  0
LAYER
  5
4E2
330
2
100
AcDbSymbolTableRecord
100
AcDbLayerTableRecord
  2
SOLBET_Emulsje_Folie
 70
     0
 62
     6
  6
Continuous
370
    -3
390
F
1001
AcAecLayerStandard
1000

1000

  0
LAYER
  5
2393
330
2
100
AcDbSymbolTableRecord
100
AcDbLayerTableRecord
  2
SOLBET_Stolarka_Okna
 70
     0
 62
     2
  6
Continuous
370
    -3
390
F
1001
AcAecLayerStandard
1000

1000

  0
LAYER
  5
284F
102
{ACAD_XDICTIONARY
360
2850
102
}
330
2
100
AcDbSymbolTableRecord
100
AcDbLayerTableRecord
  2
SOLBET_Wymiary_Opisy @ 1
 70
     0
 62
     1
  6
Continuous
370
    -3
390
F
1001
AcAecLayerStandard
1000

1000

1001
AcadAnnotativeDecomposition
1000
AnnotativeData
1002
{
1070
     1
1070
     1
1002
}
  0
ENDTAB
  0
TABLE
  2
STYLE
  5
3
330
0
100
AcDbSymbolTable
 70
     5
  0
STYLE
  5
11
330
3
100
AcDbSymbolTableRecord
100
AcDbTextStyleTableRecord
  2
Standard
 70
     0
 40
0.0
 41
1.0
 50
0.0
 71
     0
 42
2.5
  3
txt.shx
  4

  0
STYLE
  5
7D7
330
3
100
AcDbSymbolTableRecord
100
AcDbTextStyleTableRecord
  2
Solbet_5
 70
     0
 40
5.0
 41
1.0
 50
0.0
 71
     0
 42
5.0
  3
isocpeur.ttf
  4

1001
ACAD
1000
ISOCPEUR
1071
       34
  0
STYLE
  5
7D9
330
3
100
AcDbSymbolTableRecord
100
AcDbTextStyleTableRecord
  2
Solbet_2_5
 70
     0
 40
2.5
 41
1.0
 50
0.0
 71
     0
 42
2.5
  3
isocpeur.ttf
  4

1001
ACAD
1000
ISOCPEUR
1071
       34
  0
STYLE
  5
7E7
330
3
100
AcDbSymbolTableRecord
100
AcDbTextStyleTableRecord
  2

 70
     1
 40
0.0
 41
1.0
 50
0.0
 71
     0
 42
2.5
  3
ltypeshp.shx
  4

  0
STYLE
  5
236A
330
3
100
AcDbSymbolTableRecord
100
AcDbTextStyleTableRecord
  2
Solbet_1
 70
     0
 40
1.0
 41
1.0
 50
0.0
 71
     0
 42
2.5
  3
isocpeur.ttf
  4

1001
ACAD
1000
ISOCPEUR
1071
       34
  0
ENDTAB
  0
TABLE
  2
VIEW
  5
6
330
0
100
AcDbSymbolTable
 70
     0
  0
ENDTAB
  0
TABLE
  2
UCS
  5
7
330
0
100
AcDbSymbolTable
 70
     0
  0
ENDTAB
  0
TABLE
  2
APPID
  5
9
330
0
100
AcDbSymbolTable
 70
    13
  0
APPID
  5
12
330
9
100
AcDbSymbolTableRecord
100
AcDbRegAppTableRecord
  2
ACAD
 70
     0
  0
APPID
  5
9E
330
9
100
AcDbSymbolTableRecord
100
AcDbRegAppTableRecord
  2
ACAD_PSEXT
 70
     0
  0
APPID
  5
133
330
9
100
AcDbSymbolTableRecord
100
AcDbRegAppTableRecord
  2
AcadAnnoPO
 70
     0
  0
APPID
  5
134
330
9
100
AcDbSymbolTableRecord
100
AcDbRegAppTableRecord
  2
AcadAnnotative
 70
     0
  0
APPID
  5
135
330
9
100
AcDbSymbolTableRecord
100
AcDbRegAppTableRecord
  2
ACAD_DSTYLE_DIMJAG
 70
     0
  0
APPID
  5
136
330
9
100
AcDbSymbolTableRecord
100
AcDbRegAppTableRecord
  2
ACAD_DSTYLE_DIMTALN
 70
     0
  0
APPID
  5
165
330
9
100
AcDbSymbolTableRecord
100
AcDbRegAppTableRecord
  2
ACAD_MLEADERVER
 70
     0
  0
APPID
  5
2C4
330
9
100
AcDbSymbolTableRecord
100
AcDbRegAppTableRecord
  2
ASO_SCHRAFF
 70
     0
  0
APPID
  5
3DE
330
9
100
AcDbSymbolTableRecord
100
AcDbRegAppTableRecord
  2
AcAecLayerStandard
 70
     0
  0
APPID
  5
7DE
330
9
100
AcDbSymbolTableRecord
100
AcDbRegAppTableRecord
  2
ACAD_EXEMPT_FROM_CAD_STANDARDS
 70
     0
  0
APPID
  5
948
330
9
100
AcDbSymbolTableRecord
100
AcDbRegAppTableRecord
  2
ACAD_DSTYLE_DIMBREAK
 70
     0
  0
APPID
  5
1D0A
330
9
100
AcDbSymbolTableRecord
100
AcDbRegAppTableRecord
  2
AcadAnnotativeDecomposition
 70
     0
  0
APPID
  5
236B
330
9
100
AcDbSymbolTableRecord
100
AcDbRegAppTableRecord
  2
AcDbAttr
 70
     0
  0
ENDTAB
  0
TABLE
  2
DIMSTYLE
  5
A
330
0
100
AcDbSymbolTable
 70
     2
100
AcDbDimStyleTable
 71
     1
340
949
  0
DIMSTYLE
105
949
330
A
100
AcDbSymbolTableRecord
100
AcDbDimStyleTableRecord
  2
Solbet
 70
     0
 41
2.5
 42
0.0
 43
3.75
 44
1.25
 73
     0
 74
     0
 77
     1
 78
     8
140
2.5
141
2.5
143
0.03937007874016
147
0.625
171
     3
172
     1
271
     2
272
     2
274
     3
278
    44
283
     0
284
     8
340
7D9
1001
ACAD_DSTYLE_DIMBREAK
1070
   391
1040
3.75
1001
ACAD_DSTYLE_DIMJAG
1070
   388
1040
1.5
1001
ACAD_DSTYLE_DIMTALN
1070
   392
1070
     0
  0
DIMSTYLE
105
954
330
A
100
AcDbSymbolTableRecord
100
AcDbDimStyleTableRecord
  2
Solbet$7
 70
     0
 41
2.5
 42
0.0
 43
3.75
 44
1.25
 73
     0
 74
     0
 77
     1
 78
     8
140
2.5
141
2.5
143
0.03937007874016
147
0.625
171
     3
172
     1
271
     2
272
     2
274
     3
278
    44
283
     0
284
     8
340
7D9
341
958
1001
ACAD_DSTYLE_DIMBREAK
1070
   391
1040
3.75
1001
ACAD_DSTYLE_DIMJAG
1070
   388
1040
1.5
1001
ACAD_DSTYLE_DIMTALN
1070
   392
1070
     0
  0
ENDTAB
  0
TABLE
  2
BLOCK_RECORD
  5
1
330
0
100
AcDbSymbolTable
 70
    12
  0
BLOCK_RECORD
  5
1F
102
{ACAD_XDICTIONARY
360
4A3
102
}
330
1
100
AcDbSymbolTableRecord
100
AcDbBlockTableRecord
  2
*Model_Space
340
22
  0
BLOCK_RECORD
  5
D2
330
1
100
AcDbSymbolTableRecord
100
AcDbBlockTableRecord
  2
*Paper_Space
340
D3
  0
BLOCK_RECORD
  5
D6
330
1
100
AcDbSymbolTableRecord
100
AcDbBlockTableRecord
  2
*Paper_Space0
340
D7
  0
BLOCK_RECORD
  5
1C2
330
1
100
AcDbSymbolTableRecord
100
AcDbBlockTableRecord
  2
ASOWDBLK
340
0
102
{BLKREFS
331
239D
331
239E
331
239F
331
23A0
331
23A1
331
23A2
331
23A3
331
23A4
331
23A5
331
23A6
331
23A7
331
23A8
331
23A9
331
23AA
331
23AB
331
23AC
331
23AD
331
23AE
331
23AF
331
23B0
331
23B1
331
23B2
331
239C
102
}
  0
BLOCK_RECORD
  5
958
330
1
100
AcDbSymbolTableRecord
100
AcDbBlockTableRecord
  2
_DotSmall
340
0
102
{BLKREFS
331
277A
102
}
  0
BLOCK_RECORD
  5
1EF2
330
1
100
AcDbSymbolTableRecord
100
AcDbBlockTableRecord
  2
_None
340
0
  0
BLOCK_RECORD
  5
202E
330
1
100
AcDbSymbolTableRecord
100
AcDbBlockTableRecord
  2
*X4
340
0
102
{BLKREFS
331
2361
102
}
  0
BLOCK_RECORD
  5
208E
330
1
100
AcDbSymbolTableRecord
100
AcDbBlockTableRecord
  2
*U5
340
0
102
{BLKREFS
331
2306
331
2392
102
}
  0
BLOCK_RECORD
  5
2098
330
1
100
AcDbSymbolTableRecord
100
AcDbBlockTableRecord
  2
*U6
340
0
102
{BLKREFS
331
227F
102
}
  0
BLOCK_RECORD
  5
211C
330
1
100
AcDbSymbolTableRecord
100
AcDbBlockTableRecord
  2
*U7
340
0
102
{BLKREFS
331
2275
102
}
  0
BLOCK_RECORD
  5
236C
102
{ACAD_XDICTIONARY
360
237A
102
}
330
1
100
AcDbSymbolTableRecord
100
AcDbBlockTableRecord
  2
SOLBET_Ksztaltka_U_420x240x500_PRA
340
0
102
{BLKREFS
331
2894
102
}
1001
ACAD
1000
DesignCenter Data
1002
{
1070
     1
1070
     4
1002
}
  0
BLOCK_RECORD
  5
237F
102
{ACAD_XDICTIONARY
360
238B
102
}
330
1
100
AcDbSymbolTableRecord
100
AcDbBlockTableRecord
  2
SOLBET_Bloczek_Ideal_420x240x590_P+W_PRA
340
0
1001
ACAD
1000
DesignCenter Data
1002
{
1070
     1
1070
     4
1002
}
  0
BLOCK_RECORD
  5
2898
102
{ACAD_XDICTIONARY
360
28A4
102
}
330
1
100
AcDbSymbolTableRecord
100
AcDbBlockTableRecord
  2
SOLBET_Bloczek_Ideal_420x240x590_P+W_KG400_PRA
340
0
102
{BLKREFS
331
28A8
102
}
1001
ACAD
1000
DesignCenter Data
1002
{
1070
     1
1070
     4
1002
}
  0
ENDTAB
  0
ENDSEC
  0
SECTION
  2
BLOCKS
  0
BLOCK
  5
20
330
1F
100
AcDbEntity
  8
0
100
AcDbBlockBegin
  2
*Model_Space
 70
     0
 10
0.0
 20
0.0
 30
0.0
  3
*Model_Space
  1

  0
ENDBLK
  5
21
330
1F
100
AcDbEntity
  8
0
100
AcDbBlockEnd
  0
BLOCK
  5
D4
330
D2
100
AcDbEntity
 67
     1
  8
0
100
AcDbBlockBegin
  2
*Paper_Space
 70
     0
 10
0.0
 20
0.0
 30
0.0
  3
*Paper_Space
  1

  0
ENDBLK
  5
D5
330
D2
100
AcDbEntity
 67
     1
  8
0
100
AcDbBlockEnd
  0
BLOCK
  5
D8
330
D6
100
AcDbEntity
 67
     1
  8
0
100
AcDbBlockBegin
  2
*Paper_Space0
 70
     0
 10
0.0
 20
0.0
 30
0.0
  3
*Paper_Space0
  1

  0
ENDBLK
  5
D9
330
D6
100
AcDbEntity
 67
     1
  8
0
100
AcDbBlockEnd
  0
BLOCK
  5
1C3
330
1C2
100
AcDbEntity
  8
0
100
AcDbBlockBegin
  2
ASOWDBLK
 70
     0
 10
0.0
 20
0.0
 30
0.0
  3
ASOWDBLK
  1
ASOWDBLK
  0
ARC
  5
1C4
330
1C2
100
AcDbEntity
  8
0
  6
Continuous
 62
     0
100
AcDbCircle
 10
0.0
 20
0.25
 30
0.0
 40
0.25
100
AcDbArc
 50
270.0000011238745
 51
36.86989141244799
  0
ARC
  5
1C5
330
1C2
100
AcDbEntity
  8
0
  6
Continuous
 62
     0
100
AcDbCircle
 10
0.25
 20
0.75
 30
0.0
 40
0.25
100
AcDbArc
 50
323.1300909874582
 51
216.8699112602908
  0
LINE
  5
1C6
330
1C2
100
AcDbEntity
  8
0
  6
Continuous
 62
     0
100
AcDbLine
 10
0.05
 20
0.6
 30
0.0
 11
0.2
 21
0.4
 31
0.0
  0
ARC
  5
1C7
330
1C2
100
AcDbEntity
  8
0
  6
Continuous
 62
     0
100
AcDbCircle
 10
0.5
 20
0.25
 30
0.0
 40
0.25
100
AcDbArc
 50
143.1301284353948
 51
270.0000011238745
  0
LINE
  5
1C8
330
1C2
100
AcDbEntity
  8
0
  6
Continuous
 62
     0
100
AcDbLine
 10
0.45
 20
0.6
 30
0.0
 11
0.3
 21
0.4
 31
0.0
  0
ENDBLK
  5
1C9
330
1C2
100
AcDbEntity
  8
0
100
AcDbBlockEnd
  0
BLOCK
  5
95A
330
958
100
AcDbEntity
  8
0
100
AcDbBlockBegin
  2
_DotSmall
 70
     0
 10
0.0
 20
0.0
 30
0.0
  3
_DotSmall
  1

  0
LWPOLYLINE
  5
959
330
958
100
AcDbEntity
  8
0
  6
ByBlock
 62
     0
100
AcDbPolyline
 90
        2
 70
     1
 43
0.5
 10
-0.0625
 20
0.0
 42
1.0
 10
0.0625
 20
0.0
 42
1.0
  0
ENDBLK
  5
95B
330
958
100
AcDbEntity
  8
0
100
AcDbBlockEnd
  0
BLOCK
  5
1EF3
330
1EF2
100
AcDbEntity
  8
0
100
AcDbBlockBegin
  2
_None
 70
     0
 10
0.0
 20
0.0
 30
0.0
  3
_None
  1

  0
ENDBLK
  5
1EF4
330
1EF2
100
AcDbEntity
  8
0
100
AcDbBlockEnd
  0
BLOCK
  5
202F
330
202E
100
AcDbEntity
  8
0
100
AcDbBlockBegin
  2
*X4
 70
     1
 10
0.0
 20
0.0
 30
0.0
  3
*X4
  1
ASOWDBLK
  0
LINE
  5
2030
330
202E
100
AcDbEntity
  8
0
 62
     0
100
AcDbLine
 10
11.99304811965889
 20
9.120426821088543
 30
0.0
 11
12.03304811965889
 21
9.16042682108854
 31
0.0
  0
LINE
  5
2031
330
202E
100
AcDbEntity
  8
0
 62
     0
100
AcDbLine
 10
11.94885394583473
 20
9.120426821088543
 30
0.0
 11
11.98885394583473
 21
9.16042682108854
 31
0.0
  0
LINE
  5
2032
330
202E
100
AcDbEntity
  8
0
 62
     0
100
AcDbLine
 10
11.90465977201057
 20
9.120426821088543
 30
0.0
 11
11.94465977201057
 21
9.16042682108854
 31
0.0
  0
LINE
  5
2033
330
202E
100
AcDbEntity
  8
0
 62
     0
100
AcDbLine
 10
11.86046559818641
 20
9.120426821088543
 30
0.0
 11
11.90046559818641
 21
9.16042682108854
 31
0.0
  0
LINE
  5
2034
330
202E
100
AcDbEntity
  8
0
 62
     0
100
AcDbLine
 10
11.81627142436225
 20
9.120426821088543
 30
0.0
 11
11.85627142436225
 21
9.16042682108854
 31
0.0
  0
LINE
  5
2035
330
202E
100
AcDbEntity
  8
0
 62
     0
100
AcDbLine
 10
11.77207725053809
 20
9.120426821088543
 30
0.0
 11
11.81207725053809
 21
9.16042682108854
 31
0.0
  0
LINE
  5
2036
330
202E
100
AcDbEntity
  8
0
 62
     0
100
AcDbLine
 10
11.72788307671393
 20
9.120426821088543
 30
0.0
 11
11.76788307671393
 21
9.16042682108854
 31
0.0
  0
LINE
  5
2037
330
202E
100
AcDbEntity
  8
0
 62
     0
100
AcDbLine
 10
11.68368890288977
 20
9.120426821088543
 30
0.0
 11
11.72368890288977
 21
9.16042682108854
 31
0.0
  0
LINE
  5
2038
330
202E
100
AcDbEntity
  8
0
 62
     0
100
AcDbLine
 10
11.63949472906562
 20
9.120426821088543
 30
0.0
 11
11.67949472906562
 21
9.16042682108854
 31
0.0
  0
LINE
  5
2039
330
202E
100
AcDbEntity
  8
0
 62
     0
100
AcDbLine
 10
11.59530055524146
 20
9.120426821088543
 30
0.0
 11
11.63530055524145
 21
9.16042682108854
 31
0.0
  0
LINE
  5
203A
330
202E
100
AcDbEntity
  8
0
 62
     0
100
AcDbLine
 10
11.5511063814173
 20
9.120426821088543
 30
0.0
 11
11.59110638141729
 21
9.16042682108854
 31
0.0
  0
LINE
  5
203B
330
202E
100
AcDbEntity
  8
0
 62
     0
100
AcDbLine
 10
11.50691220759314
 20
9.120426821088543
 30
0.0
 11
11.54691220759314
 21
9.16042682108854
 31
0.0
  0
LINE
  5
203C
330
202E
100
AcDbEntity
  8
0
 62
     0
100
AcDbLine
 10
11.46271803376898
 20
9.120426821088543
 30
0.0
 11
11.50271803376898
 21
9.16042682108854
 31
0.0
  0
LINE
  5
203D
330
202E
100
AcDbEntity
  8
0
 62
     0
100
AcDbLine
 10
11.41852385994482
 20
9.120426821088543
 30
0.0
 11
11.45852385994482
 21
9.16042682108854
 31
0.0
  0
LINE
  5
203E
330
202E
100
AcDbEntity
  8
0
 62
     0
100
AcDbLine
 10
11.39401831761913
 20
9.140115452587011
 30
0.0
 11
11.41432968612066
 21
9.16042682108854
 31
0.0
  0
LINE
  5
203F
330
202E
100
AcDbEntity
  8
0
 62
     0
100
AcDbLine
 10
12.03724229348305
 20
9.120426821088543
 30
0.0
 11
12.07724229348305
 21
9.16042682108854
 31
0.0
  0
LINE
  5
2040
330
202E
100
AcDbEntity
  8
0
 62
     0
100
AcDbLine
 10
12.08143646730721
 20
9.120426821088543
 30
0.0
 11
12.12143646730721
 21
9.16042682108854
 31
0.0
  0
LINE
  5
2041
330
202E
100
AcDbEntity
  8
0
 62
     0
100
AcDbLine
 10
12.12563064113137
 20
9.120426821088543
 30
0.0
 11
12.16563064113137
 21
9.16042682108854
 31
0.0
  0
LINE
  5
2042
330
202E
100
AcDbEntity
  8
0
 62
     0
100
AcDbLine
 10
12.16982481495553
 20
9.120426821088543
 30
0.0
 11
12.20982481495552
 21
9.16042682108854
 31
0.0
  0
LINE
  5
2043
330
202E
100
AcDbEntity
  8
0
 62
     0
100
AcDbLine
 10
12.21401898877969
 20
9.120426821088543
 30
0.0
 11
12.25401898877968
 21
9.16042682108854
 31
0.0
  0
LINE
  5
2044
330
202E
100
AcDbEntity
  8
0
 62
     0
100
AcDbLine
 10
12.25821316260385
 20
9.120426821088543
 30
0.0
 11
12.29821316260384
 21
9.16042682108854
 31
0.0
  0
LINE
  5
2045
330
202E
100
AcDbEntity
  8
0
 62
     0
100
AcDbLine
 10
12.302407336428
 20
9.120426821088543
 30
0.0
 11
12.342407336428
 21
9.16042682108854
 31
0.0
  0
LINE
  5
2046
330
202E
100
AcDbEntity
  8
0
 62
     0
100
AcDbLine
 10
12.34660151025216
 20
9.120426821088543
 30
0.0
 11
12.38660151025216
 21
9.16042682108854
 31
0.0
  0
LINE
  5
2047
330
202E
100
AcDbEntity
  8
0
 62
     0
100
AcDbLine
 10
12.39079568407632
 20
9.120426821088543
 30
0.0
 11
12.43079568407632
 21
9.16042682108854
 31
0.0
  0
LINE
  5
2048
330
202E
100
AcDbEntity
  8
0
 62
     0
100
AcDbLine
 10
12.43498985790048
 20
9.120426821088543
 30
0.0
 11
12.47498985790048
 21
9.16042682108854
 31
0.0
  0
LINE
  5
2049
330
202E
100
AcDbEntity
  8
0
 62
     0
100
AcDbLine
 10
12.47918403172464
 20
9.120426821088543
 30
0.0
 11
12.51918403172464
 21
9.16042682108854
 31
0.0
  0
LINE
  5
204A
330
202E
100
AcDbEntity
  8
0
 62
     0
100
AcDbLine
 10
12.5233782055488
 20
9.120426821088543
 30
0.0
 11
12.5633782055488
 21
9.16042682108854
 31
0.0
  0
LINE
  5
204B
330
202E
100
AcDbEntity
  8
0
 62
     0
100
AcDbLine
 10
12.56757237937296
 20
9.120426821088543
 30
0.0
 11
12.60757237937296
 21
9.16042682108854
 31
0.0
  0
LINE
  5
204C
330
202E
100
AcDbEntity
  8
0
 62
     0
100
AcDbLine
 10
12.61176655319712
 20
9.120426821088543
 30
0.0
 11
12.65176655319712
 21
9.16042682108854
 31
0.0
  0
LINE
  5
204D
330
202E
100
AcDbEntity
  8
0
 62
     0
100
AcDbLine
 10
12.65596072702128
 20
9.120426821088543
 30
0.0
 11
12.68399674713724
 21
9.1484628412045
 31
0.0
  0
LINE
  5
204E
330
202E
100
AcDbEntity
  8
0
 62
     0
100
AcDbLine
 10
12.04858244068372
 20
9.120426821088543
 30
0.0
 11
12.00858244068372
 21
9.16042682108854
 31
0.0
  0
LINE
  5
204F
330
202E
100
AcDbEntity
  8
0
 62
     0
100
AcDbLine
 10
12.00438826685956
 20
9.120426821088543
 30
0.0
 11
11.96438826685956
 21
9.16042682108854
 31
0.0
  0
LINE
  5
2050
330
202E
100
AcDbEntity
  8
0
 62
     0
100
AcDbLine
 10
11.9601940930354
 20
9.120426821088543
 30
0.0
 11
11.9201940930354
 21
9.16042682108854
 31
0.0
  0
LINE
  5
2051
330
202E
100
AcDbEntity
  8
0
 62
     0
100
AcDbLine
 10
11.91599991921124
 20
9.120426821088543
 30
0.0
 11
11.87599991921124
 21
9.16042682108854
 31
0.0
  0
LINE
  5
2052
330
202E
100
AcDbEntity
  8
0
 62
     0
100
AcDbLine
 10
11.87180574538708
 20
9.120426821088543
 30
0.0
 11
11.83180574538708
 21
9.16042682108854
 31
0.0
  0
LINE
  5
2053
330
202E
100
AcDbEntity
  8
0
 62
     0
100
AcDbLine
 10
11.82761157156292
 20
9.120426821088543
 30
0.0
 11
11.78761157156293
 21
9.16042682108854
 31
0.0
  0
LINE
  5
2054
330
202E
100
AcDbEntity
  8
0
 62
     0
100
AcDbLine
 10
11.78341739773876
 20
9.120426821088543
 30
0.0
 11
11.74341739773877
 21
9.16042682108854
 31
0.0
  0
LINE
  5
2055
330
202E
100
AcDbEntity
  8
0
 62
     0
100
AcDbLine
 10
11.7392232239146
 20
9.120426821088543
 30
0.0
 11
11.69922322391461
 21
9.16042682108854
 31
0.0
  0
LINE
  5
2056
330
202E
100
AcDbEntity
  8
0
 62
     0
100
AcDbLine
 10
11.69502905009045
 20
9.120426821088543
 30
0.0
 11
11.65502905009045
 21
9.16042682108854
 31
0.0
  0
LINE
  5
2057
330
202E
100
AcDbEntity
  8
0
 62
     0
100
AcDbLine
 10
11.65083487626629
 20
9.120426821088543
 30
0.0
 11
11.61083487626629
 21
9.16042682108854
 31
0.0
  0
LINE
  5
2058
330
202E
100
AcDbEntity
  8
0
 62
     0
100
AcDbLine
 10
11.60664070244213
 20
9.120426821088543
 30
0.0
 11
11.56664070244213
 21
9.16042682108854
 31
0.0
  0
LINE
  5
2059
330
202E
100
AcDbEntity
  8
0
 62
     0
100
AcDbLine
 10
11.56244652861797
 20
9.120426821088543
 30
0.0
 11
11.52244652861797
 21
9.16042682108854
 31
0.0
  0
LINE
  5
205A
330
202E
100
AcDbEntity
  8
0
 62
     0
100
AcDbLine
 10
11.51825235479381
 20
9.120426821088543
 30
0.0
 11
11.47825235479381
 21
9.16042682108854
 31
0.0
  0
LINE
  5
205B
330
202E
100
AcDbEntity
  8
0
 62
     0
100
AcDbLine
 10
11.47405818096965
 20
9.120426821088543
 30
0.0
 11
11.43405818096965
 21
9.16042682108854
 31
0.0
  0
LINE
  5
205C
330
202E
100
AcDbEntity
  8
0
 62
     0
100
AcDbLine
 10
11.42986400714549
 20
9.120426821088543
 30
0.0
 11
11.39401831761913
 21
9.156272510614906
 31
0.0
  0
LINE
  5
205D
330
202E
100
AcDbEntity
  8
0
 62
     0
100
AcDbLine
 10
12.09277661450788
 20
9.120426821088543
 30
0.0
 11
12.05277661450788
 21
9.16042682108854
 31
0.0
  0
LINE
  5
205E
330
202E
100
AcDbEntity
  8
0
 62
     0
100
AcDbLine
 10
12.13697078833203
 20
9.120426821088543
 30
0.0
 11
12.09697078833204
 21
9.16042682108854
 31
0.0
  0
LINE
  5
205F
330
202E
100
AcDbEntity
  8
0
 62
     0
100
AcDbLine
 10
12.1811649621562
 20
9.120426821088543
 30
0.0
 11
12.1411649621562
 21
9.16042682108854
 31
0.0
  0
LINE
  5
2060
330
202E
100
AcDbEntity
  8
0
 62
     0
100
AcDbLine
 10
12.22535913598036
 20
9.120426821088543
 30
0.0
 11
12.18535913598036
 21
9.16042682108854
 31
0.0
  0
LINE
  5
2061
330
202E
100
AcDbEntity
  8
0
 62
     0
100
AcDbLine
 10
12.26955330980451
 20
9.120426821088543
 30
0.0
 11
12.22955330980451
 21
9.16042682108854
 31
0.0
  0
LINE
  5
2062
330
202E
100
AcDbEntity
  8
0
 62
     0
100
AcDbLine
 10
12.31374748362867
 20
9.120426821088543
 30
0.0
 11
12.27374748362868
 21
9.16042682108854
 31
0.0
  0
LINE
  5
2063
330
202E
100
AcDbEntity
  8
0
 62
     0
100
AcDbLine
 10
12.35794165745283
 20
9.120426821088543
 30
0.0
 11
12.31794165745283
 21
9.16042682108854
 31
0.0
  0
LINE
  5
2064
330
202E
100
AcDbEntity
  8
0
 62
     0
100
AcDbLine
 10
12.40213583127699
 20
9.120426821088543
 30
0.0
 11
12.36213583127699
 21
9.16042682108854
 31
0.0
  0
LINE
  5
2065
330
202E
100
AcDbEntity
  8
0
 62
     0
100
AcDbLine
 10
12.44633000510115
 20
9.120426821088543
 30
0.0
 11
12.40633000510115
 21
9.16042682108854
 31
0.0
  0
LINE
  5
2066
330
202E
100
AcDbEntity
  8
0
 62
     0
100
AcDbLine
 10
12.49052417892531
 20
9.120426821088543
 30
0.0
 11
12.45052417892531
 21
9.16042682108854
 31
0.0
  0
LINE
  5
2067
330
202E
100
AcDbEntity
  8
0
 62
     0
100
AcDbLine
 10
12.53471835274947
 20
9.120426821088543
 30
0.0
 11
12.49471835274947
 21
9.16042682108854
 31
0.0
  0
LINE
  5
2068
330
202E
100
AcDbEntity
  8
0
 62
     0
100
AcDbLine
 10
12.57891252657363
 20
9.120426821088543
 30
0.0
 11
12.53891252657363
 21
9.16042682108854
 31
0.0
  0
LINE
  5
2069
330
202E
100
AcDbEntity
  8
0
 62
     0
100
AcDbLine
 10
12.62310670039779
 20
9.120426821088543
 30
0.0
 11
12.58310670039779
 21
9.16042682108854
 31
0.0
  0
LINE
  5
206A
330
202E
100
AcDbEntity
  8
0
 62
     0
100
AcDbLine
 10
12.66730087422195
 20
9.120426821088543
 30
0.0
 11
12.62730087422195
 21
9.16042682108854
 31
0.0
  0
LINE
  5
206B
330
202E
100
AcDbEntity
  8
0
 62
     0
100
AcDbLine
 10
12.68399674713724
 20
9.147925121997415
 30
0.0
 11
12.67149504804611
 21
9.16042682108854
 31
0.0
  0
ENDBLK
  5
206C
330
202E
100
AcDbEntity
  8
0
100
AcDbBlockEnd
  0
BLOCK
  5
208F
330
208E
100
AcDbEntity
  8
0
100
AcDbBlockBegin
  2
*U5
 70
     1
 10
0.0
 20
0.0
 30
0.0
  3
*U5
  1
*ANON
  0
SOLID
  5
2090
330
208E
100
AcDbEntity
  8
0
 62
     0
100
AcDbTrace
 10
7.91857274013904
 20
2.701391938321373
 30
0.0
 11
7.972731263906927
 21
2.701391938321373
 31
0.0
 12
7.972731263906926
 22
2.711391938321373
 32
0.0
 13
7.972731263906926
 23
2.711391938321373
 33
0.0
  0
SOLID
  5
2091
330
208E
100
AcDbEntity
  8
0
 62
     0
100
AcDbTrace
 10
7.91857274013904
 20
2.701391938321373
 30
0.0
 11
7.972731263906926
 21
2.711391938321373
 31
0.0
 12
7.91857274013904
 22
2.711391938321373
 32
0.0
 13
7.91857274013904
 23
2.711391938321373
 33
0.0
  0
ENDBLK
  5
2092
330
208E
100
AcDbEntity
  8
0
100
AcDbBlockEnd
  0
BLOCK
  5
2099
330
2098
100
AcDbEntity
  8
0
100
AcDbBlockBegin
  2
*U6
 70
     1
 10
0.0
 20
0.0
 30
0.0
  3
*U6
  1
*ANON
  0
SOLID
  5
209A
330
2098
100
AcDbEntity
  8
0
 62
     0
100
AcDbTrace
 10
9.736510007084646
 20
7.1547865458243
 30
0.0
 11
9.790668530852533
 21
7.1547865458243
 31
0.0
 12
9.790668530852531
 22
7.1647865458243
 32
0.0
 13
9.790668530852531
 23
7.1647865458243
 33
0.0
  0
SOLID
  5
209B
330
2098
100
AcDbEntity
  8
0
 62
     0
100
AcDbTrace
 10
9.736510007084646
 20
7.1547865458243
 30
0.0
 11
9.790668530852531
 21
7.1647865458243
 31
0.0
 12
9.736510007084646
 22
7.1647865458243
 32
0.0
 13
9.736510007084646
 23
7.1647865458243
 33
0.0
  0
ENDBLK
  5
209C
330
2098
100
AcDbEntity
  8
0
100
AcDbBlockEnd
  0
BLOCK
  5
211D
330
211C
100
AcDbEntity
  8
0
100
AcDbBlockBegin
  2
*U7
 70
     1
 10
0.0
 20
0.0
 30
0.0
  3
*U7
  1
*ANON
  0
ARC
  5
211E
330
211C
100
AcDbEntity
  8
0
  6
ByBlock
 62
     0
100
AcDbCircle
 10
4.194633358910301
 20
13.69432648097586
 30
0.0
 40
0.0173333333333333
100
AcDbArc
 50
191.0874892095528
 51
230.2848627633511
  0
ARC
  5
211F
330
211C
100
AcDbEntity
  8
0
  6
ByBlock
 62
     0
100
AcDbCircle
 10
4.194633358910301
 20
13.69432648097586
 30
0.0
 40
0.0453333333333333
100
AcDbArc
 50
184.2167304787711
 51
197.1046351764481
  0
ARC
  5
2120
330
211C
100
AcDbEntity
  8
0
  6
ByBlock
 62
     0
100
AcDbCircle
 10
4.194633358910301
 20
13.69432648097586
 30
0.0
 40
0.0733333333333333
100
AcDbArc
 50
182.6052512650395
 51
190.4756816963495
  0
ARC
  5
2121
330
211C
100
AcDbEntity
  8
0
  6
ByBlock
 62
     0
100
AcDbCircle
 10
4.194633358910301
 20
13.69432648097586
 30
0.0
 40
0.1013333333333332
100
AcDbArc
 50
181.8850696544342
 51
187.5608431766512
  0
ARC
  5
2122
330
211C
100
AcDbEntity
  8
0
  6
ByBlock
 62
     0
100
AcDbCircle
 10
4.194633358910301
 20
13.69432648097586
 30
0.0
 40
0.1293333333333333
100
AcDbArc
 50
181.4768588815162
 51
185.9172947517723
  0
ARC
  5
2123
330
211C
100
AcDbEntity
  8
0
  6
ByBlock
 62
     0
100
AcDbCircle
 10
4.194633358910301
 20
13.69432648097586
 30
0.0
 40
0.1573333333333333
100
AcDbArc
 50
181.2139844645462
 51
184.8614053957918
  0
ARC
  5
2124
330
211C
100
AcDbEntity
  8
0
  6
ByBlock
 62
     0
100
AcDbCircle
 10
4.194633358910301
 20
13.69432648097586
 30
0.0
 40
0.1853333333333333
100
AcDbArc
 50
181.0305551976697
 51
184.125562548545
  0
ENDBLK
  5
2125
330
211C
100
AcDbEntity
  8
0
100
AcDbBlockEnd
  0
BLOCK
  5
237C
330
236C
100
AcDbEntity
  8
0
100
AcDbBlockBegin
  2
SOLBET_Ksztaltka_U_420x240x500_PRA
 70
     2
 10
0.0
 20
0.0
 30
0.0
  3
SOLBET_Ksztaltka_U_420x240x500_PRA
  1

  0
ATTDEF
  5
236D
330
236C
100
AcDbEntity
  8
SOLBET_Wymiary_Opisy
100
AcDbText
 10
-0.0000000476806008
 20
4.790718044940628
 30
0.0
 40
0.9913121336814832
  1
420x240x500
  7
Solbet_1
100
AcDbAttributeDefinition
  3

  2
WYMIARY
 70
     3
1001
AcDbAttr
1070
     0
1070
     1
  0
ATTDEF
  5
236E
330
236C
100
AcDbEntity
  8
SOLBET_Wymiary_Opisy
100
AcDbText
 10
-0.0000000476806008
 20
3.27819863722453
 30
0.0
 40
0.9913121336814832
  1
400
  7
Solbet_1
100
AcDbAttributeDefinition
  3

  2
KLASA_GĘSTOŚCI
 70
     3
1001
AcDbAttr
1070
     0
1070
     1
  0
ATTDEF
  5
236F
330
236C
100
AcDbEntity
  8
SOLBET_Wymiary_Opisy
100
AcDbText
 10
-0.0000000476806008
 20
0.2448648003876223
 30
0.0
 40
0.9913121336814832
  1
SOLBET
  7
Solbet_1
100
AcDbAttributeDefinition
  3

  2
FIRMA
 70
     3
1001
AcDbAttr
1070
     0
1070
     1
  0
ATTDEF
  5
2370
330
236C
100
AcDbEntity
  8
SOLBET_Wymiary_Opisy
100
AcDbText
 10
-0.0000000476806008
 20
6.347422594011662
 30
0.0
 40
0.9913121336814832
  1
Kształtka U
  7
Solbet_1
100
AcDbAttributeDefinition
  3
Nazwa
  2
NAZWA
 70
     3
1001
AcDbAttr
1070
     0
1070
     1
  0
ATTDEF
  5
2371
330
236C
100
AcDbEntity
  8
SOLBET_Wymiary_Opisy
100
AcDbText
 10
-0.0000000476806008
 20
1.744181559914735
 30
0.0
 40
0.9913121336814832
  1
Prawo
  7
Solbet_1
100
AcDbAttributeDefinition
  3

  2
WIDOK
 70
    11
1001
AcDbAttr
1070
     0
1070
     1
  0
LINE
  5
2372
330
236C
100
AcDbEntity
  8
SOLBET_Bloczki
100
AcDbLine
 10
0.0000011705760737
 20
20.99999992050084
 30
0.0
 11
12.00000117057607
 21
20.99999992050084
 31
0.0
  0
LINE
  5
2373
330
236C
100
AcDbEntity
  8
SOLBET_Bloczki
100
AcDbLine
 10
12.00000117057607
 20
20.99999992050084
 30
0.0
 11
12.00000117057607
 21
-0.0000000794991628
 31
0.0
  0
LINE
  5
2374
330
236C
100
AcDbEntity
  8
SOLBET_Bloczki
100
AcDbLine
 10
12.00000117057607
 20
-0.0000000794991628
 30
0.0
 11
0.0000011705760699
 21
-0.0000000794991593
 31
0.0
  0
LINE
  5
2375
330
236C
100
AcDbEntity
  8
SOLBET_Bloczki
100
AcDbLine
 10
0.0000011705760699
 20
-0.0000000794991593
 30
0.0
 11
0.0000011705760706
 21
3.99999992050084
 31
0.0
  0
LINE
  5
2376
330
236C
100
AcDbEntity
  8
SOLBET_Bloczki
100
AcDbLine
 10
0.0000011705760737
 20
20.99999992050084
 30
0.0
 11
0.000001170576073
 21
16.99999992050084
 31
0.0
  0
LINE
  5
2377
330
236C
100
AcDbEntity
  8
SOLBET_Bloczki
100
AcDbLine
 10
8.000001170576073
 20
16.99999992050084
 30
0.0
 11
8.000001170576069
 21
3.99999992050084
 31
0.0
  0
LINE
  5
2378
330
236C
100
AcDbEntity
  8
SOLBET_Bloczki
100
AcDbLine
 10
0.000001170576073
 20
16.99999992050084
 30
0.0
 11
8.000001170576073
 21
16.99999992050084
 31
0.0
  0
LINE
  5
2379
330
236C
100
AcDbEntity
  8
SOLBET_Bloczki
100
AcDbLine
 10
0.0000011705760706
 20
3.99999992050084
 30
0.0
 11
8.000001170576069
 21
3.99999992050084
 31
0.0
  0
ENDBLK
  5
237D
330
236C
100
AcDbEntity
  8
0
100
AcDbBlockEnd
  0
BLOCK
  5
238D
330
237F
100
AcDbEntity
  8
0
100
AcDbBlockBegin
  2
SOLBET_Bloczek_Ideal_420x240x590_P+W_PRA
 70
     2
 10
0.0
 20
0.0
 30
0.0
  3
SOLBET_Bloczek_Ideal_420x240x590_P+W_PRA
  1

  0
ATTDEF
  5
2380
330
237F
100
AcDbEntity
  8
SOLBET_Wymiary_Opisy
100
AcDbText
 10
-0.0000000703746536
 20
6.303237281370451
 30
0.0
 40
0.9913121336814832
  1
420x240x590
  7
Solbet_1
100
AcDbAttributeDefinition
  3

  2
WYMIARY
 70
     3
1001
AcDbAttr
1070
     0
1070
     1
  0
ATTDEF
  5
2381
330
237F
100
AcDbEntity
  8
SOLBET_Wymiary_Opisy
100
AcDbText
 10
-0.0000000703746536
 20
4.790717873654354
 30
0.0
 40
0.9913121336814832
  1
400
  7
Solbet_1
100
AcDbAttributeDefinition
  3

  2
KLASA_GĘSTOŚCI
 70
     9
1001
AcDbAttr
1070
     0
1070
     1
  0
ATTDEF
  5
2382
330
237F
100
AcDbEntity
  8
SOLBET_Wymiary_Opisy
100
AcDbText
 10
-0.0000000703746536
 20
3.269569038442127
 30
0.0
 40
0.9913121336814832
  1
Pióra+Wpusty
  7
Solbet_1
100
AcDbAttributeDefinition
  3

  2
PROFILOWANIE
 70
     3
1001
AcDbAttr
1070
     0
1070
     1
  0
ATTDEF
  5
2383
330
237F
100
AcDbEntity
  8
SOLBET_Wymiary_Opisy
100
AcDbText
 10
-0.0000000703746536
 20
0.2448646291013483
 30
0.0
 40
0.9913121336814832
  1
SOLBET
  7
Solbet_1
100
AcDbAttributeDefinition
  3

  2
FIRMA
 70
     3
1001
AcDbAttr
1070
     0
1070
     1
  0
ATTDEF
  5
2384
330
237F
100
AcDbEntity
  8
SOLBET_Wymiary_Opisy
100
AcDbText
 10
-0.0000000703746536
 20
9.333547279718283
 30
0.0
 40
0.9913121336814832
  1
Bloczek
  7
Solbet_1
100
AcDbAttributeDefinition
  3
Nazwa
  2
NAZWA
 70
     3
1001
AcDbAttr
1070
     0
1070
     1
  0
ATTDEF
  5
2385
330
237F
100
AcDbEntity
  8
SOLBET_Wymiary_Opisy
100
AcDbText
 10
-0.0000000703746536
 20
7.794499099484078
 30
0.0
 40
0.9913121336814832
  1
SOLBET IDEAL
  7
Solbet_1
100
AcDbAttributeDefinition
  3

  2
SYSTEM
 70
     3
1001
AcDbAttr
1070
     0
1070
     1
  0
ATTDEF
  5
2386
330
237F
100
AcDbEntity
  8
SOLBET_Wymiary_Opisy
100
AcDbText
 10
-0.0000000703746536
 20
1.74418138862846
 30
0.0
 40
0.9913121336814832
  1
Prawo
  7
Solbet_1
100
AcDbAttributeDefinition
  3

  2
WIDOK
 70
    11
1001
AcDbAttr
1070
     0
1070
     1
  0
LINE
  5
2387
330
237F
100
AcDbEntity
  8
SOLBET_Bloczki
100
AcDbLine
 10
21.00000014074931
 20
12.00000020414847
 30
0.0
 11
21.00000014074931
 21
0.000000204148364
 31
0.0
  0
LINE
  5
2388
330
237F
100
AcDbEntity
  8
SOLBET_Bloczki
100
AcDbLine
 10
21.00000014074931
 20
12.00000020414847
 30
0.0
 11
0.0000001407493072
 21
12.00000020414847
 31
0.0
  0
LINE
  5
2389
330
237F
100
AcDbEntity
  8
SOLBET_Bloczki
100
AcDbLine
 10
0.0000001407493072
 20
12.00000020414847
 30
0.0
 11
0.0000001407493072
 21
0.000000204148364
 31
0.0
  0
LINE
  5
238A
330
237F
100
AcDbEntity
  8
SOLBET_Bloczki
100
AcDbLine
 10
0.0000001407493072
 20
0.000000204148364
 30
0.0
 11
21.00000014074931
 21
0.000000204148364
 31
0.0
  0
ENDBLK
  5
238E
330
237F
100
AcDbEntity
  8
0
100
AcDbBlockEnd
  0
BLOCK
  5
28A6
330
2898
100
AcDbEntity
  8
0
100
AcDbBlockBegin
  2
SOLBET_Bloczek_Ideal_420x240x590_P+W_KG400_PRA
 70
     2
 10
0.0
 20
0.0
 30
0.0
  3
SOLBET_Bloczek_Ideal_420x240x590_P+W_KG400_PRA
  1

  0
ATTDEF
  5
2899
330
2898
100
AcDbEntity
  8
SOLBET_Wymiary_Opisy
100
AcDbText
 10
-0.0000000703746536
 20
6.303237281370451
 30
0.0
 40
0.9913121336814832
  1
420x240x590
  7
Solbet_1
100
AcDbAttributeDefinition
  3

  2
WYMIARY
 70
    11
1001
AcDbAttr
1070
     0
1070
     1
  0
ATTDEF
  5
289A
330
2898
100
AcDbEntity
  8
SOLBET_Wymiary_Opisy
100
AcDbText
 10
-0.0000000703746536
 20
4.790717873654354
 30
0.0
 40
0.9913121336814832
  1
400
  7
Solbet_1
100
AcDbAttributeDefinition
  3

  2
KLASA_GĘSTOŚCI
 70
    11
1001
AcDbAttr
1070
     0
1070
     1
  0
ATTDEF
  5
289B
330
2898
100
AcDbEntity
  8
SOLBET_Wymiary_Opisy
100
AcDbText
 10
-0.0000000703746536
 20
3.269569038442127
 30
0.0
 40
0.9913121336814832
  1
Pióra+Wpusty
  7
Solbet_1
100
AcDbAttributeDefinition
  3

  2
PROFILOWANIE
 70
    11
1001
AcDbAttr
1070
     0
1070
     1
  0
ATTDEF
  5
289C
330
2898
100
AcDbEntity
  8
SOLBET_Wymiary_Opisy
100
AcDbText
 10
-0.0000000703746536
 20
0.2448646291013483
 30
0.0
 40
0.9913121336814832
  1
SOLBET
  7
Solbet_1
100
AcDbAttributeDefinition
  3

  2
FIRMA
 70
    11
1001
AcDbAttr
1070
     0
1070
     1
  0
ATTDEF
  5
289D
330
2898
100
AcDbEntity
  8
SOLBET_Wymiary_Opisy
100
AcDbText
 10
-0.0000000703746536
 20
9.333547279718283
 30
0.0
 40
0.9913121336814832
  1
Bloczek
  7
Solbet_1
100
AcDbAttributeDefinition
  3
Nazwa
  2
NAZWA
 70
    11
1001
AcDbAttr
1070
     0
1070
     1
  0
ATTDEF
  5
289E
330
2898
100
AcDbEntity
  8
SOLBET_Wymiary_Opisy
100
AcDbText
 10
-0.0000000703746536
 20
7.794499099484078
 30
0.0
 40
0.9913121336814832
  1
SOLBET Ideal
  7
Solbet_1
100
AcDbAttributeDefinition
  3

  2
SYSTEM
 70
    11
1001
AcDbAttr
1070
     0
1070
     1
  0
ATTDEF
  5
289F
330
2898
100
AcDbEntity
  8
SOLBET_Wymiary_Opisy
100
AcDbText
 10
-0.0000000703746536
 20
1.74418138862846
 30
0.0
 40
0.9913121336814832
  1
Prawo
  7
Solbet_1
100
AcDbAttributeDefinition
  3

  2
WIDOK
 70
    11
1001
AcDbAttr
1070
     0
1070
     1
  0
LINE
  5
28A0
330
2898
100
AcDbEntity
  8
SOLBET_Bloczki
100
AcDbLine
 10
21.00000014074931
 20
12.00000020414847
 30
0.0
 11
21.00000014074931
 21
0.000000204148364
 31
0.0
  0
LINE
  5
28A1
330
2898
100
AcDbEntity
  8
SOLBET_Bloczki
100
AcDbLine
 10
21.00000014074931
 20
12.00000020414847
 30
0.0
 11
0.0000001407493072
 21
12.00000020414847
 31
0.0
  0
LINE
  5
28A2
330
2898
100
AcDbEntity
  8
SOLBET_Bloczki
100
AcDbLine
 10
0.0000001407493072
 20
12.00000020414847
 30
0.0
 11
0.0000001407493072
 21
0.000000204148364
 31
0.0
  0
LINE
  5
28A3
330
2898
100
AcDbEntity
  8
SOLBET_Bloczki
100
AcDbLine
 10
0.0000001407493072
 20
0.000000204148364
 30
0.0
 11
21.00000014074931
 21
0.000000204148364
 31
0.0
  0
ENDBLK
  5
28A7
330
2898
100
AcDbEntity
  8
0
100
AcDbBlockEnd
  0
ENDSEC
  0
SECTION
  2
ENTITIES
  0
LINE
  5
2261
330
1F
100
AcDbEntity
  8
SOLBET_Beton
100
AcDbLine
 10
80.04224695832576
 20
194.153101453933
 30
0.0
 11
80.99796878016546
 21
192.6976330679361
 31
0.0
  0
LINE
  5
2262
330
1F
100
AcDbEntity
  8
SOLBET_Beton
100
AcDbLine
 10
80.04224695832576
 20
194.153101453933
 30
0.0
 11
79.08652513650062
 21
192.6976330679361
 31
0.0
  0
LINE
  5
2263
330
1F
100
AcDbEntity
  8
SOLBET_Tynki_Posadzki
100
AcDbLine
 10
77.29224695834031
 20
192.1976330679361
 30
0.0
 11
77.29224695834031
 21
203.1976330679397
 31
0.0
  0
LINE
  5
2265
330
1F
100
AcDbEntity
  8
SOLBET_Emulsje_Folie
100
AcDbLine
 10
77.04224695834032
 20
192.6976330679361
 30
0.0
 11
77.04224695834032
 21
205.9931930119499
 31
0.0
  0
LINE
  5
2267
330
1F
100
AcDbEntity
  8
SOLBET_Tynki_Posadzki
100
AcDbLine
 10
79.05728380383274
 20
192.1976330679361
 30
0.0
 11
77.29224695834031
 21
192.1976330679361
 31
0.0
  0
LINE
  5
2268
330
1F
100
AcDbEntity
  8
SOLBET_Emulsje_Folie
100
AcDbLine
 10
161.9361983134416
 20
216.7976330679419
 30
0.0
 11
152.442246958349
 21
216.7976330679419
 31
0.0
  0
LINE
  5
2269
330
1F
100
AcDbEntity
  8
SOLBET_Emulsje_Folie
100
AcDbLine
 10
152.442246958349
 20
207.7962530059529
 30
0.0
 11
152.442246958349
 21
216.7976330679419
 31
0.0
  0
LINE
  5
226A
330
1F
100
AcDbEntity
  8
SOLBET_Emulsje_Folie
100
AcDbLine
 10
152.442246958349
 20
207.7962530059529
 30
0.0
 11
77.54024735820471
 21
206.2982130139469
 31
0.0
  0
LINE
  5
226E
330
1F
100
AcDbEntity
  8
SOLBET_Tynki_Posadzki
100
AcDbLine
 10
152.5422469583403
 20
192.1976330679361
 30
0.0
 11
81.02721011284788
 21
192.1976330679361
 31
0.0
  0
LINE
  5
226F
330
1F
100
AcDbEntity
  8
SOLBET_Beton
100
AcDbLine
 10
79.08652513650062
 20
192.6976330679361
 30
0.0
 11
77.54224695834031
 21
192.6976330679361
 31
0.0
  0
LINE
  5
2270
330
1F
100
AcDbEntity
  8
SOLBET_Tynki_Posadzki
100
AcDbLine
 10
80.04224695832576
 20
193.6976330679397
 30
0.0
 11
79.05728380383274
 21
192.1976330679361
 31
0.0
  0
LINE
  5
2271
330
1F
100
AcDbEntity
  8
SOLBET_Tynki_Posadzki
100
AcDbLine
 10
80.04224695832576
 20
193.6976330679397
 30
0.0
 11
81.02721011284788
 21
192.1976330679361
 31
0.0
  0
LINE
  5
2273
330
1F
100
AcDbEntity
  8
SOLBET_Beton
100
AcDbLine
 10
77.54224695834031
 20
192.6976330679361
 30
0.0
 11
77.54224695834031
 21
203.1976330679397
 31
0.0
  0
LINE
  5
2274
330
1F
100
AcDbEntity
  8
SOLBET_Beton
100
AcDbLine
 10
152.5422469583403
 20
192.6976330679361
 30
0.0
 11
80.99796878016546
 21
192.6976330679361
 31
0.0
  0
INSERT
  5
2275
330
1F
100
AcDbEntity
  8
SOLBET_Stolarka_Okna
100
AcDbBlockReference
  2
*U7
 10
-34.35221161849282
 20
-467.1020243141859
 30
0.0
 41
50.0
 42
50.0
 43
50.0
1001
ASO_SCHRAFF
1005
0
1070
     0
1005
0
  0
LINE
  5
2279
330
1F
100
AcDbEntity
  8
SOLBET_Tynki_Posadzki
100
AcDbLine
 10
174.7922469583257
 20
240.5463874493915
 30
0.0
 11
174.7922469583257
 21
217.4476330679361
 31
0.0
  0
LINE
  5
227A
330
1F
100
AcDbEntity
  8
SOLBET_Stolarka_Okna
100
AcDbLine
 10
163.2504729950136
 20
240.5463874493915
 30
0.0
 11
163.2504729950136
 21
224.1342142722722
 31
0.0
  0
LINE
  5
227B
330
1F
100
AcDbEntity
  8
SOLBET_Stolarka_Okna
100
AcDbLine
 10
164.7085490021685
 20
240.5463874493915
 30
0.0
 11
164.7085490021685
 21
224.1342142722722
 31
0.0
  0
LINE
  5
227C
330
1F
100
AcDbEntity
  8
SOLBET_Stolarka_Okna
100
AcDbLine
 10
166.2349832244629
 20
240.5463874493915
 30
0.0
 11
166.2349832244629
 21
224.8724006307646
 31
0.0
  0
LINE
  5
227D
330
1F
100
AcDbEntity
  8
SOLBET_Stolarka_Okna
100
AcDbLine
 10
161.7922469583403
 20
240.5463874493915
 30
0.0
 11
161.7922469583403
 21
225.0618493276677
 31
0.0
  0
INSERT
  5
227F
330
1F
100
AcDbEntity
  8
SOLBET_Izolacja
100
AcDbBlockReference
  2
*U6
 10
-324.8893020407873
 20
-141.0416942232761
 30
0.0
 41
50.0
 42
50.0
 43
50.0
1001
ASO_SCHRAFF
1005
0
1070
     0
1005
0
  0
LWPOLYLINE
  5
2281
330
1F
100
AcDbEntity
  8
SOLBET_Stolarka_Okna
100
AcDbPolyline
 90
        4
 70
     1
 43
0.0
 10
165.3297325848665
 20
217.4476330679361
 10
175.3794563270324
 20
217.4476330679361
 10
175.3794563270324
 20
216.9476330679361
 10
165.3297325848665
 20
216.9476330679361
  0
ARC
  5
2282
330
1F
100
AcDbEntity
  8
SOLBET_Stolarka_Okna
100
AcDbCircle
 10
165.6109921275032
 20
216.9446579412732
 30
0.0
 40
0.4069335296814501
100
AcDbArc
 50
141.5623929961479
 51
217.3757720391447
  0
CIRCLE
  5
2283
330
1F
100
AcDbEntity
  8
SOLBET_Stolarka_Okna
100
AcDbCircle
 10
164.9002181800873
 20
216.950076528811
 30
0.0
 40
0.25244346087405
  0
LINE
  5
2289
330
1F
100
AcDbEntity
  8
SOLBET_Stolarka_Okna
100
AcDbLine
 10
161.6483665638783
 20
218.4733291200653
 30
0.0
 11
151.8266565669804
 21
217.1176889415452
 31
0.0
  0
LINE
  5
228A
330
1F
100
AcDbEntity
  8
SOLBET_Stolarka_Okna
100
AcDbLine
 10
161.6483665638783
 20
219.1141878753413
 30
0.0
 11
161.6483665638783
 21
218.3733291200704
 31
0.0
  0
LINE
  5
228C
330
1F
100
AcDbEntity
  8
SOLBET_Stolarka_Okna
100
AcDbLine
 10
161.688231638121
 20
216.885880089271
 30
0.0
 11
153.491861266329
 21
216.885880089271
 31
0.0
  0
LINE
  5
228D
330
1F
100
AcDbEntity
  8
SOLBET_Stolarka_Okna
100
AcDbLine
 10
161.688231638121
 20
219.1108642064035
 30
0.0
 11
161.688231638121
 21
216.7858800892652
 31
0.0
  0
LWPOLYLINE
  5
2291
330
1F
100
AcDbEntity
  8
SOLBET_Stolarka_Okna
100
AcDbPolyline
 90
       15
 70
     1
 43
0.0
 10
163.1343972328589
 20
222.9628188463182
 10
163.1343972328589
 20
222.2580772934823
 10
161.7922469583403
 20
222.2580772934823
 10
161.7922469583403
 20
225.0618493276677
 10
163.0525347072374
 20
225.4989276950444
 10
163.0525347072374
 20
223.9281130226707
 10
164.6949232891323
 20
223.9281130226707
 10
166.2349832244629
 20
223.9281130226707
 10
166.2349832244629
 20
220.0315039920358
 10
165.54019248983
 20
220.0315039920358
 10
165.54019248983
 20
222.2580772934823
 10
164.3753976404526
 20
222.2580772934823
 10
164.3753976404526
 20
221.5226961172746
 10
163.5171285759109
 20
221.5226961172746
 10
163.5171285759109
 20
222.9628188463182
  0
LWPOLYLINE
  5
2293
330
1F
100
AcDbEntity
  8
SOLBET_Stolarka_Okna
100
AcDbPolyline
 90
       15
 70
     1
 43
0.0
 10
161.7922469583403
 20
217.1976330679361
 10
165.2922469583257
 20
217.1976330679361
 10
165.2922469583257
 20
220.3239537656271
 10
164.2081186273402
 20
220.3239537656271
 10
164.2081186273402
 20
221.1960211865487
 10
163.1343972328589
 20
221.1960211865487
 10
163.1343972328589
 20
222.1468994835966
 10
162.7887293085926
 20
222.1468994835966
 10
161.7922469583403
 20
221.9282653382987
 10
161.7922469583403
 20
220.3577030204331
 10
161.3290903392747
 20
220.0956378531526
 10
161.3290903392747
 20
218.6899417157299
 10
161.5894714048166
 20
218.6899417157299
 10
161.5894714048166
 20
219.2105088449542
 10
161.7922469583403
 20
219.2105088449542
  0
LWPOLYLINE
  5
2294
330
1F
100
AcDbEntity
  8
SOLBET_Stolarka_Okna
100
AcDbPolyline
 90
        4
 70
     1
 43
0.0
 10
164.8731774847959
 20
225.2214490065933
 10
166.2349832244629
 20
224.8724006307646
 10
166.2349832244629
 20
224.0200448421608
 10
164.8731774847959
 20
224.0200448421608
  0
LINE
  5
2296
330
1F
100
AcDbEntity
  8
SOLBET_Tynki_Posadzki
100
AcDbLine
 10
174.7922469583257
 20
192.1976330679361
 30
0.0
 11
174.2922469583403
 21
192.6976330679361
 31
0.0
  0
LINE
  5
22A0
330
1F
100
AcDbEntity
  8
SOLBET_Izolacja
100
AcDbLine
 10
160.2922469583257
 20
184.6976330679361
 30
0.0
 11
160.2922469583257
 21
195.6976330679397
 31
0.0
  0
LWPOLYLINE
  5
22A1
330
1F
100
AcDbEntity
  8
SOLBET_Zbrojenie_Konstrukcja
100
AcDbPolyline
 90
        2
 70
     1
 43
0.3
 10
166.759204641084
 20
185.9856822118461
 42
-1.0
 10
166.4592046410956
 20
185.9856822118461
 42
-1.0
  0
LWPOLYLINE
  5
22A2
330
1F
100
AcDbEntity
  8
SOLBET_Zbrojenie_Konstrukcja
100
AcDbPolyline
 90
        2
 70
     1
 43
0.3
 10
164.058623348826
 20
185.9856822118461
 42
1.0
 10
164.3586233488143
 20
185.9856822118461
 42
1.0
  0
LINE
  5
22A3
330
1F
100
AcDbEntity
  8
SOLBET_Izolacja
100
AcDbLine
 10
157.2922469583403
 20
184.6976330679361
 30
0.0
 11
157.2922469583403
 21
195.6976330679397
 31
0.0
  0
LINE
  5
22A4
330
1F
100
AcDbEntity
  8
SOLBET_Wymiary_Opisy
100
AcDbLine
 10
147.0671159987226
 20
240.5463874493915
 30
0.0
 11
179.4377947740698
 21
240.5463874493915
 31
0.0
  0
LWPOLYLINE
  5
22A6
102
{ACAD_REACTORS
330
2369
102
}
330
1F
100
AcDbEntity
  8
SOLBET_Zbrojenie_Konstrukcja
100
AcDbPolyline
 90
       16
 70
     1
 43
0.0
 10
160.3121790265553
 20
204.8338151820542
 42
-0.0327594189470737
 10
160.2340431237802
 20
204.8389400555104
 42
-0.0442669587490688
 10
160.1774348981247
 20
204.8515670761815
 42
-0.0869419154566485
 10
160.1307181522546
 20
204.8759709659869
 42
-0.2330776669510323
 10
160.1216220526815
 20
204.8944239397504
 42
-0.2330776669455295
 10
160.1307181522546
 20
204.9128769135066
 42
-0.086941915456222
 10
160.1774348981247
 20
204.9372808033156
 42
-0.0442669587489878
 10
160.2340431237802
 20
204.9499078239831
 42
-0.032759418946939
 10
160.3121790265553
 20
204.9550326974393
 42
-0.032759418947148
 10
160.3903149293304
 20
204.9499078239831
 42
-0.0442669587490284
 10
160.4469231549713
 20
204.9372808033156
 42
-0.0869419154566317
 10
160.493639900856
 20
204.9128769135066
 42
-0.233077666949109
 10
160.502736000429
 20
204.8944239397504
 42
-0.2330776669474527
 10
160.493639900856
 20
204.8759709659869
 42
-0.0869419154562388
 10
160.4469231549713
 20
204.8515670761815
 42
-0.0442669587490685
 10
160.3903149293304
 20
204.8389400555104
 42
-0.0327594189470737
  0
LWPOLYLINE
  5
22A8
102
{ACAD_REACTORS
330
2369
102
}
330
1F
100
AcDbEntity
  8
SOLBET_Zbrojenie_Konstrukcja
100
AcDbPolyline
 90
       16
 70
     1
 43
0.0
 10
170.4716897722804
 20
204.8338151820542
 42
0.0327594189470737
 10
170.5498256750846
 20
204.8389400555104
 42
0.0442669587490688
 10
170.606433900711
 20
204.8515670761815
 42
0.0869419154566485
 10
170.6531506466102
 20
204.8759709659869
 42
0.2330776669510323
 10
170.6622467461541
 20
204.8944239397504
 42
0.2330776669455295
 10
170.6531506466102
 20
204.9128769135066
 42
0.086941915456222
 10
170.606433900711
 20
204.9372808033156
 42
0.0442669587489878
 10
170.5498256750846
 20
204.9499078239831
 42
0.032759418946939
 10
170.4716897722804
 20
204.9550326974393
 42
0.032759418947148
 10
170.3935538695053
 20
204.9499078239831
 42
0.0442669587490284
 10
170.3369456438935
 20
204.9372808033156
 42
0.0869419154566317
 10
170.2902288979943
 20
204.9128769135066
 42
0.233077666949109
 10
170.2811327984357
 20
204.8944239397504
 42
0.2330776669474527
 10
170.2902288979943
 20
204.8759709659869
 42
0.0869419154562388
 10
170.3369456438935
 20
204.8515670761815
 42
0.0442669587490685
 10
170.3935538695053
 20
204.8389400555104
 42
0.0327594189470737
  0
LINE
  5
22AE
330
1F
100
AcDbEntity
  8
SOLBET_Tynki_Posadzki
100
AcDbLine
 10
174.7922469583257
 20
192.1976330679361
 30
0.0
 11
230.7911684342374
 21
192.1976330679361
 31
0.0
  0
LINE
  5
22AF
330
1F
100
AcDbEntity
  8
SOLBET_Tynki_Posadzki
100
AcDbLine
 10
174.7922469583257
 20
192.1976330679361
 30
0.0
 11
174.7922469583257
 21
162.9552237191899
 31
0.0
  0
ARC
  5
22B1
330
1F
100
AcDbEntity
  8
SOLBET_Emulsje_Folie
100
AcDbCircle
 10
175.6570630080071
 20
207.6434723815117
 30
0.0
 40
0.25
100
AcDbArc
 50
180.0
 51
270.0
  0
LINE
  5
22B2
330
1F
100
AcDbEntity
  8
SOLBET_Emulsje_Folie
100
AcDbLine
 10
175.6570630080071
 20
207.3934723815153
 30
0.0
 11
230.7911684342374
 21
207.3934723815153
 31
0.0
  0
LINE
  5
22B3
330
1F
100
AcDbEntity
  8
SOLBET_Emulsje_Folie
100
AcDbLine
 10
175.4070630079926
 20
210.3209399014966
 30
0.0
 11
175.4070630079926
 21
207.6434723815117
 31
0.0
  0
LINE
  5
22B5
330
1F
100
AcDbEntity
  8
SOLBET_Tynki_Posadzki
100
AcDbLine
 10
174.7922469583257
 20
210.0709399014966
 30
0.0
 11
174.7922469583257
 21
216.9476330679361
 31
0.0
  0
LINE
  5
22B6
330
1F
100
AcDbEntity
  8
SOLBET_Izolacja
  6
Continuous
100
AcDbLine
 10
175.2922469583403
 20
207.1976330679397
 30
0.0
 11
230.7911684342374
 21
207.1976330679397
 31
0.0
  0
LINE
  5
22B7
330
1F
100
AcDbEntity
  8
SOLBET_Izolacja
  6
Continuous
100
AcDbLine
 10
175.2922469583403
 20
204.6976330679361
 30
0.0
 11
175.2922469583403
 21
210.0709399014966
 31
0.0
  0
LINE
  5
22BD
330
1F
100
AcDbEntity
  8
SOLBET_Izolacja
  6
Continuous
100
AcDbLine
 10
175.2922469583403
 20
210.0709399014966
 30
0.0
 11
174.2922469583403
 21
210.0709399014966
 31
0.0
  0
LWPOLYLINE
  5
22C1
330
1F
100
AcDbEntity
  8
SOLBET_Zbrojenie_Konstrukcja
100
AcDbPolyline
 90
        5
 70
     0
 43
0.0
 10
169.168985014517
 20
185.6694608115292
 10
169.168985014517
 20
203.2222411203445
 10
161.6488429753638
 20
203.2222411203445
 10
161.6488429753638
 20
185.6694608115292
 10
169.168985014517
 20
185.6694608115292
  0
LINE
  5
22C2
330
1F
100
AcDbEntity
  8
SOLBET_Zbrojenie_Konstrukcja
100
AcDbLine
 10
163.0630565377481
 20
200.6080275579705
 30
0.0
 11
161.6488429753638
 21
202.0222411203438
 31
0.0
  0
LINE
  5
22C3
330
1F
100
AcDbEntity
  8
SOLBET_Zbrojenie_Konstrukcja
100
AcDbLine
 10
164.2630565377452
 20
201.8080275579712
 30
0.0
 11
162.84884297539
 21
203.2222411203445
 31
0.0
  0
LWPOLYLINE
  5
22C4
330
1F
100
AcDbEntity
  8
SOLBET_Zbrojenie_Konstrukcja
100
AcDbPolyline
 90
        2
 70
     1
 43
0.3
 10
161.81813646649
 20
185.9856822118461
 42
1.0
 10
162.1181364664929
 20
185.9856822118461
 42
1.0
  0
LWPOLYLINE
  5
22C5
330
1F
100
AcDbEntity
  8
SOLBET_Zbrojenie_Konstrukcja
100
AcDbPolyline
 90
        2
 70
     1
 43
0.3
 10
168.7272911747398
 20
185.9856822118461
 42
1.0
 10
169.0272911747427
 20
185.9856822118461
 42
1.0
  0
LWPOLYLINE
  5
22C6
330
1F
100
AcDbEntity
  8
SOLBET_Zbrojenie_Konstrukcja
100
AcDbPolyline
 90
        2
 70
     1
 43
0.3
 10
168.7272911747398
 20
202.8753743957248
 42
1.0
 10
169.0272911747427
 20
202.8753743957248
 42
1.0
  0
LWPOLYLINE
  5
22C7
330
1F
100
AcDbEntity
  8
SOLBET_Zbrojenie_Konstrukcja
100
AcDbPolyline
 90
        2
 70
     1
 43
0.3
 10
161.81813646649
 20
202.8969940708019
 42
1.0
 10
162.1181364664929
 20
202.8969940708019
 42
1.0
  0
LINE
  5
22C8
330
1F
100
AcDbEntity
  8
SOLBET_Wymiary_Opisy
100
AcDbLine
 10
230.7911684342374
 20
214.3744671045467
 30
0.0
 11
230.7911684342374
 21
189.1950071837498
 31
0.0
  0
LINE
  5
22CC
330
1F
100
AcDbEntity
  8
SOLBET_Tynki_Posadzki
100
AcDbLine
 10
152.5422469583403
 20
162.9552237191899
 30
0.0
 11
152.5422469583403
 21
192.6976330679361
 31
0.0
  0
LINE
  5
22CD
330
1F
100
AcDbEntity
  8
SOLBET_Zaprawy
100
AcDbLine
 10
153.0089251517905
 20
180.4476330679397
 30
0.0
 11
153.0089251517905
 21
192.6976330679361
 31
0.0
  0
LWPOLYLINE
  5
22CE
330
1F
100
AcDbEntity
  8
SOLBET_Zbrojenie_Konstrukcja
100
AcDbPolyline
 90
        2
 70
     1
 43
0.3
 10
78.65677482686928
 20
202.2086986065485
 42
1.0
 10
78.95677482685764
 20
202.2086986065485
 42
1.0
  0
LWPOLYLINE
  5
22CF
330
1F
100
AcDbEntity
  8
SOLBET_Zbrojenie_Konstrukcja
100
AcDbPolyline
 90
        2
 70
     1
 43
0.3
 10
78.57265352362933
 20
194.3046699364211
 42
1.0
 10
78.87265352363224
 20
194.3046699364211
 42
1.0
  0
LWPOLYLINE
  5
22D0
330
1F
100
AcDbEntity
  8
SOLBET_Zbrojenie_Konstrukcja
100
AcDbPolyline
 90
        2
 70
     1
 43
0.3
 10
91.08588794588044
 20
202.2424662685087
 42
1.0
 10
91.38588794588335
 20
202.2424662685087
 42
1.0
  0
LWPOLYLINE
  5
22D1
330
1F
100
AcDbEntity
  8
SOLBET_Zbrojenie_Konstrukcja
100
AcDbPolyline
 90
        2
 70
     1
 43
0.3
 10
103.7144105114542
 20
202.4177045073455
 42
1.0
 10
104.0144105114426
 20
202.4177045073455
 42
1.0
  0
LWPOLYLINE
  5
22D2
330
1F
100
AcDbEntity
  8
SOLBET_Zbrojenie_Konstrukcja
100
AcDbPolyline
 90
        2
 70
     1
 43
0.3
 10
116.1913145528936
 20
202.5147652267522
 42
1.0
 10
116.491314552882
 20
202.5147652267522
 42
1.0
  0
LWPOLYLINE
  5
22D3
330
1F
100
AcDbEntity
  8
SOLBET_Zbrojenie_Konstrukcja
100
AcDbPolyline
 90
        2
 70
     1
 43
0.3
 10
128.6682119658775
 20
202.6603563058605
 42
1.0
 10
128.9682119658949
 20
202.6603563058605
 42
1.0
  0
LWPOLYLINE
  5
22D4
330
1F
100
AcDbEntity
  8
SOLBET_Zbrojenie_Konstrukcja
100
AcDbPolyline
 90
        2
 70
     1
 43
0.3
 10
141.1451093788904
 20
202.8059473849687
 42
1.0
 10
141.4451093788787
 20
202.8059473849687
 42
1.0
  0
LWPOLYLINE
  5
22D5
330
1F
100
AcDbEntity
  8
SOLBET_Zbrojenie_Konstrukcja
100
AcDbPolyline
 90
        2
 70
     1
 43
0.3
 10
151.7286311981273
 20
202.9030081043718
 42
1.0
 10
152.0286311981156
 20
202.9030081043718
 42
1.0
  0
LINE
  5
22D7
330
1F
100
AcDbEntity
  8
SOLBET_Stolarka_Okna
100
AcDbLine
 10
153.4918612810264
 20
216.885880089271
 30
0.0
 11
153.4918612810264
 21
217.3475285943689
 31
0.0
  0
LINE
  5
22D8
330
1F
100
AcDbEntity
  8
SOLBET_Stolarka_Okna
100
AcDbLine
 10
150.9996982164715
 20
216.132774433813
 30
0.0
 11
150.9996982164715
 21
215.5603561708274
 31
0.0
  0
LINE
  5
22D9
330
1F
100
AcDbEntity
  8
SOLBET_Stolarka_Okna
100
AcDbLine
 10
150.9996982164715
 20
215.5603561708274
 30
0.0
 11
151.3067801033297
 21
215.5603561708274
 31
0.0
  0
LINE
  5
22DA
330
1F
100
AcDbEntity
  8
SOLBET_Stolarka_Okna
100
AcDbLine
 10
151.3067801033297
 20
215.5603561708274
 30
0.0
 11
151.3067801033297
 21
216.0924295253688
 31
0.0
  0
ARC
  5
22DB
330
1F
100
AcDbEntity
  8
SOLBET_Stolarka_Okna
100
AcDbCircle
 10
151.9996982164715
 20
216.132774433813
 30
0.0
 40
1.0
100
AcDbArc
 50
99.9647143110222
 51
180.0
  0
LINE
  5
22DC
330
1F
100
AcDbEntity
  8
SOLBET_Stolarka_Okna
100
AcDbLine
 10
154.2288589843642
 20
217.4492526015364
 30
0.0
 11
154.2288589843641
 21
216.885880089271
 31
0.0
  0
LINE
  5
22DD
330
1F
100
AcDbEntity
  8
SOLBET_Emulsje_Folie
100
AcDbLine
 10
85.95493681801357
 20
206.4164968038502
 30
0.0
 11
77.28724797274967
 21
206.2431430269469
 31
0.0
  0
LINE
  5
22DE
330
1F
100
AcDbEntity
  8
SOLBET_Emulsje_Folie
100
AcDbLine
 10
77.04224697303775
 20
201.3719821985949
 30
0.0
 11
77.04224697303775
 21
205.9931930119499
 31
0.0
  0
ARC
  5
22DF
330
1F
100
AcDbEntity
  8
SOLBET_Emulsje_Folie
100
AcDbCircle
 10
77.2922469730523
 20
205.9931930119499
 30
0.0
 40
0.25
100
AcDbArc
 50
91.14576283817598
 51
180.0
  0
LINE
  5
22E0
330
1F
100
AcDbEntity
  8
SOLBET_Tynki_Posadzki
100
AcDbLine
 10
152.442246958349
 20
210.2967529556708
 30
0.0
 11
77.54024737291669
 21
208.7987129639557
 31
0.0
  0
LINE
  5
22E1
330
1F
100
AcDbEntity
  8
SOLBET_Tynki_Posadzki
100
AcDbLine
 10
77.54024737291669
 20
206.2982130139469
 30
0.0
 11
77.54024737291669
 21
209.5488629489599
 31
0.0
  0
LINE
  5
22E2
330
1F
100
AcDbEntity
  8
SOLBET_Tynki_Posadzki
100
AcDbLine
 10
152.442246958349
 20
210.5457031708982
 30
0.0
 11
77.54024737291669
 21
209.0487629589595
 31
0.0
  0
LINE
  5
22E3
330
1F
100
AcDbEntity
  8
SOLBET_Tynki_Posadzki
100
AcDbLine
 10
152.442246958349
 20
211.0469029406688
 30
0.0
 11
77.54024737291669
 21
209.5488629489599
 31
0.0
  0
LINE
  5
22E4
330
1F
100
AcDbEntity
  8
SOLBET_Tynki_Posadzki
100
AcDbLine
 10
152.1922469730465
 20
211.0419029409648
 30
0.0
 11
152.1922469730465
 21
216.7976330679419
 31
0.0
  0
LINE
  5
22E5
330
1F
100
AcDbEntity
  8
SOLBET_Tynki_Posadzki
100
AcDbLine
 10
151.6922469730465
 20
211.0319029409627
 30
0.0
 11
151.6922469730465
 21
216.7976330679419
 31
0.0
  0
ARC
  5
22E6
330
1F
100
AcDbEntity
  8
SOLBET_Tynki_Posadzki
100
AcDbCircle
 10
151.2810792463109
 20
211.4349295384862
 30
0.0
 40
0.4112499520568499
100
AcDbArc
 50
270.000000000026
 51
1.145762838299766
  0
LINE
  5
22E7
330
1F
100
AcDbEntity
  8
SOLBET_Tynki_Posadzki
100
AcDbLine
 10
151.6922469730465
 20
216.7976330679419
 30
0.0
 11
152.442246973061
 21
216.7976330679419
 31
0.0
  0
LWPOLYLINE
  5
22EC
330
1F
100
AcDbEntity
  8
SOLBET_Zbrojenie_Konstrukcja
100
AcDbPolyline
 90
        2
 70
     1
 43
0.3
 10
224.6995168175175
 20
203.282927177829
 42
1.0
 10
224.9995168175204
 20
203.282927177829
 42
1.0
  0
LWPOLYLINE
  5
22ED
330
1F
100
AcDbEntity
  8
SOLBET_Zbrojenie_Konstrukcja
100
AcDbPolyline
 90
        2
 70
     1
 43
0.3
 10
222.9817214933258
 20
196.1758742009049
 42
1.0
 10
223.2817214933287
 20
196.1758742009049
 42
1.0
  0
LWPOLYLINE
  5
22EF
330
1F
100
AcDbEntity
  8
SOLBET_Zbrojenie_Konstrukcja
100
AcDbPolyline
 90
        6
 70
     0
 43
0.0
 10
223.8772736016521
 20
197.3373738019043
 10
223.4842938863706
 20
196.1758742009049
 42
-1.0
 10
222.7791491002984
 20
196.1758742009049
 10
225.1837368013488
 20
203.282927177829
 42
1.0
 10
224.4785920152766
 20
203.282927177829
 10
224.0856122999952
 20
202.1214275768296
  0
LINE
  5
22F0
330
1F
100
AcDbEntity
  8
SOLBET_Izolacja
100
AcDbLine
 10
103.2922469583403
 20
195.6976330679397
 30
0.0
 11
103.2922469583403
 21
192.6976330679361
 31
0.0
  0
LINE
  5
22F1
330
1F
100
AcDbEntity
  8
SOLBET_Izolacja
100
AcDbLine
 10
160.2922469583257
 20
195.6976330679397
 30
0.0
 11
103.2922469583403
 21
195.6976330679397
 31
0.0
  0
LWPOLYLINE
  5
22F6
330
1F
100
AcDbEntity
  8
SOLBET_Zbrojenie_Konstrukcja
100
AcDbPolyline
 90
        9
 70
     0
 43
0.0
 10
79.36435769925933
 20
194.0304755241493
 10
78.82549837788733
 20
194.0304755241493
 42
-0.4142135623731341
 10
78.32549837787277
 20
194.5304755241493
 10
78.32549837787277
 20
202.0383850228907
 42
-0.414213562373121
 10
78.82549837788733
 20
202.5383850228907
 10
161.4465251285995
 20
203.9266254347247
 10
224.7144566567561
 20
203.9266254347247
 42
-0.4142135623730951
 10
225.2144566567562
 20
203.4266254347283
 10
225.2144566567562
 20
195.8001391031546
  0
LINE
  5
22FA
330
1F
100
AcDbEntity
  8
SOLBET_Zaprawy
100
AcDbLine
 10
153.0089251517905
 20
210.2957531559048
 30
0.0
 11
153.0089251517905
 21
216.6976330679361
 31
0.0
  0
LINE
  5
22FB
330
1F
100
AcDbEntity
  8
SOLBET_Tynki_Posadzki
100
AcDbLine
 10
152.5422469583403
 20
210.2957531559048
 30
0.0
 11
152.5422469583403
 21
240.5463874493915
 31
0.0
  0
LINE
  5
22FF
330
1F
100
AcDbEntity
  8
SOLBET_Stolarka_Okna
100
AcDbLine
 10
159.2922469583257
 20
172.3334168082117
 30
0.0
 11
159.2922469583257
 21
162.9552237191899
 31
0.0
  0
LINE
  5
2300
330
1F
100
AcDbEntity
  8
SOLBET_Stolarka_Okna
100
AcDbLine
 10
163.734983224463
 20
172.5228655051149
 30
0.0
 11
163.734983224463
 21
162.9552237191899
 31
0.0
  0
LWPOLYLINE
  5
2301
330
1F
100
AcDbEntity
  8
SOLBET_Zbrojenie_Konstrukcja
100
AcDbPolyline
 90
        3
 70
     0
 43
0.05
 10
152.7884914243016
 20
181.9055562210312
 10
152.7884914243016
 20
180.4055562210312
 10
154.2884914242871
 20
180.4055562210312
  0
LWPOLYLINE
  5
2302
330
1F
100
AcDbEntity
  8
SOLBET_Zbrojenie_Konstrukcja
100
AcDbPolyline
 90
        3
 70
     0
 43
0.05
 10
174.5138335845234
 20
181.9055562210312
 10
174.5138335845234
 20
180.4055562210312
 10
173.013833584538
 20
180.4055562210312
  0
LINE
  5
2303
330
1F
100
AcDbEntity
  8
SOLBET_Stolarka_Okna
100
AcDbLine
 10
162.2085490021685
 20
173.2060671639745
 30
0.0
 11
162.2085490021685
 21
162.9552237191899
 31
0.0
  0
LINE
  5
2304
330
1F
100
AcDbEntity
  8
SOLBET_Stolarka_Okna
100
AcDbLine
 10
160.7504729950136
 20
173.2060671639745
 30
0.0
 11
160.7504729950136
 21
162.9552237191899
 31
0.0
  0
ARC
  5
2305
330
1F
100
AcDbEntity
  8
SOLBET_Stolarka_Okna
100
AcDbCircle
 10
163.1109921275177
 20
180.4506081946026
 30
0.0
 40
0.4069335296814501
100
AcDbArc
 50
142.6242279608552
 51
218.4376070038519
  0
INSERT
  5
2306
330
1F
100
AcDbEntity
  8
SOLBET_Izolacja
100
AcDbBlockReference
  2
*U5
 10
-236.4924386935187
 20
310.7672299840058
 30
0.0
 41
-50.0
 42
50.0
 43
50.0
 50
180.0
1001
ASO_SCHRAFF
1005
0
1070
     0
1005
0
  0
CIRCLE
  5
2307
330
1F
100
AcDbEntity
  8
SOLBET_Stolarka_Okna
100
AcDbCircle
 10
162.4002181800727
 20
180.4451896070684
 30
0.0
 40
0.25244346087405
  0
LWPOLYLINE
  5
230B
330
1F
100
AcDbEntity
  8
SOLBET_Stolarka_Okna
100
AcDbPolyline
 90
       15
 70
     1
 43
0.0
 10
160.6343972328444
 20
174.4324472895612
 10
160.6343972328444
 20
175.1371888423971
 10
159.2922469583257
 20
175.1371888423971
 10
159.2922469583257
 20
172.3334168082117
 10
160.5525347072228
 20
171.8963384408351
 10
160.5525347072228
 20
173.4671531132087
 10
162.1949232891178
 20
173.4671531132087
 10
163.734983224463
 20
173.4671531132087
 10
163.734983224463
 20
177.3637621438363
 10
163.04019248983
 20
177.3637621438363
 10
163.04019248983
 20
175.1371888423971
 10
161.8753976404672
 20
175.1371888423971
 10
161.8753976404672
 20
175.8725700186012
 10
161.0171285758964
 20
175.8725700186012
 10
161.0171285758964
 20
174.4324472895612
  0
LWPOLYLINE
  5
230C
330
1F
100
AcDbEntity
  8
SOLBET_Stolarka_Okna
100
AcDbPolyline
 90
        4
 70
     1
 43
0.0
 10
162.3731774847814
 20
172.1738171292861
 10
163.734983224463
 20
172.5228655051149
 10
163.734983224463
 20
173.375221293715
 10
162.3731774847814
 20
173.375221293715
  0
LINE
  5
230D
330
1F
100
AcDbEntity
  8
SOLBET_Stolarka_Okna
100
AcDbLine
 10
159.2922469583257
 20
175.4670007975808
 30
0.0
 11
159.2922469583257
 21
180.1976330679361
 31
0.0
  0
LINE
  5
230E
330
1F
100
AcDbEntity
  8
SOLBET_Stolarka_Okna
100
AcDbLine
 10
160.2887293085781
 20
175.2483666522792
 30
0.0
 11
159.2922469583257
 21
175.4670007975808
 31
0.0
  0
LINE
  5
230F
330
1F
100
AcDbEntity
  8
SOLBET_Stolarka_Okna
100
AcDbLine
 10
160.6343972328444
 20
175.2483666522792
 30
0.0
 11
160.2887293085781
 21
175.2483666522792
 31
0.0
  0
LINE
  5
2310
330
1F
100
AcDbEntity
  8
SOLBET_Stolarka_Okna
100
AcDbLine
 10
160.6343972328444
 20
176.1992449493307
 30
0.0
 11
160.6343972328444
 21
175.2483666522792
 31
0.0
  0
LINE
  5
2311
330
1F
100
AcDbEntity
  8
SOLBET_Stolarka_Okna
100
AcDbLine
 10
161.7081186273256
 20
176.1992449493307
 30
0.0
 11
160.6343972328444
 21
176.1992449493307
 31
0.0
  0
LINE
  5
2312
330
1F
100
AcDbEntity
  8
SOLBET_Stolarka_Okna
100
AcDbLine
 10
161.7081186273256
 20
177.0713123702487
 30
0.0
 11
161.7081186273256
 21
176.1992449493307
 31
0.0
  0
LINE
  5
2313
330
1F
100
AcDbEntity
  8
SOLBET_Stolarka_Okna
100
AcDbLine
 10
162.7922469583403
 20
177.0713123702487
 30
0.0
 11
161.7081186273256
 21
177.0713123702487
 31
0.0
  0
LINE
  5
2314
330
1F
100
AcDbEntity
  8
SOLBET_Stolarka_Okna
100
AcDbLine
 10
162.7922469583403
 20
180.1976330679361
 30
0.0
 11
162.7922469583403
 21
177.0713123702487
 31
0.0
  0
LINE
  5
2315
330
1F
100
AcDbEntity
  8
SOLBET_Stolarka_Okna
100
AcDbLine
 10
159.2922469583257
 20
180.1976330679361
 30
0.0
 11
162.7922469583403
 21
180.1976330679361
 31
0.0
  0
LINE
  5
2317
330
1F
100
AcDbEntity
  8
SOLBET_Wymiary_Opisy
100
AcDbLine
 10
147.0671159987226
 20
162.9552237191899
 30
0.0
 11
179.4377947740698
 21
162.9552237191899
 31
0.0
  0
LINE
  5
2318
330
1F
100
AcDbEntity
  8
SOLBET_Zbrojenie_Konstrukcja
100
AcDbLine
 10
75.71769511668875
 20
187.0358680317411
 30
0.0
 11
75.71769511668875
 21
238.5463874493915
 31
0.0
  0
LINE
  5
2319
330
1F
100
AcDbEntity
  8
SOLBET_Zbrojenie_Konstrukcja
100
AcDbLine
 10
73.71769511668876
 20
187.0358680317411
 30
0.0
 11
73.71769511668876
 21
238.5463874493915
 31
0.0
  0
LINE
  5
231A
330
1F
100
AcDbEntity
  8
SOLBET_Zbrojenie_Konstrukcja
100
AcDbLine
 10
73.71769511668876
 20
187.0358680317411
 30
0.0
 11
75.71769511668875
 21
187.0358680317411
 31
0.0
  0
LINE
  5
231B
330
1F
100
AcDbEntity
  8
SOLBET_Wymiary_Opisy
100
AcDbLine
 10
72.27485974663918
 20
238.5463874493915
 30
0.0
 11
77.10855876034234
 21
238.5463874493915
 31
0.0
  0
LINE
  5
231C
330
1F
100
AcDbEntity
  8
SOLBET_Zbrojenie_Konstrukcja
100
AcDbLine
 10
88.06091709395454
 20
190.2782104052938
 30
0.0
 11
88.06091709395454
 21
191.2782104052974
 31
0.0
  0
LINE
  5
231D
330
1F
100
AcDbEntity
  8
SOLBET_Zbrojenie_Konstrukcja
100
AcDbLine
 10
88.06091709395454
 20
191.2782104052974
 30
0.0
 11
75.71769511668875
 21
191.2782104052974
 31
0.0
  0
LINE
  5
231E
330
1F
100
AcDbEntity
  8
SOLBET_Zbrojenie_Konstrukcja
100
AcDbLine
 10
88.06091709395454
 20
190.2782104052938
 30
0.0
 11
75.71769511668875
 21
190.2782104052938
 31
0.0
  0
LINE
  5
231F
330
1F
100
AcDbEntity
  8
SOLBET_Zbrojenie_Konstrukcja
100
AcDbLine
 10
81.92554105912618
 20
192.1976330679361
 30
0.0
 11
81.92554105912618
 21
191.2782104052974
 31
0.0
  0
LINE
  5
2320
330
1F
100
AcDbEntity
  8
SOLBET_Zbrojenie_Konstrukcja
100
AcDbLine
 10
87.60993024738613
 20
192.1976330679361
 30
0.0
 11
87.60993024738613
 21
191.2782104052974
 31
0.0
  0
LINE
  5
2321
330
1F
100
AcDbEntity
  8
SOLBET_Zbrojenie_Konstrukcja
100
AcDbLine
 10
83.18099029954224
 20
189.6999991319178
 30
0.0
 11
83.18099029954224
 21
198.5738729194024
 31
0.0
  0
LINE
  5
2322
330
1F
100
AcDbEntity
  8
SOLBET_Zbrojenie_Konstrukcja
100
AcDbLine
 10
82.48351995873722
 20
190.0137446966153
 30
0.0
 11
83.8784606403618
 21
190.0137446966153
 31
0.0
  0
LINE
  5
2323
330
1F
100
AcDbEntity
  8
SOLBET_Zbrojenie_Konstrukcja
100
AcDbLine
 10
86.38935649422396
 20
189.6999991319178
 30
0.0
 11
86.38935649422396
 21
198.5738729194024
 31
0.0
  0
LINE
  5
2324
330
1F
100
AcDbEntity
  8
SOLBET_Zbrojenie_Konstrukcja
100
AcDbLine
 10
85.6918861534044
 20
190.0137446966153
 30
0.0
 11
87.08682683502898
 21
190.0137446966153
 31
0.0
  0
LWPOLYLINE
  5
232E
330
1F
100
AcDbEntity
  8
SOLBET_Ramka_05
100
AcDbPolyline
 90
        4
 70
     1
 43
0.0
 10
-0.6202095782973629
 20
0.6402959163851847
 10
333.7315645137926
 20
0.6402959163851847
 10
333.7315645137926
 20
297.6402959163852
 10
-0.6202095782973629
 20
297.6402959163852
  0
MTEXT
  5
2337
102
{ACAD_XDICTIONARY
360
2338
102
}
330
1F
100
AcDbEntity
  8
SOLBET_Wymiary_Opisy @ 1
100
AcDbMText
 10
17.04625112805911
 20
290.5370070071631
 30
0.0
 40
5.0
 41
124.2624847080697
 71
     1
 72
     5
  1
{\LDETAL 81\P}Balkon wystawiony ze stropu Teriva  r\U+00F3wnolegle do belek, z wykonaniem docieplenia w trakcie wylewania p\U+0142yty
  7
Solbet_5
 73
     1
 44
1.0
1001
AcadAnnotative
1000
AnnotativeData
1002
{
1070
     1
1070
     0
1002
}
1001
ACAD
1000
MTEXTBEGIN
1070
    73
1070
     1
1070
    44
1040
1.0
1070
    74
1070
     0
1000
MTEXTEND
  0
LINE
  5
234C
330
1F
100
AcDbEntity
  8
SOLBET_Zbrojenie_Konstrukcja
100
AcDbLine
 10
227.7922469583258
 20
201.1976330679362
 30
0.0
 11
230.791168434231
 21
195.5746553006138
 31
0.0
  0
LINE
  5
234D
330
1F
100
AcDbEntity
  8
SOLBET_Zbrojenie_Konstrukcja
100
AcDbLine
 10
224.325580291659
 20
194.697633067936
 30
0.0
 11
227.7922469583258
 21
201.1976330679362
 31
0.0
  0
LINE
  5
234F
330
1F
100
AcDbEntity
  8
SOLBET_Zbrojenie_Konstrukcja
100
AcDbLine
 10
200.3255802916589
 20
194.697633067936
 30
0.0
 11
203.7922469583258
 21
201.1976330679362
 31
0.0
  0
LINE
  5
2350
330
1F
100
AcDbEntity
  8
SOLBET_Zbrojenie_Konstrukcja
100
AcDbLine
 10
208.3255802916589
 20
194.697633067936
 30
0.0
 11
211.7922469583255
 21
201.1976330679362
 31
0.0
  0
LINE
  5
2351
330
1F
100
AcDbEntity
  8
SOLBET_Zbrojenie_Konstrukcja
100
AcDbLine
 10
216.325580291659
 20
194.697633067936
 30
0.0
 11
219.7922469583256
 21
201.1976330679362
 31
0.0
  0
LINE
  5
2352
330
1F
100
AcDbEntity
  8
SOLBET_Zbrojenie_Konstrukcja
100
AcDbLine
 10
192.3255802916589
 20
194.697633067936
 30
0.0
 11
195.7922469583257
 21
201.1976330679362
 31
0.0
  0
LINE
  5
2353
330
1F
100
AcDbEntity
  8
SOLBET_Zbrojenie_Konstrukcja
100
AcDbLine
 10
184.3255802916589
 20
194.697633067936
 30
0.0
 11
187.7922469583257
 21
201.1976330679362
 31
0.0
  0
LINE
  5
2354
330
1F
100
AcDbEntity
  8
SOLBET_Zbrojenie_Konstrukcja
100
AcDbLine
 10
176.3255802916589
 20
194.697633067936
 30
0.0
 11
179.7922469583257
 21
201.1976330679362
 31
0.0
  0
LINE
  5
2355
330
1F
100
AcDbEntity
  8
SOLBET_Zbrojenie_Konstrukcja
100
AcDbLine
 10
168.325580291659
 20
194.697633067936
 30
0.0
 11
171.7922469583257
 21
201.1976330679362
 31
0.0
  0
LINE
  5
2356
330
1F
100
AcDbEntity
  8
SOLBET_Zbrojenie_Konstrukcja
100
AcDbLine
 10
171.7922469583257
 20
201.1976330679362
 30
0.0
 11
175.2589136249923
 21
194.697633067936
 31
0.0
  0
LINE
  5
2357
330
1F
100
AcDbEntity
  8
SOLBET_Zbrojenie_Konstrukcja
100
AcDbLine
 10
179.7922469583257
 20
201.1976330679362
 30
0.0
 11
183.2589136249923
 21
194.697633067936
 31
0.0
  0
LINE
  5
2358
330
1F
100
AcDbEntity
  8
SOLBET_Zbrojenie_Konstrukcja
100
AcDbLine
 10
187.7922469583257
 20
201.1976330679362
 30
0.0
 11
191.2589136249925
 21
194.697633067936
 31
0.0
  0
LINE
  5
2359
330
1F
100
AcDbEntity
  8
SOLBET_Zbrojenie_Konstrukcja
100
AcDbLine
 10
195.7922469583257
 20
201.1976330679362
 30
0.0
 11
199.2589136249925
 21
194.697633067936
 31
0.0
  0
LINE
  5
235A
330
1F
100
AcDbEntity
  8
SOLBET_Zbrojenie_Konstrukcja
100
AcDbLine
 10
230.791168434231
 20
201.1976330679364
 30
0.0
 11
166.2922469583257
 21
201.197633067936
 31
0.0
  0
LINE
  5
235B
330
1F
100
AcDbEntity
  8
SOLBET_Zbrojenie_Konstrukcja
100
AcDbLine
 10
219.7922469583256
 20
201.1976330679362
 30
0.0
 11
223.2589136249925
 21
194.697633067936
 31
0.0
  0
LINE
  5
235C
330
1F
100
AcDbEntity
  8
SOLBET_Zbrojenie_Konstrukcja
100
AcDbLine
 10
211.7922469583255
 20
201.1976330679362
 30
0.0
 11
215.2589136249924
 21
194.697633067936
 31
0.0
  0
LINE
  5
235D
330
1F
100
AcDbEntity
  8
SOLBET_Zbrojenie_Konstrukcja
100
AcDbLine
 10
203.7922469583258
 20
201.1976330679362
 30
0.0
 11
207.2589136249924
 21
194.697633067936
 31
0.0
  0
LWPOLYLINE
  5
2360
330
1F
100
AcDbEntity
  8
SOLBET_Beton
100
AcDbPolyline
 90
        5
 70
     1
 43
0.0
 10
166.2922469583257
 20
192.6976330679361
 10
170.2922469583256
 20
192.6976330679361
 10
230.791168434231
 20
192.6976330679361
 10
230.791168434231
 20
194.697633067936
 10
166.2922469583257
 20
194.697633067936
1001
ASO_SCHRAFF
1005
0
1070
     1
1002
{
1070
     1
1005
0
1002
}
1002
{
1070
     2
1005
0
1002
}
1002
{
1070
     4
1000
NET
1040
0.1
1040
45.0
1070
     0
1000
T__SCHR
1070
   256
1000
VONLAYER
1040
50.0
1070
     1
1002
}
  0
INSERT
  5
2361
330
1F
100
AcDbEntity
  8
SOLBET_Beton
100
AcDbBlockReference
  2
*X4
 10
-403.4086689226306
 20
-263.323707986491
 30
0.0
 41
50.0
 42
50.0
 43
50.0
1001
ASO_SCHRAFF
1005
0
1070
     0
1005
0
1001
ACAD
1000
HATCH
1002
{
1070
    16
1000
NET
1040
0.25
1040
0.7853981633974483
1002
}
  0
HATCH
  5
2369
102
{ACAD_XDICTIONARY
360
2939
102
}
330
1F
100
AcDbEntity
  8
SOLBET_Zbrojenie_Konstrukcja
 62
     7
100
AcDbHatch
 10
0.0
 20
0.0
 30
0.0
210
0.0
220
0.0
230
1.0
  2
SOLID
 70
     1
 71
     1
 91
        2
 92
        1
 93
       16
 72
     2
 10
170.4716897723003
 20
205.4320234777556
 40
0.5982082957013688
 50
269.9999999980972
 51
277.5052217291066
 73
     1
 72
     2
 10
170.5069577581456
 20
205.164325057329
 40
0.3281966753504785
 50
277.5052217329391
 51
287.6438423986183
 73
     1
 72
     2
 10
170.5601497335895
 20
204.9970868189524
 40
0.1527030440502949
 50
287.6438423872433
 51
307.5194829041848
 73
     1
 72
     2
 10
170.638981209929
 20
204.8944239397305
 40
0.0232655362251519
 50
307.5194829619462
 51
360.0000000489957
 73
     1
 72
     2
 10
170.6389812099359
 20
204.8944239397664
 40
0.023265536218247
 50
359.9999999605234
 51
412.4805170464287
 73
     1
 72
     2
 10
170.5601497335788
 20
204.7917610605423
 40
0.1527030440558994
 50
52.48051709236018
 51
72.3561576092066
 73
     1
 72
     2
 10
170.506957758166
 20
204.6245228221658
 40
0.3281966753465779
 50
72.3561576048983
 51
82.49477827055949
 73
     1
 72
     2
 10
170.4716897723001
 20
204.3568244017355
 40
0.5982082957038135
 50
82.49477827090776
 51
90.00000000188649
 73
     1
 72
     2
 10
170.471689772275
 20
204.3568244019612
 40
0.5982082954781447
 50
89.99999999948279
 51
97.50522173050931
 73
     1
 72
     2
 10
170.4364217864311
 20
204.6245228222481
 40
0.3281966752659157
 50
97.50522173256687
 51
107.6438423982371
 73
     1
 72
     2
 10
170.3832298110253
 20
204.7917610605429
 40
0.1527030440551997
 50
107.6438423907425
 51
127.5194829076812
 73
     1
 72
     2
 10
170.304398334661
 20
204.8944239397518
 40
0.0232655362252057
 50
127.5194829168377
 51
180.0000000034996
 73
     1
 72
     2
 10
170.3043983346685
 20
204.8944239397454
 40
0.0232655362327421
 50
179.999999987751
 51
232.4805170740351
 73
     1
 72
     2
 10
170.3832298110152
 20
204.997086818953
 40
0.1527030440509842
 50
232.4805170958651
 51
252.356157612716
 73
     1
 72
     2
 10
170.4364217864516
 20
205.1643250572469
 40
0.3281966752701076
 50
252.3561575982519
 51
262.4947782639312
 73
     1
 72
     2
 10
170.4716897722751
 20
205.4320234775337
 40
0.5982082954795081
 50
262.4947782694996
 51
270.000000000509
 73
     1
 97
        1
330
22A8
 92
        1
 93
       16
 72
     2
 10
160.31217902655
 20
205.4320234775337
 40
0.598208295479509
 50
89.99999999949094
 51
97.50522173050034
 73
     0
 72
     2
 10
160.2769110407046
 20
205.164325057493
 40
0.3281966755112225
 50
97.50522172667965
 51
107.6438423923586
 73
     0
 72
     2
 10
160.2237190652607
 20
204.9970868188693
 40
0.152703043975564
 50
107.6438424018913
 51
127.5194829188319
 73
     0
 72
     2
 10
160.1448875889212
 20
204.89442393976
 40
0.023265536239711
 50
127.5194828892313
 51
179.9999999762721
 73
     0
 72
     2
 10
160.1448875889143
 20
204.8944239397369
 40
0.0232655362327989
 50
180.000000033247
 51
232.4805171191435
 73
     0
 72
     2
 10
160.2237190652714
 20
204.7917610606253
 40
0.1527030439811674
 50
232.480517077713
 51
252.3561575945587
 73
     0
 72
     2
 10
160.2769110406842
 20
204.6245228220018
 40
0.3281966755073217
 50
252.356157611158
 51
262.494778276819
 73
     0
 72
     2
 10
160.3121790265501
 20
204.3568244019573
 40
0.5982082954819537
 50
262.4947782695141
 51
270.0000000004927
 73
     0
 72
     2
 10
160.3121790265607
 20
204.3568244019612
 40
0.5982082954781447
 50
269.9999999994828
 51
277.5052217305093
 73
     0
 72
     2
 10
160.3474470124191
 20
204.6245228220841
 40
0.3281966754266597
 50
277.5052217263074
 51
287.6438423919775
 73
     0
 72
     2
 10
160.4006389878322
 20
204.7917610605844
 40
0.1527030440178342
 50
287.6438423980665
 51
307.5194829150048
 73
     0
 72
     2
 10
160.4794704641965
 20
204.8944239397371
 40
0.023265536232474
 50
307.5194828805016
 51
359.9999999671729
 73
     0
 72
     2
 10
160.479470464189
 20
204.8944239397602
 40
0.023265536240018
 50
0.0000000240778676
 51
52.48051711037112
 73
     0
 72
     2
 10
160.4006389878423
 20
204.9970868189115
 40
0.1527030440136182
 50
52.48051708854148
 51
72.35615760539198
 73
     0
 72
     2
 10
160.3474470123986
 20
205.164325057411
 40
0.3281966754308514
 50
72.35615760451157
 51
82.49477827019063
 73
     0
 72
     2
 10
160.3121790265606
 20
205.4320234775337
 40
0.5982082954795081
 50
82.49477826949966
 51
90.00000000050905
 73
     0
 97
        1
330
22A6
 75
     0
 76
     1
 98
        1
 10
994.3991948550296
 20
63.02367973600829
1001
ACAD
1010
0.0
1020
0.0
1030
0.0
  0
INSERT
  5
2392
330
1F
100
AcDbEntity
  8
SOLBET_Izolacja
100
AcDbBlockReference
  2
*U5
 10
-236.4924386935105
 20
315.7672299840085
 30
0.0
 41
-50.0
 42
50.0
 43
50.0
 50
180.0
1001
ASO_SCHRAFF
1005
0
1070
     0
1005
0
  0
INSERT
  5
239C
330
1F
100
AcDbEntity
  8
SOLBET_Izolacja
  6
Continuous
100
AcDbBlockReference
  2
ASOWDBLK
 10
154.2288589696369
 20
216.8858800892671
 30
0.0
 41
0.6486411016078364
 42
0.6673913043478592
 43
0.6486411016077501
  0
INSERT
  5
239D
330
1F
100
AcDbEntity
  8
SOLBET_Izolacja
  6
Continuous
100
AcDbBlockReference
  2
ASOWDBLK
 10
154.5531795204408
 20
216.8858800892671
 30
0.0
 41
0.6486411016078364
 42
0.7108695652173936
 43
0.6486411016077501
  0
INSERT
  5
239E
330
1F
100
AcDbEntity
  8
SOLBET_Izolacja
  6
Continuous
100
AcDbBlockReference
  2
ASOWDBLK
 10
154.8775000712447
 20
216.8858800892671
 30
0.0
 41
0.6486411016078364
 42
0.7543478260869563
 43
0.6486411016077501
  0
INSERT
  5
239F
330
1F
100
AcDbEntity
  8
SOLBET_Izolacja
  6
Continuous
100
AcDbBlockReference
  2
ASOWDBLK
 10
155.2018206220485
 20
216.8858800892671
 30
0.0
 41
0.6486411016078364
 42
0.7978260869564906
 43
0.6486411016077501
  0
INSERT
  5
23A0
330
1F
100
AcDbEntity
  8
SOLBET_Izolacja
  6
Continuous
100
AcDbBlockReference
  2
ASOWDBLK
 10
155.5261411728523
 20
216.8858800892671
 30
0.0
 41
0.6486411016078364
 42
0.8413043478261101
 43
0.6486411016077501
  0
INSERT
  5
23A1
330
1F
100
AcDbEntity
  8
SOLBET_Izolacja
  6
Continuous
100
AcDbBlockReference
  2
ASOWDBLK
 10
155.8504617236561
 20
216.8858800892671
 30
0.0
 41
0.6486411016078364
 42
0.8847826086956445
 43
0.6486411016077501
  0
INSERT
  5
23A2
330
1F
100
AcDbEntity
  8
SOLBET_Izolacja
  6
Continuous
100
AcDbBlockReference
  2
ASOWDBLK
 10
156.17478227446
 20
216.8858800892671
 30
0.0
 41
0.6486411016078364
 42
0.9282608695652072
 43
0.6486411016077501
  0
INSERT
  5
23A3
330
1F
100
AcDbEntity
  8
SOLBET_Izolacja
  6
Continuous
100
AcDbBlockReference
  2
ASOWDBLK
 10
156.499102825264
 20
216.8858800892671
 30
0.0
 41
0.6486411016078364
 42
0.9717391304347984
 43
0.6486411016077501
  0
INSERT
  5
23A4
330
1F
100
AcDbEntity
  8
SOLBET_Izolacja
  6
Continuous
100
AcDbBlockReference
  2
ASOWDBLK
 10
156.8234233760678
 20
216.8858800892671
 30
0.0
 41
0.6486411016078364
 42
1.015217391304361
 43
0.6486411016077501
  0
INSERT
  5
23A5
330
1F
100
AcDbEntity
  8
SOLBET_Izolacja
  6
Continuous
100
AcDbBlockReference
  2
ASOWDBLK
 10
157.1477439268716
 20
216.8858800892671
 30
0.0
 41
0.6486411016078364
 42
1.058695652173895
 43
0.6486411016077501
  0
INSERT
  5
23A6
330
1F
100
AcDbEntity
  8
SOLBET_Izolacja
  6
Continuous
100
AcDbBlockReference
  2
ASOWDBLK
 10
157.4720644776754
 20
216.8858800892671
 30
0.0
 41
0.6486411016078364
 42
1.102173913043486
 43
0.6486411016077501
  0
INSERT
  5
23A7
330
1F
100
AcDbEntity
  8
SOLBET_Izolacja
  6
Continuous
100
AcDbBlockReference
  2
ASOWDBLK
 10
157.7963850284793
 20
216.8858800892671
 30
0.0
 41
0.6486411016078364
 42
1.145652173913049
 43
0.6486411016077501
  0
INSERT
  5
23A8
330
1F
100
AcDbEntity
  8
SOLBET_Izolacja
  6
Continuous
100
AcDbBlockReference
  2
ASOWDBLK
 10
158.1207055792831
 20
216.8858800892671
 30
0.0
 41
0.6486411016078364
 42
1.189130434782612
 43
0.6486411016077501
  0
INSERT
  5
23A9
330
1F
100
AcDbEntity
  8
SOLBET_Izolacja
  6
Continuous
100
AcDbBlockReference
  2
ASOWDBLK
 10
158.445026130087
 20
216.8858800892671
 30
0.0
 41
0.6486411016078364
 42
1.232608695652203
 43
0.6486411016077501
  0
INSERT
  5
23AA
330
1F
100
AcDbEntity
  8
SOLBET_Izolacja
  6
Continuous
100
AcDbBlockReference
  2
ASOWDBLK
 10
158.7693466808908
 20
216.8858800892671
 30
0.0
 41
0.6486411016078364
 42
1.276086956521737
 43
0.6486411016077501
  0
INSERT
  5
23AB
330
1F
100
AcDbEntity
  8
SOLBET_Izolacja
  6
Continuous
100
AcDbBlockReference
  2
ASOWDBLK
 10
159.0936672316946
 20
216.8858800892671
 30
0.0
 41
0.6486411016078364
 42
1.3195652173913
 43
0.6486411016077501
  0
INSERT
  5
23AC
330
1F
100
AcDbEntity
  8
SOLBET_Izolacja
  6
Continuous
100
AcDbBlockReference
  2
ASOWDBLK
 10
159.4179877824984
 20
216.8858800892671
 30
0.0
 41
0.6486411016078364
 42
1.363043478260863
 43
0.6486411016077501
  0
INSERT
  5
23AD
330
1F
100
AcDbEntity
  8
SOLBET_Izolacja
  6
Continuous
100
AcDbBlockReference
  2
ASOWDBLK
 10
159.7423083333023
 20
216.8858800892671
 30
0.0
 41
0.6486411016078364
 42
1.406521739130454
 43
0.6486411016077501
  0
INSERT
  5
23AE
330
1F
100
AcDbEntity
  8
SOLBET_Izolacja
  6
Continuous
100
AcDbBlockReference
  2
ASOWDBLK
 10
160.0666288841062
 20
216.8858800892671
 30
0.0
 41
0.6486411016078364
 42
1.449999999999988
 43
0.6486411016077501
  0
INSERT
  5
23AF
330
1F
100
AcDbEntity
  8
SOLBET_Izolacja
  6
Continuous
100
AcDbBlockReference
  2
ASOWDBLK
 10
160.3909494349101
 20
216.8858800892671
 30
0.0
 41
0.6486411016078364
 42
1.493478260869551
 43
0.6486411016077501
  0
INSERT
  5
23B0
330
1F
100
AcDbEntity
  8
SOLBET_Izolacja
  6
Continuous
100
AcDbBlockReference
  2
ASOWDBLK
 10
160.7152699857139
 20
216.8858800892671
 30
0.0
 41
0.6486411016078364
 42
1.536956521739142
 43
0.6486411016077501
  0
INSERT
  5
23B1
330
1F
100
AcDbEntity
  8
SOLBET_Izolacja
  6
Continuous
100
AcDbBlockReference
  2
ASOWDBLK
 10
161.0395905365177
 20
216.8858800892671
 30
0.0
 41
0.6486411016078364
 42
1.580434782608705
 43
0.6486411016077501
  0
INSERT
  5
23B2
330
1F
100
AcDbEntity
  8
SOLBET_Izolacja
  6
Continuous
100
AcDbBlockReference
  2
ASOWDBLK
 10
161.3639110873216
 20
216.8858800892671
 30
0.0
 41
0.6486411016078364
 42
1.623913043478239
 43
0.6486411016077501
  0
LWPOLYLINE
  5
23B4
102
{ACAD_REACTORS
330
23DB
102
}
330
1F
100
AcDbEntity
  8
SOLBET_Tynki_Posadzki
100
AcDbPolyline
 90
        5
 70
     1
 43
0.0
 10
175.4070630079926
 20
207.6434723815117
 10
175.4070630079927
 20
210.0709399014966
 10
230.7911684342374
 20
210.0709399014966
 10
230.7911684342374
 20
207.5709399014929
 10
175.4178161912209
 20
207.5709399014929
  0
HATCH
  5
23DB
330
1F
100
AcDbEntity
  8
SOLBET_Tynki_Posadzki
100
AcDbHatch
 10
0.0
 20
0.0
 30
0.0
210
0.0
220
0.0
230
1.0
  2
AR-CONC
 70
     0
 71
     1
 91
        1
 92
        1
 93
        5
 72
     1
 10
175.4070630079926
 20
207.6434723815117
 11
175.4070630079927
 21
210.0709399014966
 72
     1
 10
175.4070630079927
 20
210.0709399014966
 11
230.7911684342374
 21
210.0709399014966
 72
     1
 10
230.7911684342374
 20
210.0709399014966
 11
230.7911684342374
 21
207.5709399014929
 72
     1
 10
230.7911684342374
 20
207.5709399014929
 11
175.4178161912209
 21
207.5709399014929
 72
     1
 10
175.4178161912209
 20
207.5709399014929
 11
175.4070630079926
 21
207.6434723815117
 97
        1
330
23B4
 75
     0
 76
     1
 52
0.0
 41
0.05
 77
     0
 78
    13
 53
50.0
 43
994.3991948550296
 44
63.02367973600829
 45
9.1092334498002
 46
-0.7969542769451543
 79
     2
 49
0.9525000000000002
 49
-10.4775
 53
355.0
 43
994.3991948550296
 44
63.02367973600829
 45
-1.762141298783349
 46
9.552832144108998
 79
     2
 49
0.762
 49
-8.381999999999999
 53
100.451
 43
995.1582948550296
 44
62.95726723600829
 45
7.347125083297962
 46
8.755834391014593
 79
     2
 49
0.8095
 49
-8.9045
 53
46.1842
 43
994.3991948550296
 44
65.5636797360083
 45
13.5539520446065
 46
-2.102116396636357
 79
     2
 49
1.428749999999999
 49
-15.71625
 53
96.63559999999998
 43
995.5286898550296
 44
65.38850473600828
 45
11.87021172331186
 46
12.37127779450246
 79
     2
 49
1.214249999999999
 49
-13.35674999999999
 53
351.184
 43
994.3991948550296
 44
65.5636797360083
 45
11.87023029069669
 46
12.37125589302988
 79
     2
 49
1.143
 49
-12.573
 53
21.0
 43
995.6691948550295
 44
64.92867973600829
 45
7.580743991769164
 46
-5.113275925838125
 79
     2
 49
0.9525000000000002
 49
-10.4775
 53
326.0
 43
995.6691948550295
 44
64.92867973600829
 45
3.090101417382353
 46
9.209398306115962
 79
     2
 49
0.762
 49
-8.381999999999999
 53
71.45140000000001
 43
996.3009198550295
 44
64.50257473600828
 45
10.67082453850622
 46
4.096142885802872
 79
     2
 49
0.8095
 49
-8.9045
 53
37.5
 43
994.3991948550296
 44
63.02367973600829
 45
0.1544301625295909
 46
4.227751943657655
 79
     6
 49
0.0
 49
-8.2804
 49
0.0
 49
-8.509
 49
0.0
 49
-8.41375
 53
7.499999999999999
 43
994.3991948550296
 44
63.02367973600829
 45
3.340983125515287
 46
5.009028740905975
 79
     6
 49
0.0
 49
-4.851399999999999
 49
0.0
 49
-8.0899
 49
0.0
 49
-3.20675
 53
327.5
 43
991.5670948550296
 44
63.02367973600829
 45
6.779529758343568
 46
-0.2864371996336732
 79
     6
 49
0.0
 49
-3.175
 49
0.0
 49
-9.906
 49
0.0
 49
-13.1445
 53
317.5
 43
990.2970948550295
 44
63.02367973600829
 45
7.406459069300902
 46
1.27132455166665
 79
     6
 49
0.0
 49
-4.1275
 49
0.0
 49
-6.5786
 49
0.0
 49
-9.3345
 98
        1
 10
994.3991948550296
 20
63.02367973600829
1001
ACAD
1010
0.0
1020
0.0
1030
0.0
  0
LINE
  5
23DC
330
1F
100
AcDbEntity
  8
SOLBET_Beton
100
AcDbLine
 10
77.54224695834031
 20
203.1976330679397
 30
0.0
 11
153.2922470990896
 21
204.6976332720845
 31
0.0
  0
LINE
  5
23DD
330
1F
100
AcDbEntity
  8
SOLBET_Tynki_Posadzki
100
AcDbLine
 10
77.54024737291669
 20
206.2982130142412
 30
0.0
 11
152.442246958349
 21
207.7962530059529
 31
0.0
  0
LINE
  5
23DE
330
1F
100
AcDbEntity
  8
SOLBET_Tynki_Posadzki
100
AcDbLine
 10
152.442246958349
 20
207.7962530059529
 30
0.0
 11
152.442246958349
 21
211.0469029406688
 31
0.0
  0
LINE
  5
23DF
330
1F
100
AcDbEntity
  8
SOLBET_Izolacja
100
AcDbLine
 10
174.2922469583403
 20
210.0709399014966
 30
0.0
 11
174.2922470990896
 21
204.6976332720845
 31
0.0
  0
LINE
  5
23E0
330
1F
100
AcDbEntity
  8
SOLBET_Izolacja
100
AcDbLine
 10
174.2922470990896
 20
204.6976332720845
 30
0.0
 11
175.2922469583403
 21
204.6976332720845
 31
0.0
  0
LINE
  5
23E1
330
1F
100
AcDbEntity
  8
SOLBET_Izolacja
100
AcDbLine
 10
175.2922469583403
 20
204.6976332720845
 30
0.0
 11
230.7911684342374
 21
204.6976330679361
 31
0.0
  0
LINE
  5
23E2
330
1F
100
AcDbEntity
  8
SOLBET_Izolacja
100
AcDbLine
 10
230.7911684342374
 20
204.6976330679361
 30
0.0
 11
230.7911684434334
 21
207.1976330679397
 31
0.0
  0
LINE
  5
23E3
330
1F
100
AcDbEntity
  8
SOLBET_Izolacja
  6
BATTING
 48
0.12
100
AcDbLine
 10
230.7911684388353
 20
205.9476330679379
 30
0.0
 11
175.2922469583403
 21
205.9476330679379
 31
0.0
  0
LINE
  5
23E4
330
1F
100
AcDbEntity
  8
SOLBET_Izolacja
  6
BATTING
 48
0.049
100
AcDbLine
 10
174.7922470287149
 20
204.6976332720845
 30
0.0
 11
174.7922469583257
 21
210.0709399014966
 31
0.0
  0
LINE
  5
23E5
330
1F
100
AcDbEntity
  8
SOLBET_Izolacja
100
AcDbLine
 10
103.2922469583403
 20
192.6976330679361
 30
0.0
 11
157.2922469583403
 21
192.6976330679397
 31
0.0
  0
LINE
  5
23E6
330
1F
100
AcDbEntity
  8
SOLBET_Izolacja
100
AcDbLine
 10
157.2922469583403
 20
192.6976330679397
 30
0.0
 11
157.2922469583403
 21
184.6976330679361
 31
0.0
  0
LINE
  5
23E7
330
1F
100
AcDbEntity
  8
SOLBET_Izolacja
100
AcDbLine
 10
157.2922469583403
 20
184.6976330679361
 30
0.0
 11
160.2922469583257
 21
184.6976330679361
 31
0.0
  0
LINE
  5
23E8
330
1F
100
AcDbEntity
  8
SOLBET_Izolacja
  6
BATTING
 48
0.144
100
AcDbLine
 10
158.792246958333
 20
184.6976330679361
 30
0.0
 11
158.792246958333
 21
195.6976330679397
 31
0.0
  0
LINE
  5
23E9
330
1F
100
AcDbEntity
  8
SOLBET_Izolacja
  6
BATTING
 48
0.144
100
AcDbLine
 10
103.2922469583403
 20
194.1898488553977
 30
0.0
 11
157.2922469583403
 21
194.1898488553977
 31
0.0
  0
LINE
  5
23ED
330
1F
100
AcDbEntity
  8
SOLBET_Zaprawy
100
AcDbLine
 10
81.03525803076522
 20
192.401641017638
 30
0.0
 11
152.5422469583403
 21
192.401641017638
 31
0.0
  0
LINE
  5
23EE
330
1F
100
AcDbEntity
  8
SOLBET_Beton
100
AcDbLine
 10
80.04224695832576
 20
194.153101453933
 30
0.0
 11
79.08652513650062
 21
192.6976330679361
 31
0.0
  0
LINE
  5
2403
330
1F
100
AcDbEntity
  8
SOLBET_Beton
100
AcDbLine
 10
173.0279191715939
 20
203.1976330679396
 30
0.0
 11
221.0279191716084
 21
203.1976330679397
 31
0.0
  0
LINE
  5
2404
330
1F
100
AcDbEntity
  8
SOLBET_Beton
100
AcDbLine
 10
221.0279191716084
 20
203.1976330679397
 30
0.0
 11
221.0279191716084
 21
194.6976330679397
 31
0.0
  0
LINE
  5
2405
330
1F
100
AcDbEntity
  8
SOLBET_Beton
100
AcDbLine
 10
221.0279191716084
 20
194.6976330679397
 30
0.0
 11
173.0279191715939
 21
194.697633067936
 31
0.0
  0
LINE
  5
2406
330
1F
100
AcDbEntity
  8
SOLBET_Beton
100
AcDbLine
 10
173.0279191715939
 20
194.697633067936
 30
0.0
 11
173.0279191715939
 21
203.1976330679396
 31
0.0
  0
LINE
  5
2407
330
1F
100
AcDbEntity
  8
SOLBET_Beton
100
AcDbLine
 10
173.0279191715939
 20
198.1976330679397
 30
0.0
 11
221.0279191716084
 21
198.1976330679397
 31
0.0
  0
LINE
  5
2408
330
1F
100
AcDbEntity
  8
SOLBET_Beton
100
AcDbLine
 10
209.0279191716085
 20
203.1976330679397
 30
0.0
 11
209.0279191715939
 21
194.6976330679397
 31
0.0
  0
LINE
  5
2409
330
1F
100
AcDbEntity
  8
SOLBET_Beton
100
AcDbLine
 10
197.0279191715938
 20
203.1976330679396
 30
0.0
 11
197.0279191716084
 21
194.6976330679397
 31
0.0
  0
LINE
  5
240A
330
1F
100
AcDbEntity
  8
SOLBET_Beton
100
AcDbLine
 10
185.0279191715939
 20
203.1976330679396
 30
0.0
 11
185.0279191716084
 21
194.697633067936
 31
0.0
  0
LINE
  5
240B
330
1F
100
AcDbEntity
  8
SOLBET_Beton
100
AcDbLine
 10
230.7911684342374
 20
203.1976330679397
 30
0.0
 11
226.0279191716084
 21
203.1976330679397
 31
0.0
  0
LINE
  5
240C
330
1F
100
AcDbEntity
  8
SOLBET_Beton
100
AcDbLine
 10
226.0279191716084
 20
203.1976330679397
 30
0.0
 11
226.0279191716084
 21
194.697633067936
 31
0.0
  0
LINE
  5
240D
330
1F
100
AcDbEntity
  8
SOLBET_Beton
100
AcDbLine
 10
226.0279191716084
 20
194.697633067936
 30
0.0
 11
230.7911684342374
 21
194.697633067936
 31
0.0
  0
LINE
  5
240E
330
1F
100
AcDbEntity
  8
SOLBET_Beton
100
AcDbLine
 10
230.7911684342374
 20
194.697633067936
 30
0.0
 11
230.7911684342374
 21
203.1976330679397
 31
0.0
  0
LINE
  5
240F
330
1F
100
AcDbEntity
  8
SOLBET_Beton
100
AcDbLine
 10
226.0279191716084
 20
198.1976330679361
 30
0.0
 11
230.7931616017716
 21
198.1976330679361
 31
0.0
  0
LINE
  5
2410
330
1F
100
AcDbEntity
  8
SOLBET_Izolacja
100
AcDbLine
 10
77.54224695834031
 20
206.1982330079525
 30
0.0
 11
77.54224695834031
 21
203.1976330679397
 31
0.0
  0
LINE
  5
2411
330
1F
100
AcDbEntity
  8
SOLBET_Izolacja
100
AcDbLine
 10
77.54224695834031
 20
203.1976330679397
 30
0.0
 11
153.2922470990896
 21
204.6976332720845
 31
0.0
  0
LINE
  5
2413
330
1F
100
AcDbEntity
  8
SOLBET_Izolacja
100
AcDbLine
 10
153.2922470990896
 20
207.7132330107654
 30
0.0
 11
77.54224695834031
 21
206.1982330079525
 31
0.0
  0
LINE
  5
2415
330
1F
100
AcDbEntity
  8
SOLBET_Izolacja
  6
BATTING
 48
0.144
100
AcDbLine
 10
77.54224695834031
 20
204.6979330379461
 30
0.0
 11
153.2922470990896
 21
206.2129330407613
 31
0.0
  0
LINE
  5
2422
330
1F
100
AcDbEntity
  8
SOLBET_Wymiary_Opisy
 62
     1
100
AcDbLine
 10
134.3858043859825
 20
214.8695641467357
 30
0.0
 11
109.9909168262569
 21
214.3816663955409
 31
0.0
  0
LINE
  5
2423
330
1F
100
AcDbEntity
  8
SOLBET_Wymiary_Opisy
 62
     1
100
AcDbLine
 10
115.2422013677143
 20
217.6266869299766
 30
0.0
 11
109.9909168262569
 21
214.3816663955409
 31
0.0
  0
CIRCLE
  5
2424
330
1F
100
AcDbEntity
  8
SOLBET_Wymiary_Opisy
100
AcDbCircle
 10
79.95862923702802
 20
200.3288496037924
 30
0.0
 40
14.68511551773803
  0
LEADER
  5
2425
330
1F
100
AcDbEntity
  8
SOLBET_Wymiary_Opisy
100
AcDbLeader
  3
Solbet$7
 73
     0
 75
     1
 40
5.0
 41
4.5
 76
     3
 10
69.25071945865997
 20
209.4907148352123
 30
0.0
 10
66.6690656400469
 20
213.2166604043086
 30
0.0
 10
64.1690656400469
 20
213.2166604043086
 30
0.0
340
2426
213
-0.8791749024171622
223
-0.1753245211093599
233
0.0
1001
ACAD
1000
DSTYLE
1002
{
1070
   341
1005
1EF2
1070
   147
1040
0.625
1070
    77
1070
     1
1002
}
  0
MTEXT
  5
2426
102
{ACAD_REACTORS
330
2425
102
}
330
1F
100
AcDbEntity
  8
SOLBET_Wymiary_Opisy
100
AcDbMText
 10
64.42324054246407
 20
219.016984925418
 30
0.0
 40
5.0
 41
0.0
 71
     3
 72
     1
  1
A
  7
Solbet_5
 73
     1
 44
1.0
1001
ACAD
1000
MTEXTBEGIN
1070
    73
1070
     1
1070
    44
1040
1.0
1070
    74
1070
     0
1000
MTEXTEND
  0
MTEXT
  5
2427
330
1F
100
AcDbEntity
  8
SOLBET_Wymiary_Opisy
100
AcDbMText
 10
121.7032423032577
 20
221.0467908621549
 30
0.0
 40
5.0
 41
8.119090237798445
 71
     1
 72
     5
  1
2%
  7
Solbet_5
 73
     1
 44
1.0
1001
ACAD
1000
MTEXTBEGIN
1070
    73
1070
     1
1070
    44
1040
1.0
1070
    74
1070
     0
1000
MTEXTEND
  0
LINE
  5
2438
330
1F
100
AcDbEntity
  8
SOLBET_Izolacja
100
AcDbLine
 10
74.34786831499946
 20
84.3306740217848
 30
0.0
 11
124.5911784234788
 21
85.33554022395604
 31
0.0
  0
LINE
  5
2439
330
1F
100
AcDbEntity
  8
SOLBET_Beton
100
AcDbLine
 10
81.8478683149558
 20
57.1970791797647
 30
0.0
 11
84.71503378047486
 21
52.83067402177389
 31
0.0
  0
LINE
  5
243A
330
1F
100
AcDbEntity
  8
SOLBET_Beton
100
AcDbLine
 10
81.8478683149558
 20
57.1970791797647
 30
0.0
 11
78.98070284948039
 21
52.83067402177389
 31
0.0
  0
LINE
  5
243B
330
1F
100
AcDbEntity
  8
SOLBET_Tynki_Posadzki
100
AcDbLine
 10
73.59786831499945
 20
51.33067402177388
 30
0.0
 11
73.59786831499945
 21
84.3306740217848
 31
0.0
  0
LINE
  5
243D
330
1F
100
AcDbEntity
  8
SOLBET_Emulsje_Folie
100
AcDbLine
 10
72.84786831499946
 20
52.83067402177389
 30
0.0
 11
72.84786831499946
 21
92.7173538538153
 31
0.0
  0
LINE
  5
243F
330
1F
100
AcDbEntity
  8
SOLBET_Tynki_Posadzki
100
AcDbLine
 10
78.89297885147676
 20
51.33067402177388
 30
0.0
 11
73.59786831499945
 21
51.33067402177388
 31
0.0
  0
LINE
  5
2440
330
1F
100
AcDbEntity
  8
SOLBET_Emulsje_Folie
100
AcDbLine
 10
121.4161941640757
 20
94.57390035279818
 30
0.0
 11
74.34186951459264
 21
93.63241385980641
 31
0.0
  0
LINE
  5
2443
330
1F
100
AcDbEntity
  8
SOLBET_Tynki_Posadzki
100
AcDbLine
 10
118.2824811934467
 20
51.33067402177388
 30
0.0
 11
84.80275777852217
 21
51.33067402177388
 31
0.0
  0
LINE
  5
2444
330
1F
100
AcDbEntity
  8
SOLBET_Beton
100
AcDbLine
 10
78.98070284948039
 20
52.83067402177389
 30
0.0
 11
74.34786831499946
 21
52.83067402177389
 31
0.0
  0
LINE
  5
2445
330
1F
100
AcDbEntity
  8
SOLBET_Tynki_Posadzki
100
AcDbLine
 10
81.8478683149558
 20
55.8306740217848
 30
0.0
 11
78.89297885147676
 21
51.33067402177388
 31
0.0
  0
LINE
  5
2446
330
1F
100
AcDbEntity
  8
SOLBET_Tynki_Posadzki
100
AcDbLine
 10
81.8478683149558
 20
55.8306740217848
 30
0.0
 11
84.80275777852217
 21
51.33067402177388
 31
0.0
  0
LINE
  5
2448
330
1F
100
AcDbEntity
  8
SOLBET_Beton
100
AcDbLine
 10
74.34786831499946
 20
52.83067402177389
 30
0.0
 11
74.34786831499946
 21
84.3306740217848
 31
0.0
  0
LWPOLYLINE
  5
2449
330
1F
100
AcDbEntity
  8
SOLBET_Zbrojenie_Konstrukcja
100
AcDbPolyline
 90
        2
 70
     1
 43
0.9
 10
77.69145192058636
 20
81.36387063761125
 42
1.0
 10
78.59145192055144
 20
81.36387063761125
 42
1.0
  0
LWPOLYLINE
  5
244A
330
1F
100
AcDbEntity
  8
SOLBET_Zbrojenie_Konstrukcja
100
AcDbPolyline
 90
        2
 70
     1
 43
0.9
 10
77.4390880108665
 20
57.65178462722892
 42
1.0
 10
78.33908801087523
 20
57.65178462722892
 42
1.0
  0
LWPOLYLINE
  5
244B
330
1F
100
AcDbEntity
  8
SOLBET_Zbrojenie_Konstrukcja
100
AcDbPolyline
 90
        2
 70
     1
 43
0.9
 10
114.9787912776198
 20
81.46517362349172
 42
1.0
 10
115.8787912776286
 20
81.46517362349172
 42
1.0
  0
LINE
  5
244C
330
1F
100
AcDbEntity
  8
SOLBET_Emulsje_Folie
100
AcDbLine
 10
99.58593789401925
 20
93.98726522951605
 30
0.0
 11
73.58287135822752
 21
93.46720389880633
 31
0.0
  0
LINE
  5
244D
330
1F
100
AcDbEntity
  8
SOLBET_Emulsje_Folie
100
AcDbLine
 10
72.84786835909176
 20
78.85372141375032
 30
0.0
 11
72.84786835909176
 21
92.7173538538153
 31
0.0
  0
ARC
  5
244E
330
1F
100
AcDbEntity
  8
SOLBET_Emulsje_Folie
100
AcDbCircle
 10
73.59786835913542
 20
92.7173538538153
 30
0.0
 40
0.75
100
AcDbArc
 50
91.14576283817598
 51
180.0
  0
LINE
  5
244F
330
1F
100
AcDbEntity
  8
SOLBET_Tynki_Posadzki
100
AcDbLine
 10
116.9689531214037
 20
101.98645538109
 30
0.0
 11
74.3418695587286
 21
101.1339137098328
 31
0.0
  0
LINE
  5
2450
330
1F
100
AcDbEntity
  8
SOLBET_Tynki_Posadzki
100
AcDbLine
 10
74.3418695587286
 20
93.63241385980641
 30
0.0
 11
74.3418695587286
 21
103.3843636648451
 31
0.0
  0
LINE
  5
2451
330
1F
100
AcDbEntity
  8
SOLBET_Tynki_Posadzki
100
AcDbLine
 10
116.4086345302014
 20
102.7247813314962
 30
0.0
 11
74.3418695587286
 21
101.8840636948442
 31
0.0
  0
LINE
  5
2452
330
1F
100
AcDbEntity
  8
SOLBET_Tynki_Posadzki
100
AcDbLine
 10
115.2111460061799
 20
104.2017491937943
 30
0.0
 11
74.3418695587286
 21
103.3843636648451
 31
0.0
  0
LWPOLYLINE
  5
2453
330
1F
100
AcDbEntity
  8
SOLBET_Zbrojenie_Konstrukcja
100
AcDbPolyline
 90
        6
 70
     0
 43
0.0
 10
79.8142005377565
 20
56.82920139041366
 10
78.1976225736405
 20
56.82920139041366
 42
-0.4142135623731341
 10
76.69762257359685
 20
58.32920139041366
 10
76.69762257359685
 20
80.85292988663772
 42
-0.414213562373121
 10
78.1976225736405
 20
82.35292988663772
 10
125.0237966624975
 20
83.13972702240638
  0
LINE
  5
2454
330
1F
100
AcDbEntity
  8
SOLBET_Zbrojenie_Konstrukcja
100
AcDbLine
 10
68.87421279004479
 20
35.84537891318891
 30
0.0
 11
68.87421279004479
 21
117.9025628055611
 31
0.0
  0
LINE
  5
2455
330
1F
100
AcDbEntity
  8
SOLBET_Zbrojenie_Konstrukcja
100
AcDbLine
 10
62.8742127900448
 20
35.84537891318891
 30
0.0
 11
62.8742127900448
 21
115.6032683454967
 31
0.0
  0
LINE
  5
2456
330
1F
100
AcDbEntity
  8
SOLBET_Zbrojenie_Konstrukcja
100
AcDbLine
 10
62.8742127900448
 20
35.84537891318891
 30
0.0
 11
68.87421279004479
 21
35.84537891318891
 31
0.0
  0
LINE
  5
2457
330
1F
100
AcDbEntity
  8
SOLBET_Zbrojenie_Konstrukcja
100
AcDbLine
 10
105.9038787218421
 20
45.57240603384693
 30
0.0
 11
105.9038787218421
 21
48.57240603385784
 31
0.0
  0
LINE
  5
2458
330
1F
100
AcDbEntity
  8
SOLBET_Zbrojenie_Konstrukcja
100
AcDbLine
 10
105.9038787218421
 20
48.57240603385784
 30
0.0
 11
68.87421279004479
 21
48.57240603385784
 31
0.0
  0
LINE
  5
2459
330
1F
100
AcDbEntity
  8
SOLBET_Zbrojenie_Konstrukcja
100
AcDbLine
 10
105.9038787218421
 20
45.57240603384693
 30
0.0
 11
68.87421279004479
 21
45.57240603384693
 31
0.0
  0
LINE
  5
245A
330
1F
100
AcDbEntity
  8
SOLBET_Zbrojenie_Konstrukcja
100
AcDbLine
 10
87.49775061735704
 20
51.33067402177388
 30
0.0
 11
87.49775061735704
 21
48.57240603385784
 31
0.0
  0
LINE
  5
245B
330
1F
100
AcDbEntity
  8
SOLBET_Zbrojenie_Konstrukcja
100
AcDbLine
 10
104.5509181821369
 20
51.33067402177388
 30
0.0
 11
104.5509181821369
 21
48.57240603385784
 31
0.0
  0
LINE
  5
245C
330
1F
100
AcDbEntity
  8
SOLBET_Zbrojenie_Konstrukcja
100
AcDbLine
 10
91.2640983386052
 20
43.83777221371914
 30
0.0
 11
91.2640983386052
 21
70.45939357617303
 31
0.0
  0
LINE
  5
245D
330
1F
100
AcDbEntity
  8
SOLBET_Zbrojenie_Konstrukcja
100
AcDbLine
 10
89.17168731619018
 20
44.77900890781151
 30
0.0
 11
93.35650936106389
 21
44.77900890781151
 31
0.0
  0
LINE
  5
245E
330
1F
100
AcDbEntity
  8
SOLBET_Zbrojenie_Konstrukcja
100
AcDbLine
 10
100.8891969226504
 20
43.83777221371914
 30
0.0
 11
100.8891969226504
 21
70.45939357617303
 31
0.0
  0
LINE
  5
245F
330
1F
100
AcDbEntity
  8
SOLBET_Zbrojenie_Konstrukcja
100
AcDbLine
 10
98.79678590019171
 20
44.77900890781151
 30
0.0
 11
102.9816079450654
 21
44.77900890781151
 31
0.0
  0
LINE
  5
2460
330
1F
100
AcDbEntity
  8
SOLBET_Beton
100
AcDbLine
 10
74.34786831499946
 20
84.3306740217848
 30
0.0
 11
124.5911784234788
 21
85.33554022395604
 31
0.0
  0
LINE
  5
2461
330
1F
100
AcDbEntity
  8
SOLBET_Beton
100
AcDbLine
 10
119.236812806864
 20
52.83067402177389
 30
0.0
 11
84.71503378047486
 21
52.83067402177389
 31
0.0
  0
LINE
  5
2462
330
1F
100
AcDbEntity
  8
SOLBET_Tynki_Posadzki
100
AcDbLine
 10
74.3418695587286
 20
93.63241386068906
 30
0.0
 11
121.4161941640757
 21
94.57390035279795
 31
0.0
  0
LINE
  5
2464
330
1F
100
AcDbEntity
  8
SOLBET_Zaprawy
100
AcDbLine
 10
84.82690153227418
 20
51.94269787087964
 30
0.0
 11
118.6821582168265
 21
51.94269787087964
 31
0.0
  0
LINE
  5
2465
330
1F
100
AcDbEntity
  8
SOLBET_Beton
100
AcDbLine
 10
81.8478683149558
 20
57.1970791797647
 30
0.0
 11
78.98070284948039
 21
52.83067402177389
 31
0.0
  0
LINE
  5
246A
330
1F
100
AcDbEntity
  8
SOLBET_Izolacja
100
AcDbLine
 10
74.34786831499946
 20
93.33247384182309
 30
0.0
 11
74.34786831499946
 21
84.3306740217848
 31
0.0
  0
LINE
  5
246B
330
1F
100
AcDbEntity
  8
SOLBET_Izolacja
100
AcDbLine
 10
121.5555633233337
 20
94.27662774198855
 30
0.0
 11
74.34786831499946
 21
93.33247384182309
 31
0.0
  0
LINE
  5
246C
330
1F
100
AcDbEntity
  8
SOLBET_Izolacja
  6
BATTING
 48
0.4400000000000001
100
AcDbLine
 10
74.34786831499946
 20
88.83157393180395
 30
0.0
 11
123.3394121090548
 21
89.8114048076853
 31
0.0
  0
ARC
  5
246D
330
1F
100
AcDbEntity
  8
SOLBET_Wymiary_Opisy
100
AcDbCircle
 10
81.59701515106258
 20
75.72432362934282
 30
0.0
 40
44.05534655321409
100
AcDbArc
 50
244.850370937472
 51
115.1496290625279
  0
LEADER
  5
248A
330
1F
100
AcDbEntity
  8
SOLBET_Wymiary_Opisy
100
AcDbLeader
  3
Solbet$7
 73
     0
 74
     0
 75
     1
 40
3.25
 41
35.75
 76
     3
 10
104.2873409023308
 20
103.9832730917173
 30
0.0
 10
128.6844767494988
 20
121.4696803431883
 30
0.0
 10
131.1844767494988
 20
121.4696803431883
 30
0.0
340
248B
213
-0.625
223
0.625
233
0.0
1001
ACAD
1000
DSTYLE
1002
{
1070
   147
1040
0.625
1070
    77
1070
     1
1002
}
  0
MTEXT
  5
248B
102
{ACAD_REACTORS
330
248A
102
}
330
1F
100
AcDbEntity
  8
SOLBET_Wymiary_Opisy
100
AcDbMText
 10
132.4344767494988
 20
124.7196803431883
 30
0.0
 40
2.5
 41
0.0
 71
     1
 72
     1
  1
Mrozoodporna terakota
  7
Solbet_2_5
 73
     1
 44
1.0
1001
ACAD
1000
MTEXTBEGIN
1070
    73
1070
     1
1070
    44
1040
1.0
1070
    74
1070
     0
1000
MTEXTEND
  0
MTEXT
  5
248D
102
{ACAD_XDICTIONARY
360
293B
102
}
330
1F
100
AcDbEntity
  8
SOLBET_Wymiary_Opisy
100
AcDbMText
 10
53.97472203581333
 20
125.1219204381276
 30
0.0
 40
2.5
 41
0.0
 71
     3
 72
     1
  1
Zaprawa klejowa \PSOLBET Gabit T
  7
Solbet_2_5
 73
     1
 44
1.0
1001
ACAD
1000
MTEXTBEGIN
1070
    73
1070
     1
1070
    44
1040
1.0
1070
    74
1070
     0
1000
MTEXTEND
  0
LEADER
  5
248E
330
1F
100
AcDbEntity
  8
SOLBET_Wymiary_Opisy
100
AcDbLeader
  3
Solbet$7
 73
     0
 75
     1
 40
3.5
 41
35.0
 76
     3
 10
82.62147738695398
 20
95.4497959695726
 30
0.0
 10
54.35727848425699
 20
105.2472952752594
 30
0.0
 10
51.85727848425699
 20
105.2472952752594
 30
0.0
340
248F
213
-0.625
223
0.625
233
0.0
1001
ACAD
1000
DSTYLE
1002
{
1070
   147
1040
0.625
1070
    77
1070
     1
1002
}
  0
MTEXT
  5
248F
102
{ACAD_XDICTIONARY
360
293D
102
}
102
{ACAD_REACTORS
330
248E
102
}
330
1F
100
AcDbEntity
  8
SOLBET_Wymiary_Opisy
100
AcDbMText
 10
51.85727848425699
 20
108.7472952752594
 30
0.0
 40
2.5
 41
0.0
 71
     3
 72
     1
  1
Warstwa wyr\U+00F3wnawcza
  7
Solbet_2_5
 73
     1
 44
1.0
1001
ACAD
1000
MTEXTBEGIN
1070
    73
1070
     1
1070
    44
1040
1.0
1070
    74
1070
     0
1000
MTEXTEND
  0
LEADER
  5
2490
330
1F
100
AcDbEntity
  8
SOLBET_Wymiary_Opisy
100
AcDbLeader
  3
Solbet$7
 73
     0
 40
3.25
 41
19.75
 76
     2
 10
72.84786831499957
 20
83.92767114044076
 30
0.0
 10
52.87532518516377
 20
88.2557947914147
 30
0.0
340
2491
213
-0.625
223
0.625
233
0.0
1001
ACAD
1000
DSTYLE
1002
{
1070
   147
1040
0.625
1070
    77
1070
     1
1002
}
  0
MTEXT
  5
2491
102
{ACAD_REACTORS
330
2490
102
}
330
1F
100
AcDbEntity
  8
SOLBET_Wymiary_Opisy
100
AcDbMText
 10
52.87532518516377
 20
91.5057947914147
 30
0.0
 40
2.5
 41
0.0
 71
     3
 72
     1
  1
Hydroizolacja
  7
Solbet_2_5
 73
     1
 44
1.0
1001
ACAD
1000
MTEXTBEGIN
1070
    73
1070
     1
1070
    44
1040
1.0
1070
    74
1070
     0
1000
MTEXTEND
  0
LEADER
  5
2492
330
1F
100
AcDbEntity
  8
SOLBET_Wymiary_Opisy
100
AcDbLeader
  3
Solbet$7
 73
     0
 74
     0
 75
     1
 40
7.416666666666666
 41
40.75
 76
     3
 10
106.2754848073948
 20
87.73055087342649
 30
0.0
 10
129.3010018583511
 20
105.0217612018088
 30
0.0
 10
131.8010018583511
 20
105.0217612018088
 30
0.0
340
2493
213
-0.625
223
0.625
233
0.0
1001
ACAD
1000
DSTYLE
1002
{
1070
   147
1040
0.625
1070
    77
1070
     1
1002
}
  0
MTEXT
  5
2493
102
{ACAD_XDICTIONARY
360
293F
102
}
102
{ACAD_REACTORS
330
2492
102
}
330
1F
100
AcDbEntity
  8
SOLBET_Wymiary_Opisy
100
AcDbMText
 10
133.0510018583511
 20
112.4384278684755
 30
0.0
 40
2.5
 41
0.0
 71
     1
 72
     1
  1
Izolacja termiczna \Pna kleju SOLBET Gabit T-1
  7
Solbet_2_5
 73
     1
 44
1.0
1001
ACAD
1000
MTEXTBEGIN
1070
    73
1070
     1
1070
    44
1040
1.0
1070
    74
1070
     0
1000
MTEXTEND
  0
LEADER
  5
2494
330
1F
100
AcDbEntity
  8
SOLBET_Wymiary_Opisy
100
AcDbLeader
  3
Solbet$7
 73
     0
 75
     1
 40
3.25
 41
25.5
 76
     3
 10
81.56433675512449
 20
74.5815324448231
 30
0.0
 10
51.38546356837423
 20
61.56595439186503
 30
0.0
 10
48.88546356837423
 20
61.56595439186503
 30
0.0
340
2495
213
-0.625
223
0.625
233
0.0
1001
ACAD
1000
DSTYLE
1002
{
1070
   147
1040
0.625
1070
    77
1070
     1
1002
}
  0
MTEXT
  5
2495
102
{ACAD_XDICTIONARY
360
2941
102
}
102
{ACAD_REACTORS
330
2494
102
}
330
1F
100
AcDbEntity
  8
SOLBET_Wymiary_Opisy
100
AcDbMText
 10
48.88546356837423
 20
64.81595439186503
 30
0.0
 40
2.5
 41
0.0
 71
     3
 72
     1
  1
P\U+0142yta balkonowa
  7
Solbet_2_5
 73
     1
 44
1.0
1001
ACAD
1000
MTEXTBEGIN
1070
    73
1070
     1
1070
    44
1040
1.0
1070
    74
1070
     0
1000
MTEXTEND
  0
LEADER
  5
2496
330
1F
100
AcDbEntity
  8
SOLBET_Wymiary_Opisy
100
AcDbLeader
  3
Solbet$7
 73
     0
 75
     1
 40
7.416666666666666
 41
40.75
 76
     3
 10
141.6591516510132
 20
193.6493546305021
 30
0.0
 10
119.0389578382381
 20
173.9253572062799
 30
0.0
 10
116.5389578382381
 20
173.9253572062799
 30
0.0
340
2497
213
-0.625
223
0.625
233
0.0
1001
ACAD
1000
DSTYLE
1002
{
1070
   147
1040
0.625
1070
    77
1070
     1
1002
}
  0
MTEXT
  5
2497
102
{ACAD_XDICTIONARY
360
2943
102
}
102
{ACAD_REACTORS
330
2496
102
}
330
1F
100
AcDbEntity
  8
SOLBET_Wymiary_Opisy
100
AcDbMText
 10
116.5389578382381
 20
181.3420238729466
 30
0.0
 40
2.5
 41
0.0
 71
     3
 72
     1
  1
Izolacja termiczna \Pna kleju SOLBET Gabit T-1
  7
Solbet_2_5
 73
     1
 44
1.0
1001
ACAD
1000
MTEXTBEGIN
1070
    73
1070
     1
1070
    44
1040
1.0
1070
    74
1070
     0
1000
MTEXTEND
  0
LEADER
  5
2498
330
1F
100
AcDbEntity
  8
SOLBET_Wymiary_Opisy
100
AcDbLeader
  3
Solbet$7
 74
     0
 40
7.416666666666666
 41
49.25
 76
     2
 10
115.3859800298467
 20
51.94269787087964
 30
0.0
 10
132.8403702628964
 20
38.92986480775869
 30
0.0
213
-0.1224312201989051
223
-1.014039093606783
233
0.0
1001
ACAD
1000
DSTYLE
1002
{
1070
   147
1040
0.625
1070
    77
1070
     1
1002
}
  0
LEADER
  5
249A
330
1F
100
AcDbEntity
  8
SOLBET_Wymiary_Opisy
100
AcDbLeader
  3
Solbet$7
 73
     0
 74
     0
 75
     1
 40
3.25
 41
20.25
 76
     3
 10
99.21722108822928
 20
51.33067402177388
 30
0.0
 10
134.0697003125863
 20
23.96206936679968
 30
0.0
 10
136.5697003125863
 20
23.96206936679968
 30
0.0
340
249B
213
-0.625
223
0.625
233
0.0
1001
ACAD
1000
DSTYLE
1002
{
1070
   147
1040
0.625
1070
    77
1070
     1
1002
}
  0
MTEXT
  5
249B
102
{ACAD_REACTORS
330
249A
102
}
330
1F
100
AcDbEntity
  8
SOLBET_Wymiary_Opisy
100
AcDbMText
 10
158.0697003125863
 20
27.21206936679968
 30
0.0
 40
2.5
 41
0.0
 71
     3
 72
     1
  1
Tynk SOLBET
  7
Solbet_2_5
 73
     1
 44
1.0
1001
ACAD
1000
MTEXTBEGIN
1070
    73
1070
     1
1070
    44
1040
1.0
1070
    74
1070
     0
1000
MTEXTEND
  0
LEADER
  5
249C
330
1F
100
AcDbEntity
  8
SOLBET_Wymiary_Opisy
100
AcDbLeader
  3
Solbet$7
 73
     0
 74
     0
 75
     1
 40
3.25
 41
41.25
 76
     3
 10
103.7004668275176
 20
82.78144161545906
 30
0.0
 10
129.0473383404085
 20
66.55531786740311
 30
0.0
 10
131.5473383404085
 20
66.55531786740311
 30
0.0
340
249D
213
-0.625
223
0.625
233
0.0
1001
ACAD
1000
DSTYLE
1002
{
1070
   147
1040
0.625
1070
    77
1070
     1
1002
}
  0
MTEXT
  5
249D
102
{ACAD_XDICTIONARY
360
2945
102
}
102
{ACAD_REACTORS
330
249C
102
}
330
1F
100
AcDbEntity
  8
SOLBET_Wymiary_Opisy
100
AcDbMText
 10
174.0473383404085
 20
69.80531786740312
 30
0.0
 40
2.5
 41
0.0
 71
     3
 72
     1
  1
Zbrojenie p\U+0142yty balkonowej
  7
Solbet_2_5
 73
     1
 44
1.0
1001
ACAD
1000
MTEXTBEGIN
1070
    73
1070
     1
1070
    44
1040
1.0
1070
    74
1070
     0
1000
MTEXTEND
  0
LEADER
  5
249E
330
1F
100
AcDbEntity
  8
SOLBET_Wymiary_Opisy
100
AcDbLeader
  3
Solbet$7
 73
     0
 75
     1
 40
2.501893939393939
 41
29.75
 76
     3
 10
68.87421279004479
 20
80.46789721245454
 30
0.0
 10
52.54669538095299
 20
74.94142964222016
 30
0.0
 10
50.04669538095299
 20
74.94142964222016
 30
0.0
340
249F
213
-0.1378614245804783
223
-0.10829748795868
233
0.0
1001
ACAD
1000
DSTYLE
1002
{
1070
   147
1040
0.625
1070
    77
1070
     1
1002
}
  0
MTEXT
  5
249F
102
{ACAD_REACTORS
330
249E
102
}
330
1F
100
AcDbEntity
  8
SOLBET_Wymiary_Opisy
100
AcDbMText
 10
49.55955680553348
 20
78.17662106957278
 30
0.0
 40
2.5
 41
0.0
 71
     3
 72
     1
  1
Barierka balkonowa
  7
Solbet_2_5
 73
     1
 44
1.0
1001
ACAD
1000
MTEXTBEGIN
1070
    73
1070
     1
1070
    44
1040
1.0
1070
    74
1070
     0
1000
MTEXTEND
  0
LEADER
  5
24A0
330
1F
100
AcDbEntity
  8
SOLBET_Wymiary_Opisy
100
AcDbLeader
  3
Solbet$7
 73
     0
 75
     1
 40
3.25
 41
46.25
 76
     3
 10
91.2640983386052
 20
54.4541341069033
 30
0.0
 10
51.98580055546608
 20
34.21329274819786
 30
0.0
 10
49.48580055546608
 20
34.21329274819786
 30
0.0
340
24A1
213
-0.625
223
0.625
233
0.0
1001
ACAD
1000
DSTYLE
1002
{
1070
   147
1040
0.625
1070
    77
1070
     1
1002
}
  0
MTEXT
  5
24A1
102
{ACAD_REACTORS
330
24A0
102
}
330
1F
100
AcDbEntity
  8
SOLBET_Wymiary_Opisy
100
AcDbMText
 10
49.48580055546608
 20
37.46329274819786
 30
0.0
 40
2.5
 41
0.0
 71
     3
 72
     1
  1
Mocowanie barierki balkonowej
  7
Solbet_2_5
 73
     1
 44
1.0
1001
ACAD
1000
MTEXTBEGIN
1070
    73
1070
     1
1070
    44
1040
1.0
1070
    74
1070
     0
1000
MTEXTEND
  0
LEADER
  5
24CB
330
1F
100
AcDbEntity
  8
SOLBET_Wymiary_Opisy
100
AcDbLeader
  3
Solbet$7
 73
     0
 74
     0
 75
     1
 40
3.5
 41
37.25
 76
     3
 10
243.1671182774477
 20
115.494524494835
 30
0.0
 10
267.8687018975894
 20
127.9201565102562
 30
0.0
 10
270.3687018975894
 20
127.9201565102562
 30
0.0
213
1.177601578005123
223
-0.1753245211093599
233
0.0
1001
ACAD
1000
DSTYLE
1002
{
1070
   147
1040
0.625
1070
    77
1070
     1
1002
}
  0
MTEXT
  5
24CC
102
{ACAD_XDICTIONARY
360
2947
102
}
102
{ACAD_REACTORS
330
24CB
102
}
330
1F
100
AcDbEntity
  8
SOLBET_Wymiary_Opisy
100
AcDbMText
 10
270.1557879218832
 20
131.4201565102562
 30
0.0
 40
2.5
 41
0.0
 71
     1
 72
     1
  1
Warstwa wyko\U+0144czeniowa
  7
Solbet_2_5
 73
     1
 44
1.0
1001
ACAD
1000
MTEXTBEGIN
1070
    73
1070
     1
1070
    44
1040
1.0
1070
    74
1070
     0
1000
MTEXTEND
  0
LEADER
  5
24CD
330
1F
100
AcDbEntity
  8
SOLBET_Wymiary_Opisy
100
AcDbLeader
  3
Solbet$7
 73
     0
 74
     0
 75
     1
 40
3.25
 41
32.5
 76
     3
 10
244.281657099644
 20
109.1606447873461
 30
0.0
 10
267.5022916040413
 20
121.1142988095164
 30
0.0
 10
270.0022916040413
 20
121.1142988095164
 30
0.0
213
0.0
223
-0.2322806831707567
233
0.0
1001
ACAD
1000
DSTYLE
1002
{
1070
   147
1040
0.625
1070
    77
1070
     1
1002
}
  0
MTEXT
  5
24CE
102
{ACAD_REACTORS
330
24CD
102
}
330
1F
100
AcDbEntity
  8
SOLBET_Wymiary_Opisy
100
AcDbMText
 10
270.0022916040413
 20
124.3642988095164
 30
0.0
 40
2.5
 41
0.0
 71
     1
 72
     1
  1
Wylewka jastrychowa
  7
Solbet_2_5
 73
     1
 44
1.0
1001
ACAD
1000
MTEXTBEGIN
1070
    73
1070
     1
1070
    44
1040
1.0
1070
    74
1070
     0
1000
MTEXTEND
  0
LEADER
  5
24CF
330
1F
100
AcDbEntity
  8
SOLBET_Wymiary_Opisy
100
AcDbLeader
  3
Solbet$7
 73
     0
 74
     0
 75
     1
 40
3.25
 41
19.75
 76
     3
 10
245.7639356202541
 20
100.859418634238
 30
0.0
 10
268.1162706213573
 20
113.5982774737675
 30
0.0
 10
270.6162706213573
 20
113.5982774737675
 30
0.0
213
0.0
223
-0.2322806831707567
233
0.0
1001
ACAD
1000
DSTYLE
1002
{
1070
   147
1040
0.625
1070
    77
1070
     1
1002
}
  0
MTEXT
  5
24D0
102
{ACAD_REACTORS
330
24CF
102
}
330
1F
100
AcDbEntity
  8
SOLBET_Wymiary_Opisy
100
AcDbMText
 10
270.6162706213573
 20
116.8482774737675
 30
0.0
 40
2.5
 41
0.0
 71
     1
 72
     1
  1
Hydroizolacja
  7
Solbet_2_5
 73
     1
 44
1.0
1001
ACAD
1000
MTEXTBEGIN
1070
    73
1070
     1
1070
    44
1040
1.0
1070
    74
1070
     0
1000
MTEXTEND
  0
LEADER
  5
24D1
330
1F
100
AcDbEntity
  8
SOLBET_Wymiary_Opisy
100
AcDbLeader
  3
Solbet$7
 73
     0
 74
     0
 75
     1
 40
3.25
 41
36.5
 76
     3
 10
248.0969944972519
 20
92.71097982760688
 30
0.0
 10
267.5022916040413
 20
103.9348231096544
 30
0.0
 10
270.0022916040413
 20
103.9348231096544
 30
0.0
213
0.0
223
-0.2322806831707567
233
0.0
1001
ACAD
1000
DSTYLE
1002
{
1070
   147
1040
0.625
1070
    77
1070
     1
1002
}
  0
MTEXT
  5
24D2
102
{ACAD_XDICTIONARY
360
2949
102
}
102
{ACAD_REACTORS
330
24D1
102
}
330
1F
100
AcDbEntity
  8
SOLBET_Wymiary_Opisy
100
AcDbMText
 10
270.0022916040413
 20
107.1848231096544
 30
0.0
 40
2.5
 41
0.0
 71
     1
 72
     1
  1
P\U+0142yty izolacyjne twarde
  7
Solbet_2_5
 73
     1
 44
1.0
1001
ACAD
1000
MTEXTBEGIN
1070
    73
1070
     1
1070
    44
1040
1.0
1070
    74
1070
     0
1000
MTEXTEND
  0
MTEXT
  5
24D3
102
{ACAD_XDICTIONARY
360
2852
102
}
330
1F
100
AcDbEntity
  8
SOLBET_Wymiary_Opisy
100
AcDbMText
 10
221.182331373595
 20
142.0808272877119
 30
0.0
 40
5.0
 41
30.77919768571883
 71
     1
 72
     5
  1
\pxqc;B\P(5 : 1)
  7
Solbet_5
 73
     1
 44
1.0
1001
ACAD
1000
MTEXTBEGIN
1070
    73
1070
     1
1070
    44
1040
1.0
1070
    74
1070
     0
1000
MTEXTEND
1000
ACAD_MTEXT_DEFINED_HEIGHT_BEGIN
1070
    46
1040
23.42535011036716
1000
ACAD_MTEXT_DEFINED_HEIGHT_END
  0
CIRCLE
  5
24D4
330
1F
100
AcDbEntity
  8
SOLBET_Wymiary_Opisy
100
AcDbCircle
 10
228.0210137043035
 20
205.9476330679379
 30
0.0
 40
6.72794034480946
  0
LEADER
  5
24D5
330
1F
100
AcDbEntity
  8
SOLBET_Wymiary_Opisy
100
AcDbLeader
  3
Solbet$7
 73
     0
 74
     0
 75
     1
 40
5.0
 41
4.0
 76
     3
 10
232.0588589848856
 20
211.3291743688475
 30
0.0
 10
235.5359178545324
 20
216.001923791727
 30
0.0
 10
238.0359178545324
 20
216.001923791727
 30
0.0
213
0.8103787685154202
223
-0.1753245211093599
233
0.0
1001
ACAD
1000
DSTYLE
1002
{
1070
   341
1005
1EF2
1070
   147
1040
0.625
1070
    77
1070
     1
1002
}
  0
MTEXT
  5
24D6
102
{ACAD_REACTORS
330
24D5
102
}
330
1F
100
AcDbEntity
  8
SOLBET_Wymiary_Opisy
100
AcDbMText
 10
241.8505390860169
 20
221.8022483128363
 30
0.0
 40
5.0
 41
0.0
 71
     3
 72
     1
  1
B
  7
Solbet_5
 73
     1
 44
1.0
1001
ACAD
1000
MTEXTBEGIN
1070
    73
1070
     1
1070
    44
1040
1.0
1070
    74
1070
     0
1000
MTEXTEND
  0
LINE
  5
24D7
330
1F
100
AcDbEntity
  8
SOLBET_Zbrojenie_Konstrukcja
100
AcDbLine
 10
240.5233027079158
 20
69.88022206637885
 30
0.0
 11
245.1504122289163
 21
61.20439171450454
 31
0.0
  0
LINE
  5
24D8
330
1F
100
AcDbEntity
  8
SOLBET_Zbrojenie_Konstrukcja
100
AcDbLine
 10
235.2557927165473
 20
60.0036408325621
 30
0.0
 11
240.5233027079158
 21
69.88022206637885
 31
0.0
  0
LINE
  5
24D9
330
1F
100
AcDbEntity
  8
SOLBET_Zbrojenie_Konstrukcja
100
AcDbLine
 10
255.5179100874422
 20
69.88022206637953
 30
0.0
 11
212.3715775007605
 21
69.8802220663793
 31
0.0
  0
LINE
  5
24DA
330
1F
100
AcDbEntity
  8
SOLBET_Emulsje_Folie
100
AcDbLine
 10
203.3415026196909
 20
100.859418634238
 30
0.0
 11
255.5179100875185
 21
100.859418634238
 31
0.0
  0
LWPOLYLINE
  5
24DB
330
1F
100
AcDbEntity
  8
SOLBET_Zbrojenie_Konstrukcja
100
AcDbPolyline
 90
        2
 70
     1
 43
1.5
 10
225.0596520038463
 20
80.3066926158063
 42
1.0
 10
226.559652003904
 20
80.3066926158063
 42
1.0
  0
LWPOLYLINE
  5
24DC
330
1F
100
AcDbEntity
  8
SOLBET_Zbrojenie_Konstrukcja
100
AcDbPolyline
 90
        4
 70
     0
 43
0.0
 10
221.7153642142918
 20
63.26638426676805
 10
227.4807519229731
 20
80.3066926158063
 42
1.0
 10
223.9550279926417
 20
80.3066926158063
 10
221.9901294162629
 20
74.49919461082055
  0
LWPOLYLINE
  5
24DD
330
1F
100
AcDbEntity
  8
SOLBET_Zbrojenie_Konstrukcja
100
AcDbPolyline
 90
        4
 70
     0
 43
0.0
 10
204.1091440867418
 20
83.52518390031793
 10
225.1343512000532
 20
83.52518390031793
 42
-0.4142135623730951
 10
227.6343512000532
 20
81.02518390031793
 10
227.6343512000532
 20
61.09807387825123
  0
LINE
  5
24DE
330
1F
100
AcDbEntity
  8
SOLBET_Beton
100
AcDbLine
 10
255.5179100875185
 20
79.88022206636384
 30
0.0
 11
231.7016637742419
 21
79.88022206636384
 31
0.0
  0
LINE
  5
24DF
330
1F
100
AcDbEntity
  8
SOLBET_Beton
100
AcDbLine
 10
231.7016637742419
 20
79.88022206636384
 30
0.0
 11
231.7016637742419
 21
60.29199657510258
 31
0.0
  0
LWPOLYLINE
  5
24E0
330
1F
100
AcDbEntity
  8
SOLBET_Tynki_Posadzki
100
AcDbPolyline
 90
        4
 70
     0
 43
0.0
 10
211.7564339857005
 20
116.7467562341481
 10
255.5179100875185
 20
116.7467562341481
 10
255.5179100875185
 20
114.2467562341481
 10
209.6135188762283
 20
114.2467562341481
  0
HATCH
  5
24E1
330
1F
100
AcDbEntity
  8
SOLBET_Tynki_Posadzki
100
AcDbHatch
 10
0.0
 20
0.0
 30
0.0
210
0.0
220
0.0
230
1.0
  2
AR-CONC
 70
     0
 71
     1
 91
        1
 92
        7
 72
     1
 73
     1
 93
        4
 10
255.5179100875186
 20
101.7467562341335
 42
0.0
 10
255.5179100875186
 20
114.2467562341481
 42
0.0
 10
209.6135188762286
 20
114.2467562341481
 42
0.1043755579106062
 10
203.5493946721177
 20
101.7467562341335
 42
0.0
 97
        2
330
24E2
330
24E7
 75
     0
 76
     1
 52
0.0
 41
0.1
 77
     0
 78
    13
 53
50.0
 43
972.019535824884
 44
-11.40725803602896
 45
18.2184668996004
 46
-1.593908553890308
 79
     2
 49
1.905
 49
-20.955
 53
355.0
 43
972.019535824884
 44
-11.40725803602896
 45
-3.524282597566699
 46
19.105664288218
 79
     2
 49
1.524
 49
-16.764
 53
100.451
 43
973.537735824884
 44
-11.54008303602896
 45
14.69425016659592
 46
17.51166878202919
 79
     2
 49
1.619
 49
-17.809
 53
46.1842
 43
972.019535824884
 44
-6.327258036028965
 45
27.107904089213
 46
-4.204232793272715
 79
     2
 49
2.857499999999999
 49
-31.4325
 53
96.63559999999998
 43
974.2785258248842
 44
-6.677608036028964
 45
23.74042344662372
 46
24.74255558900492
 79
     2
 49
2.428499999999996
 49
-26.71349999999997
 53
351.184
 43
972.019535824884
 44
-6.327258036028965
 45
23.74046058139339
 46
24.74251178605977
 79
     2
 49
2.286
 49
-25.146
 53
21.0
 43
974.559535824884
 44
-7.597258036028961
 45
15.16148798353833
 46
-10.22655185167625
 79
     2
 49
1.905
 49
-20.955
 53
326.0
 43
974.559535824884
 44
-7.597258036028961
 45
6.180202834764707
 46
18.41879661223192
 79
     2
 49
1.524
 49
-16.764
 53
71.45140000000001
 43
975.822985824884
 44
-8.44946803602896
 45
21.34164907701245
 46
8.192285771605744
 79
     2
 49
1.619
 49
-17.809
 53
37.5
 43
972.019535824884
 44
-11.40725803602896
 45
0.3088603250591817
 46
8.455503887315311
 79
     6
 49
0.0
 49
-16.5608
 49
0.0
 49
-17.018
 49
0.0
 49
-16.8275
 53
7.499999999999999
 43
972.019535824884
 44
-11.40725803602896
 45
6.681966251030575
 46
10.01805748181195
 79
     6
 49
0.0
 49
-9.702799999999999
 49
0.0
 49
-16.1798
 49
0.0
 49
-6.4135
 53
327.5
 43
966.355335824884
 44
-11.40725803602896
 45
13.55905951668713
 46
-0.5728743992673465
 79
     6
 49
0.0
 49
-6.35
 49
0.0
 49
-19.812
 49
0.0
 49
-26.289
 53
317.5
 43
963.8153358248841
 44
-11.40725803602896
 45
14.8129181386018
 46
2.542649103333301
 79
     6
 49
0.0
 49
-8.255
 49
0.0
 49
-13.1572
 49
0.0
 49
-18.669
 47
0.0
 98
        1
 10
230.749590538445
 20
107.8704582992946
1001
ACAD
1010
0.0
1020
0.0
1030
0.0
  0
LWPOLYLINE
  5
24E2
102
{ACAD_REACTORS
330
24E1
102
}
330
1F
100
AcDbEntity
  8
SOLBET_Tynki_Posadzki
100
AcDbPolyline
 90
        4
 70
     0
 43
0.0
 10
203.5493946721177
 20
101.7467562341335
 10
255.5179100875185
 20
101.7467562341335
 10
255.5179100875185
 20
114.2467562341481
 10
209.6135188762283
 20
114.2467562341481
  0
LINE
  5
24E3
330
1F
100
AcDbEntity
  8
SOLBET_Izolacja
100
AcDbLine
 10
203.1412411236475
 20
99.88022206636385
 30
0.0
 11
255.5179100875185
 21
99.88022206636385
 31
0.0
  0
LINE
  5
24E4
330
1F
100
AcDbEntity
  8
SOLBET_Izolacja
100
AcDbLine
 10
255.5179100875181
 20
87.3802220663784
 30
0.0
 11
203.1412411236475
 21
87.38022206637793
 31
0.0
  0
LINE
  5
24E5
330
1F
100
AcDbEntity
  8
SOLBET_Izolacja
  6
BATTING
 48
0.61
100
AcDbLine
 10
255.5179100875185
 20
93.63022206637111
 30
0.0
 11
202.5555411555598
 21
93.63022206637202
 31
0.0
  0
LINE
  5
24E6
330
1F
100
AcDbEntity
  8
SOLBET_Wymiary_Opisy
 62
     1
100
AcDbLine
 10
255.5179100875181
 20
116.7467562341481
 30
0.0
 11
255.517910087519
 21
66.09362706889311
 31
0.0
  0
ARC
  5
24E7
102
{ACAD_REACTORS
330
24E1
102
}
330
1F
100
AcDbEntity
  8
SOLBET_Wymiary_Opisy
100
AcDbCircle
 10
236.1952428796068
 20
93.63022206637158
 30
0.0
 40
33.6397017240473
100
AcDbArc
 50
136.5926968744816
 51
305.0576715446696
  0
LEADER
  5
24E8
330
1F
100
AcDbEntity
  8
SOLBET_Wymiary_Opisy
100
AcDbLeader
  3
Solbet$7
 73
     0
 74
     0
 75
     1
 40
3.25
 41
50.0
 76
     3
 10
219.1372886282089
 20
77.42708028288558
 30
0.0
 10
265.1113347069646
 20
53.97642059168885
 30
0.0
 10
267.6113347069646
 20
53.97642059168885
 30
0.0
340
24E9
213
1.177601578005123
223
-0.1753245211093599
233
0.0
1001
ACAD
1000
DSTYLE
1002
{
1070
   147
1040
0.625
1070
    77
1070
     1
1002
}
  0
MTEXT
  5
24E9
102
{ACAD_XDICTIONARY
360
294B
102
}
102
{ACAD_REACTORS
330
24E8
102
}
330
1F
100
AcDbEntity
  8
SOLBET_Wymiary_Opisy
100
AcDbMText
 10
267.0587331289595
 20
58.02674511279821
 30
0.0
 40
2.5
 41
0.0
 71
     1
 72
     1
  1
Zbrojenie w \U+017Cebrze rozdzielczym
  7
Solbet_2_5
 73
     1
 44
1.0
1001
ACAD
1000
MTEXTBEGIN
1070
    73
1070
     1
1070
    44
1040
1.0
1070
    74
1070
     0
1000
MTEXTEND
  0
LEADER
  5
24EA
330
1F
100
AcDbEntity
  8
SOLBET_Wymiary_Opisy
100
AcDbLeader
  3
Solbet$7
 73
     0
 74
     0
 75
     1
 40
3.25
 41
20.25
 76
     3
 10
210.4328242510869
 20
192.1976330679361
 30
0.0
 10
231.1360013486972
 20
167.9485940770635
 30
0.0
 10
233.6360013486972
 20
167.9485940770635
 30
0.0
340
24EB
213
1.177601578005123
223
-0.1753245211093599
233
0.0
1001
ACAD
1000
DSTYLE
1002
{
1070
   147
1040
0.625
1070
    77
1070
     1
1002
}
  0
MTEXT
  5
24EB
102
{ACAD_REACTORS
330
24EA
102
}
330
1F
100
AcDbEntity
  8
SOLBET_Wymiary_Opisy
100
AcDbMText
 10
253.3333997706921
 20
171.9989185981729
 30
0.0
 40
2.5
 41
0.0
 71
     3
 72
     1
  1
Tynk SOLBET
  7
Solbet_2_5
 73
     1
 44
1.0
1001
ACAD
1000
MTEXTBEGIN
1070
    73
1070
     1
1070
    44
1040
1.0
1070
    74
1070
     0
1000
MTEXTEND
  0
LEADER
  5
24EC
330
1F
100
AcDbEntity
  8
SOLBET_Wymiary_Opisy
100
AcDbLeader
  3
Solbet$7
 73
     0
 74
     0
 75
     1
 40
3.25
 41
19.5
 76
     3
 10
216.3716201280857
 20
198.1976330679397
 30
0.0
 10
230.4927958090333
 20
180.4509465734199
 30
0.0
 10
232.9927958090333
 20
180.4509465734199
 30
0.0
340
24ED
213
0.6250000000000285
223
-0.1753245211093031
233
0.0
1001
ACAD
1000
DSTYLE
1002
{
1070
   147
1040
0.625
1070
    77
1070
     1
1002
}
  0
MTEXT
  5
24ED
102
{ACAD_REACTORS
330
24EC
102
}
330
1F
100
AcDbEntity
  8
SOLBET_Wymiary_Opisy
100
AcDbMText
 10
252.4927958090333
 20
184.5012710945292
 30
0.0
 40
2.5
 41
0.0
 71
     3
 72
     1
  1
Strop Teriva
  7
Solbet_2_5
 73
     1
 44
1.0
1001
ACAD
1000
MTEXTBEGIN
1070
    73
1070
     1
1070
    44
1040
1.0
1070
    74
1070
     0
1000
MTEXTEND
  0
MTEXT
  5
24F5
102
{ACAD_XDICTIONARY
360
2854
102
}
330
1F
100
AcDbEntity
  8
SOLBET_Wymiary_Opisy
100
AcDbMText
 10
66.86455617782008
 20
148.5228093459244
 30
0.0
 40
5.0
 41
30.77919768571883
 71
     1
 72
     5
  1
\pxqc;A\P(3 : 1)
  7
Solbet_5
 73
     1
 44
1.0
1001
ACAD
1000
MTEXTBEGIN
1070
    73
1070
     1
1070
    44
1040
1.0
1070
    74
1070
     0
1000
MTEXTEND
1000
ACAD_MTEXT_DEFINED_HEIGHT_BEGIN
1070
    46
1040
23.42535011036716
1000
ACAD_MTEXT_DEFINED_HEIGHT_END
  0
LINE
  5
25E9
330
1F
100
AcDbEntity
  8
SOLBET_Tynki_Posadzki
100
AcDbLine
 10
152.5422469583403
 20
180.4293282601966
 30
0.0
 11
174.7922469583257
 21
180.4293282601966
 31
0.0
  0
LINE
  5
263B
330
1F
100
AcDbEntity
  8
SOLBET_Tynki_Posadzki
100
AcDbLine
 10
152.442246958349
 20
216.7976330679419
 30
0.0
 11
152.442246958349
 21
211.0469029406688
 31
0.0
  0
INSERT
  5
277A
330
1F
100
AcDbEntity
  8
SOLBET_Wymiary_Opisy
100
AcDbBlockReference
  2
_DotSmall
 10
83.01085680311894
 20
101.6591891441952
 30
0.0
 41
2.5
 42
2.5
 43
2.5
 50
331.3216845155597
1001
ACAD
1000
DSTYLE
1002
{
1070
   147
1040
0.625
1070
    77
1070
     1
1002
}
  0
LWPOLYLINE
  5
277B
330
1F
100
AcDbEntity
  8
SOLBET_Wymiary_Opisy
100
AcDbPolyline
 90
        3
 70
     0
 43
0.0
 10
83.01085680311894
 20
101.6591891441952
 10
54.14087358198617
 20
117.4508448629316
 10
29.78557835924926
 20
117.4508448629316
1001
ACAD
1000
DSTYLE
1002
{
1070
   147
1040
0.625
1070
    77
1070
     1
1002
}
  0
LINE
  5
27A0
330
1F
100
AcDbEntity
  8
SOLBET_Zbrojenie_Konstrukcja
100
AcDbLine
 10
160.502736000429
 20
204.8944239397602
 30
0.0
 11
170.2811327984357
 21
204.8944239397518
 31
0.0
  0
TEXT
  5
27B1
330
1F
100
AcDbEntity
  8
SOLBET_Wymiary_Opisy
100
AcDbText
 10
133.5878014830953
 20
44.65883394083565
 30
0.0
 40
2.5
  1
Siatka z klejem SOLBET Gabit T
  7
Solbet_2_5
100
AcDbText
  0
TEXT
  5
27B2
330
1F
100
AcDbEntity
  8
SOLBET_Wymiary_Opisy
100
AcDbText
 10
134.0445196366611
 20
40.49216727416899
 30
0.0
 40
2.5
  1
jeżeli wymagane
  7
Solbet_2_5
100
AcDbText
  0
LINE
  5
27B9
330
1F
100
AcDbEntity
  8
SOLBET_Wymiary_Opisy
100
AcDbLine
 10
132.8403702628964
 20
38.92986480775869
 30
0.0
 11
183.6819364599951
 21
38.92986480775869
 31
0.0
  0
INSERT
  5
2894
330
1F
100
AcDbEntity
  8
SOLBET_Bloczki
100
AcDbBlockReference
  2
SOLBET_Ksztaltka_U_420x240x500_PRA
 10
153.1466502277335
 20
192.6976342385121
 30
0.0
 50
270.0
  0
INSERT
  5
28A8
330
1F
100
AcDbEntity
  8
SOLBET_Bloczki
100
AcDbBlockReference
  2
SOLBET_Bloczek_Ideal_420x240x590_P+W_KG400_PRA
 10
153.2922470990896
 20
204.6976332720845
 30
0.0
  0
MTEXT
  5
28EF
102
{ACAD_XDICTIONARY
360
28F0
102
}
330
1F
100
AcDbEntity
  8
SOLBET_Wymiary_Opisy
100
AcDbMText
 10
300.6340537472843
 20
7.913446451800723
 30
0.0
 40
5.0
 41
0.0
 71
     1
 72
     5
  1
Skala 1:20
  7
Solbet_5
 73
     1
 44
1.0
1001
ACAD
1000
MTEXTBEGIN
1070
    73
1070
     1
1070
    44
1040
1.0
1070
    74
1070
     0
1000
MTEXTEND
1000
ACAD_MTEXT_DEFINED_HEIGHT_BEGIN
1070
    46
1040
5.395147572682731
1000
ACAD_MTEXT_DEFINED_HEIGHT_END
  0
LWPOLYLINE
  5
28F2
330
1F
100
AcDbEntity
  8
SOLBET_Ramka_05
100
AcDbPolyline
 90
        4
 70
     1
 43
0.0
 10
297.6153876263704
 20
10.44451711532065
 10
333.7315645137926
 20
10.44451711532065
 10
333.7315645137926
 20
0.6402959163851847
 10
297.6153876263705
 20
0.6402959163851847
  0
ENDSEC
  0
SECTION
  2
OBJECTS
  0
DICTIONARY
  5
C
330
0
100
AcDbDictionary
281
     1
  3
ACAD_COLOR
350
6B
  3
ACAD_GROUP
350
D
  3
ACAD_LAYOUT
350
1A
  3
ACAD_MATERIAL
350
6A
  3
ACAD_MLEADERSTYLE
350
12D
  3
ACAD_MLINESTYLE
350
17
  3
ACAD_PLOTSETTINGS
350
19
  3
ACAD_PLOTSTYLENAME
350
E
  3
ACAD_SCALELIST
350
10C
  3
ACAD_TABLESTYLE
350
7E
  3
ACAD_VISUALSTYLE
350
EF
  3
ACDB_RECOMPOSE_DATA
350
15D
  3
AcDbVariableDictionary
350
5E
  3
DWGPROPS
350
292B
  0
DICTIONARY
  5
443
330
8
100
AcDbDictionary
280
     1
281
     1
  0
DICTIONARY
  5
3E5
330
2
100
AcDbDictionary
280
     1
281
     1
  3
ACAD_LAYERFILTERS
360
1883
  3
ACLYDICTIONARY
360
1882
  0
DICTIONARY
  5
13C
330
10
100
AcDbDictionary
280
     1
281
     1
  3
ADSK_XREC_LAYER_RECONCILED
360
3F4
  0
DICTIONARY
  5
403
330
3DD
100
AcDbDictionary
280
     1
281
     1
  3
ADSK_XREC_LAYER_RECONCILED
360
404
  0
DICTIONARY
  5
405
330
3DF
100
AcDbDictionary
280
     1
281
     1
  3
ADSK_XREC_LAYER_RECONCILED
360
406
  0
DICTIONARY
  5
407
330
3E0
100
AcDbDictionary
280
     1
281
     1
  3
ADSK_XREC_LAYER_RECONCILED
360
408
  0
DICTIONARY
  5
409
330
3E1
100
AcDbDictionary
280
     1
281
     1
  3
ADSK_XREC_LAYER_RECONCILED
360
40A
  0
DICTIONARY
  5
40B
330
3E2
100
AcDbDictionary
280
     1
281
     1
  3
ADSK_XREC_LAYER_RECONCILED
360
40C
  0
DICTIONARY
  5
40F
330
3E4
100
AcDbDictionary
280
     1
281
     1
  3
ADSK_XREC_LAYER_RECONCILED
360
410
  0
DICTIONARY
  5
411
330
3E8
100
AcDbDictionary
280
     1
281
     1
  3
ADSK_XREC_LAYER_RECONCILED
360
412
  0
DICTIONARY
  5
2850
330
284F
100
AcDbDictionary
280
     1
281
     1
  3
ASDK_XREC_ANNO_SCALE_INFO
360
2851
  0
DICTIONARY
  5
4A3
330
1F
100
AcDbDictionary
280
     1
281
     1
  3
ACAD_SORTENTS
360
4A4
  0
DICTIONARY
  5
237A
330
236C
100
AcDbDictionary
280
     1
281
     1
  3
ACAD_SORTENTS
360
237B
  0
DICTIONARY
  5
238B
330
237F
100
AcDbDictionary
280
     1
281
     1
  3
ACAD_SORTENTS
360
238C
  0
DICTIONARY
  5
28A4
330
2898
100
AcDbDictionary
280
     1
281
     1
  3
ACAD_SORTENTS
360
28A5
  0
DICTIONARY
  5
2338
330
2337
100
AcDbDictionary
280
     1
281
     1
  3
ACAD_MTEXT_RT
360
2938
  3
AcDbContextDataManager
360
2339
  0
DICTIONARY
  5
2939
330
2369
100
AcDbDictionary
280
     1
281
     1
  3
ACAD_XREC_ROUNDTRIP
360
293A
  0
DICTIONARY
  5
293B
330
248D
100
AcDbDictionary
280
     1
281
     1
  3
ACAD_MTEXT_RT
360
293C
  0
DICTIONARY
  5
293D
330
248F
100
AcDbDictionary
280
     1
281
     1
  3
ACAD_MTEXT_RT
360
293E
  0
DICTIONARY
  5
293F
330
2493
100
AcDbDictionary
280
     1
281
     1
  3
ACAD_MTEXT_RT
360
2940
  0
DICTIONARY
  5
2941
330
2495
100
AcDbDictionary
280
     1
281
     1
  3
ACAD_MTEXT_RT
360
2942
  0
DICTIONARY
  5
2943
330
2497
100
AcDbDictionary
280
     1
281
     1
  3
ACAD_MTEXT_RT
360
2944
  0
DICTIONARY
  5
2945
330
249D
100
AcDbDictionary
280
     1
281
     1
  3
ACAD_MTEXT_RT
360
2946
  0
DICTIONARY
  5
2947
330
24CC
100
AcDbDictionary
280
     1
281
     1
  3
ACAD_MTEXT_RT
360
2948
  0
DICTIONARY
  5
2949
330
24D2
100
AcDbDictionary
280
     1
281
     1
  3
ACAD_MTEXT_RT
360
294A
  0
DICTIONARY
  5
2852
330
24D3
100
AcDbDictionary
280
     1
281
     1
  3
ACAD_MTEXT_2008_RT
360
2853
  0
DICTIONARY
  5
294B
330
24E9
100
AcDbDictionary
280
     1
281
     1
  3
ACAD_MTEXT_RT
360
294C
  0
DICTIONARY
  5
2854
330
24F5
100
AcDbDictionary
280
     1
281
     1
  3
ACAD_MTEXT_2008_RT
360
2855
  0
DICTIONARY
  5
28F0
330
28EF
100
AcDbDictionary
280
     1
281
     1
  3
ACAD_MTEXT_2008_RT
360
28F1
  0
DICTIONARY
  5
6B
102
{ACAD_REACTORS
330
C
102
}
330
C
100
AcDbDictionary
281
     1
  0
DICTIONARY
  5
D
102
{ACAD_REACTORS
330
C
102
}
330
C
100
AcDbDictionary
281
     1
  0
DICTIONARY
  5
1A
102
{ACAD_REACTORS
330
C
102
}
330
C
100
AcDbDictionary
281
     1
  3
Arkusz1
350
D3
  3
Arkusz2
350
D7
  3
Model
350
22
  0
DICTIONARY
  5
6A
102
{ACAD_REACTORS
330
C
102
}
330
C
100
AcDbDictionary
281
     1
  3
ByBlock
350
ED
  3
ByLayer
350
EC
  3
Global
350
EE
  0
DICTIONARY
  5
12D
102
{ACAD_REACTORS
330
C
102
}
330
C
100
AcDbDictionary
281
     1
  3
Standard
350
12E
  0
DICTIONARY
  5
17
102
{ACAD_REACTORS
330
C
102
}
330
C
100
AcDbDictionary
281
     1
  3
SOLBET_IZOLACJA
350
7E9
  3
Standard
350
18
  0
DICTIONARY
  5
19
102
{ACAD_REACTORS
330
C
102
}
330
C
100
AcDbDictionary
281
     1
  0
ACDBDICTIONARYWDFLT
  5
E
102
{ACAD_REACTORS
330
C
102
}
330
C
100
AcDbDictionary
281
     1
  3
Normal
350
F
100
AcDbDictionaryWithDefault
340
F
  0
DICTIONARY
  5
10C
102
{ACAD_REACTORS
330
C
102
}
330
C
100
AcDbDictionary
281
     1
  3
A0
350
10D
  3
A1
350
188
  3
A2
350
189
  3
A3
350
18A
  3
A4
350
18B
  3
A5
350
18C
  3
A6
350
18D
  3
A7
350
18E
  3
A8
350
18F
  3
A9
350
190
  3
B0
350
191
  3
B1
350
192
  3
B2
350
193
  3
B3
350
194
  3
B4
350
195
  3
B5
350
196
  3
B6
350
197
  3
B7
350
198
  3
B8
350
199
  3
B9
350
19A
  3
C0
350
19B
  3
C1
350
19C
  3
C2
350
19D
  3
C3
350
19E
  3
C4
350
19F
  3
C5
350
1A0
  3
C6
350
1A1
  3
C7
350
1A2
  3
C8
350
1A3
  3
C9
350
1A4
  3
D0
350
1A5
  3
D1
350
1A6
  3
D2
350
1A7
  0
DICTIONARY
  5
7E
102
{ACAD_REACTORS
330
C
102
}
330
C
100
AcDbDictionary
281
     1
  3
Standard
350
7F
  0
DICTIONARY
  5
EF
102
{ACAD_REACTORS
330
C
102
}
330
C
100
AcDbDictionary
281
     1
  3
2dWireframe
350
F5
  3
3D Hidden
350
F7
  3
3dWireframe
350
F6
  3
Basic
350
F4
  3
Brighten
350
FB
  3
ColorChange
350
FF
  3
Conceptual
350
F8
  3
Dim
350
FA
  3
Facepattern
350
FE
  3
Flat
350
F0
  3
FlatWithEdges
350
F1
  3
Gouraud
350
F2
  3
GouraudWithEdges
350
F3
  3
Linepattern
350
FD
  3
Realistic
350
F9
  3
Thicken
350
FC
  0
XRECORD
  5
15D
102
{ACAD_REACTORS
330
C
102
}
330
C
100
AcDbXrecord
280
     1
 90
        1
330
7F
330
2337
330
24D3
330
24F5
  0
DICTIONARY
  5
5E
102
{ACAD_REACTORS
330
C
102
}
330
C
100
AcDbDictionary
281
     1
  3
CANNOSCALE
350
146
  3
CMLEADERSTYLE
350
145
  3
CTABLESTYLE
350
84
  3
DIMASSOC
350
5F
  3
HIDETEXT
350
63
  3
INDEXCTL
350
466
  3
LIGHTINGUNITS
350
464
  3
MSLTSCALE
350
463
  3
PSOLHEIGHT
350
292A
  3
PSOLWIDTH
350
2929
  3
SORTENTS
350
465
  0
XRECORD
  5
292B
102
{ACAD_REACTORS
330
C
102
}
330
C
100
AcDbXrecord
280
     1
  1
DWGPROPS COOKIE
  2

  3

  4

  6

  7

  8
Olus
  9

300
=
301
=
302
=
303
=
304
=
305
=
306
=
307
=
308
=
309
=
 40
0.4598015393518519
 41
2454690.075573148
 42
2454848.881443414
  1

 90
        0
  0
DICTIONARY
  5
1883
102
{ACAD_REACTORS
330
3E5
102
}
330
3E5
100
AcDbDictionary
281
     1
  0
DICTIONARY
  5
1882
102
{ACAD_REACTORS
330
3E5
102
}
330
3E5
100
AcDbDictionary
281
     1
1001
ACAD
1000
<All
  0
XRECORD
  5
3F4
102
{ACAD_REACTORS
330
13C
102
}
330
13C
100
AcDbXrecord
280
     1
290
     1
  0
XRECORD
  5
404
102
{ACAD_REACTORS
330
403
102
}
330
403
100
AcDbXrecord
280
     1
290
     1
  0
XRECORD
  5
406
102
{ACAD_REACTORS
330
405
102
}
330
405
100
AcDbXrecord
280
     1
290
     1
  0
XRECORD
  5
408
102
{ACAD_REACTORS
330
407
102
}
330
407
100
AcDbXrecord
280
     1
290
     1
  0
XRECORD
  5
40A
102
{ACAD_REACTORS
330
409
102
}
330
409
100
AcDbXrecord
280
     1
290
     1
  0
XRECORD
  5
40C
102
{ACAD_REACTORS
330
40B
102
}
330
40B
100
AcDbXrecord
280
     1
290
     1
  0
XRECORD
  5
410
102
{ACAD_REACTORS
330
40F
102
}
330
40F
100
AcDbXrecord
280
     1
290
     1
  0
XRECORD
  5
412
102
{ACAD_REACTORS
330
411
102
}
330
411
100
AcDbXrecord
280
     1
290
     1
  0
XRECORD
  5
2851
102
{ACAD_REACTORS
330
2850
102
}
330
2850
100
AcDbXrecord
280
     1
 70
     1
340
10D
340
3DF
 70
    -1
  0
SORTENTSTABLE
  5
4A4
102
{ACAD_REACTORS
330
4A3
102
}
330
4A3
100
AcDbSortentsTable
330
1F
331
24EB
  5
25E9
331
243D
  5
243D
331
2301
  5
2337
331
22C2
  5
22DC
331
2494
  5
2496
331
2445
  5
2445
331
23DE
  5
23DC
331
249C
  5
24A0
331
244D
  5
244D
331
2350
  5
22E7
331
22D2
  5
2300
331
23E6
  5
23E4
331
23EE
  5
23EA
331
226E
  5
226F
331
2358
  5
22EF
331
22DA
  5
2308
331
2293
  5
22AB
331
2311
  5
235A
331
24CC
  5
24D0
331
2455
  5
2455
331
2360
  5
22F7
331
22A3
  5
22BB
331
22E2
  5
2310
331
2319
  5
2368
331
2406
  5
2404
331
24D4
  5
24D8
331
245D
  5
245D
331
239F
  5
2282
331
2321
  5
239F
331
240E
  5
240C
331
24DC
  5
24E0
331
2465
  5
2465
331
22B3
  5
22CD
331
23A7
  5
228E
331
24E4
  5
24E8
331
246D
  5
246D
331
2426
  5
2426
331
23AF
  5
2296
331
22FA
  5
2328
331
24EC
  5
263B
331
248D
  5
248F
331
2302
  5
234C
331
22C3
  5
22DD
331
2495
  5
2497
331
2446
  5
2446
331
23DF
  5
23DD
331
249D
  5
24A1
331
244E
  5
244E
331
2351
  5
22E8
331
22D3
  5
2301
331
23E7
  5
23E5
331
27A0
  5
27B2
331
2267
  5
2268
331
226F
  5
2270
331
2359
  5
22F0
331
22DB
  5
2309
331
2294
  5
22AC
331
2312
  5
235B
331
24CD
  5
24D1
331
2456
  5
2456
331
2361
  5
22F8
331
22A4
  5
22BC
331
22E3
  5
2311
331
231A
  5
2369
331
2407
  5
2405
331
24D5
  5
24D9
331
245E
  5
245E
331
23A0
  5
2283
331
2369
  5
22BE
331
2322
  5
23A0
331
240F
  5
240D
331
24DD
  5
24E1
331
23A8
  5
228F
331
24E5
  5
24E9
331
2427
  5
2427
331
227F
  5
229A
331
23B0
  5
2297
331
22FB
  5
2329
331
24ED
  5
277A
331
248E
  5
2490
331
243F
  5
243F
331
2303
  5
234D
331
22C4
  5
22DE
331
24F5
  5
277B
331
2496
  5
2498
331
230B
  5
2354
331
22CC
  5
22FA
331
23E0
  5
23DE
331
249E
  5
24CB
331
244F
  5
244F
331
23E8
  5
23E6
331
2352
  5
22E9
331
22D4
  5
2302
331
2268
  5
2269
331
2270
  5
2271
331
235A
  5
22F1
331
22DC
  5
230A
331
2313
  5
235C
331
24CE
  5
24D2
331
2457
  5
2457
331
22E4
  5
2312
331
231B
  5
237E
331
2408
  5
2406
331
24D6
  5
24DA
331
245F
  5
245F
331
23A1
  5
2284
331
22EC
  5
231A
331
2323
  5
23A1
331
2410
  5
240E
331
24DE
  5
24E2
331
23A9
  5
2290
331
22B5
  5
22CF
331
24E6
  5
24EA
331
27B1
  5
249C
331
2438
  5
2438
331
23B1
  5
2298
331
22BD
  5
22D8
331
248F
  5
2491
331
2440
  5
2440
331
2304
  5
234E
331
22C5
  5
22DF
331
2497
  5
2499
331
2448
  5
2448
331
230C
  5
2355
331
22CD
  5
22FB
331
23E1
  5
23DF
331
249F
  5
24CC
331
23E9
  5
23E7
331
2353
  5
22EA
331
22D5
  5
2303
331
277A
  5
248D
331
2261
  5
2262
331
2269
  5
226A
331
2271
  5
2272
331
2450
  5
2450
331
235B
  5
22F2
331
22DD
  5
230B
331
2296
  5
22AF
331
2314
  5
235D
331
2392
  5
23AF
331
24CF
  5
24D3
331
2458
  5
2458
331
22A6
  5
22BF
331
22E5
  5
2313
331
231C
  5
238F
331
2409
  5
2407
331
24D7
  5
24DB
331
2460
  5
2460
331
2411
  5
6FB
331
23A2
  5
2289
331
22AE
  5
22C7
331
22ED
  5
231B
331
2324
  5
23A2
331
24DF
  5
24E3
331
23AA
  5
2291
331
22B6
  5
22D0
331
24E7
  5
24EB
331
27B2
  5
249D
331
2279
  5
2279
331
2281
  5
229C
331
2289
  5
22A0
331
2439
  5
2439
331
23B2
  5
2299
331
2490
  5
2492
331
2305
  5
234F
331
22C6
  5
22E0
331
2498
  5
249A
331
2449
  5
2449
331
23E2
  5
23E0
331
230D
  5
2356
331
22CE
  5
22FC
331
234C
  5
22E3
331
24A0
  5
24CD
331
2354
  5
22EB
331
263B
  5
27B1
331
277B
  5
248E
331
2262
  5
2263
331
226A
  5
226C
331
2451
  5
2451
331
235C
  5
22F3
331
22DE
  5
230C
331
2315
  5
235E
331
24D0
  5
24D4
331
2459
  5
2459
331
22E6
  5
2314
331
231D
  5
2392
331
240A
  5
2408
331
24D8
  5
24DC
331
2461
  5
2461
331
23A3
  5
228A
331
22AF
  5
22C8
331
24E0
  5
24E4
331
2422
  5
2422
331
23AB
  5
2292
331
22F6
  5
2324
331
22B7
  5
22D1
331
227A
  5
227A
331
2282
  5
229D
331
228A
  5
22A1
331
24E8
  5
24EC
331
243A
  5
243A
331
2491
  5
2493
331
23DB
  5
23B0
331
2306
  5
23AE
331
22C7
  5
22E1
331
244A
  5
244A
331
23E3
  5
23E1
331
230E
  5
2357
331
22CF
  5
22FD
331
234D
  5
22E4
331
24A1
  5
24CE
331
2355
  5
22EC
331
22D7
  5
2305
331
2263
  5
2264
331
2273
  5
2274
331
2452
  5
2452
331
235D
  5
22F4
331
22A0
  5
22B8
331
22DF
  5
230D
331
2403
  5
2401
331
24D1
  5
24D5
331
245A
  5
245A
331
239C
  5
227F
331
22A8
  5
22C1
331
22E7
  5
2315
331
231E
  5
239C
331
240B
  5
2409
331
24D9
  5
24DD
331
2462
  5
2462
331
23A4
  5
228B
331
22EF
  5
231D
331
2413
  5
240F
331
24E1
  5
24E5
331
246A
  5
246A
331
2423
  5
2423
331
23AC
  5
2293
331
232E
  5
23AC
331
227B
  5
227B
331
2283
  5
229E
331
24E9
  5
24ED
331
248A
  5
248A
331
243B
  5
243B
331
22FF
  5
232D
331
23B4
  5
23B1
331
2492
  5
2494
331
2443
  5
2443
331
23DC
  5
23B2
331
2307
  5
2350
331
22C8
  5
2413
331
25E9
  5
27A0
331
249A
  5
249E
331
244B
  5
244B
331
230F
  5
2358
331
22D0
  5
22FE
331
23E4
  5
23E2
331
2356
  5
22ED
331
2274
  5
23DA
331
22D8
  5
2306
331
2291
  5
22AA
331
2453
  5
2453
331
22A1
  5
22B9
331
22E0
  5
230E
331
2317
  5
2360
331
2404
  5
2402
331
24D2
  5
24D6
331
245B
  5
245B
331
239D
  5
2280
331
231F
  5
239D
331
240C
  5
240A
331
24DA
  5
24DE
331
22F0
  5
231E
331
22B1
  5
22CB
331
23A5
  5
228C
331
24E2
  5
24E6
331
246B
  5
246B
331
2424
  5
2424
331
23AD
  5
2294
331
227C
  5
227C
331
228C
  5
22A3
331
24EA
  5
24F5
331
248B
  5
248B
331
2300
  5
232E
331
22C1
  5
22DB
331
2337
  5
23AD
331
2493
  5
2495
331
2444
  5
2444
331
23DD
  5
23DB
331
249B
  5
249F
331
244C
  5
244C
331
23E5
  5
23E3
331
22D1
  5
22FF
331
234F
  5
22E6
331
23ED
  5
23E9
331
2357
  5
22EE
331
2265
  5
2266
331
2275
  5
2275
331
22D9
  5
2307
331
2310
  5
2359
331
24CB
  5
24CF
331
2454
  5
2454
331
22A2
  5
22BA
331
22E1
  5
230F
331
2318
  5
2361
331
2405
  5
2403
331
24D3
  5
24D7
331
245C
  5
245C
331
239E
  5
2281
331
2320
  5
239E
331
240D
  5
240B
331
24DB
  5
24DF
331
2464
  5
2464
331
22F1
  5
231F
331
22B2
  5
22CC
331
23A6
  5
228D
331
2415
  5
2411
331
24E3
  5
24E7
331
246C
  5
246C
331
2425
  5
2425
331
23AE
  5
2295
331
227D
  5
227D
331
228D
  5
22A4
  0
SORTENTSTABLE
  5
237B
102
{ACAD_REACTORS
330
237A
102
}
330
237A
100
AcDbSortentsTable
330
236C
  0
SORTENTSTABLE
  5
238C
102
{ACAD_REACTORS
330
238B
102
}
330
238B
100
AcDbSortentsTable
330
237F
  0
SORTENTSTABLE
  5
28A5
102
{ACAD_REACTORS
330
28A4
102
}
330
28A4
100
AcDbSortentsTable
330
2898
  0
XRECORD
  5
2938
102
{ACAD_REACTORS
330
2338
102
}
330
2338
100
AcDbXrecord
280
     1
 40
815207.0
  1
{\LDETAL 81\P}Balkon wystawiony ze stropu Teriva  równolegle do belek, z wykonaniem docieplenia w trakcie wylewania płyty
  0
DICTIONARY
  5
2339
102
{ACAD_REACTORS
330
2338
102
}
330
2338
100
AcDbDictionary
281
     1
  3
ACDB_ANNOTATIONSCALES
350
233A
  0
XRECORD
  5
293A
102
{ACAD_REACTORS
330
2939
102
}
330
2939
100
AcDbXrecord
280
     1
102
Gradient1
1004
7B0000000200000001000000000000000000000000000000000000000000000001000000000000000000F03F0200000000000000000000001800000001000000FFFFFFC2000000000000000000000000000000000000F03F1800000001000000FFFFFFC2000000000000000000000000070000004C494E45415200
  0
XRECORD
  5
293C
102
{ACAD_REACTORS
330
293B
102
}
330
293B
100
AcDbXrecord
280
     1
 40
43738.0
  1
Zaprawa klejowa ^JSOLBET Gabit T
  0
XRECORD
  5
293E
102
{ACAD_REACTORS
330
293D
102
}
330
293D
100
AcDbXrecord
280
     1
 40
30000.0
  1
Warstwa wyrównawcza
  0
XRECORD
  5
2940
102
{ACAD_REACTORS
330
293F
102
}
330
293F
100
AcDbXrecord
280
     1
 40
88029.0
  1
Izolacja termiczna ^Jna kleju SOLBET Gabit T-1
  0
XRECORD
  5
2942
102
{ACAD_REACTORS
330
2941
102
}
330
2941
100
AcDbXrecord
280
     1
 40
22046.0
  1
Płyta balkonowa
  0
XRECORD
  5
2944
102
{ACAD_REACTORS
330
2943
102
}
330
2943
100
AcDbXrecord
280
     1
 40
88029.0
  1
Izolacja termiczna ^Jna kleju SOLBET Gabit T-1
  0
XRECORD
  5
2946
102
{ACAD_REACTORS
330
2945
102
}
330
2945
100
AcDbXrecord
280
     1
 40
49695.0
  1
Zbrojenie płyty balkonowej
  0
XRECORD
  5
2948
102
{ACAD_REACTORS
330
2947
102
}
330
2947
100
AcDbXrecord
280
     1
 40
34960.0
  1
Warstwa wykończeniowa
  0
XRECORD
  5
294A
102
{ACAD_REACTORS
330
2949
102
}
330
2949
100
AcDbXrecord
280
     1
 40
42625.0
  1
Płyty izolacyjne twarde
  0
XRECORD
  5
2853
102
{ACAD_REACTORS
330
2852
102
}
330
2852
100
AcDbXrecord
280
     1
 40
24757.0
  1
\pxqc;B\P(5 : 1)
  0
XRECORD
  5
294C
102
{ACAD_REACTORS
330
294B
102
}
330
294B
100
AcDbXrecord
280
     1
 40
68264.0
  1
Zbrojenie w żebrze rozdzielczym
  0
XRECORD
  5
2855
102
{ACAD_REACTORS
330
2854
102
}
330
2854
100
AcDbXrecord
280
     1
 40
24645.0
  1
\pxqc;A\P(3 : 1)
  0
XRECORD
  5
28F1
102
{ACAD_REACTORS
330
28F0
102
}
330
28F0
100
AcDbXrecord
280
     1
 40
24748.0
  1
\pxqc;C\P(5 : 1)
  0
LAYOUT
  5
D3
102
{ACAD_XDICTIONARY
360
292F
102
}
102
{ACAD_REACTORS
330
1A
102
}
330
1A
100
AcDbPlotSettings
  1

  2
C:\Documents and Settings\basas\Application Data\Autodesk\AutoCAD 2005\R16.1\enu\plotters\Default Windows System Printer.pc3
  4

  6

 40
0.0
 41
0.0
 42
0.0
 43
0.0
 44
0.0
 45
0.0
 46
0.0
 47
0.0
 48
0.0
 49
0.0
140
0.0
141
0.0
142
1.0
143
1.0
 70
   688
 72
     0
 73
     0
 74
     5
  7

 75
    16
147
1.0
148
0.0
149
0.0
100
AcDbLayout
  1
Arkusz1
 70
     1
 71
     1
 10
0.0
 20
0.0
 11
12.0
 21
9.0
 12
0.0
 22
0.0
 32
0.0
 14
0.0
 24
0.0
 34
0.0
 15
0.0
 25
0.0
 35
0.0
146
0.0
 13
0.0
 23
0.0
 33
0.0
 16
1.0
 26
0.0
 36
0.0
 17
0.0
 27
1.0
 37
0.0
 76
     0
330
D2
  0
LAYOUT
  5
D7
102
{ACAD_XDICTIONARY
360
2931
102
}
102
{ACAD_REACTORS
330
1A
102
}
330
1A
100
AcDbPlotSettings
  1

  2
C:\Documents and Settings\basas\Application Data\Autodesk\AutoCAD 2005\R16.1\enu\plotters\Default Windows System Printer.pc3
  4

  6

 40
0.0
 41
0.0
 42
0.0
 43
0.0
 44
0.0
 45
0.0
 46
0.0
 47
0.0
 48
0.0
 49
0.0
140
0.0
141
0.0
142
1.0
143
1.0
 70
   688
 72
     0
 73
     0
 74
     5
  7

 75
    16
147
1.0
148
0.0
149
0.0
100
AcDbLayout
  1
Arkusz2
 70
     1
 71
     2
 10
0.0
 20
0.0
 11
12.0
 21
9.0
 12
0.0
 22
0.0
 32
0.0
 14
0.0
 24
0.0
 34
0.0
 15
0.0
 25
0.0
 35
0.0
146
0.0
 13
0.0
 23
0.0
 33
0.0
 16
1.0
 26
0.0
 36
0.0
 17
0.0
 27
1.0
 37
0.0
 76
     0
330
D6
  0
LAYOUT
  5
22
102
{ACAD_XDICTIONARY
360
292C
102
}
102
{ACAD_REACTORS
330
1A
102
}
330
1A
100
AcDbPlotSettings
  1

  2
none_device
  4
Letter_(8.50_x_11.00_Inches)
  6

 40
6.349999904632568
 41
6.349999904632568
 42
6.350006103515625
 43
6.350006103515625
 44
215.8999938964844
 45
279.3999938964844
 46
11.54999923706054
 47
-13.65000009536743
 48
0.0
 49
0.0
140
210.0
141
297.0
142
1.0
143
1.0
 70
 11936
 72
     1
 73
     0
 74
     4
  7

 75
     0
147
0.9999999999999998
148
0.0
149
0.0
100
AcDbLayout
  1
Model
 70
     1
 71
     0
 10
0.0
 20
0.0
 11
12.0
 21
9.0
 12
0.0
 22
0.0
 32
0.0
 14
0.0
 24
0.0
 34
0.0
 15
0.0
 25
0.0
 35
0.0
146
0.0
 13
0.0
 23
0.0
 33
0.0
 16
1.0
 26
0.0
 36
0.0
 17
0.0
 27
1.0
 37
0.0
 76
     0
330
1F
331
EA
1001
ACAD_PSEXT
1000
Brak
1000
Brak
1000
Nie można zastosować.
1000
Arkusz nie zostanie wydrukowany dopóki nie wybrano konfiguracji plotera.
1070
     0
  0
MATERIAL
  5
ED
102
{ACAD_XDICTIONARY
360
2935
102
}
102
{ACAD_REACTORS
330
6A
102
}
330
6A
100
AcDbMaterial
  1
ByBlock
 73
     2
 78
     2
172
     2
176
     2
270
     2
274
     2
  0
MATERIAL
  5
EC
102
{ACAD_XDICTIONARY
360
2933
102
}
102
{ACAD_REACTORS
330
6A
102
}
330
6A
100
AcDbMaterial
  1
ByLayer
 73
     2
 78
     2
172
     2
176
     2
270
     2
274
     2
  0
MATERIAL
  5
EE
102
{ACAD_XDICTIONARY
360
173
102
}
102
{ACAD_REACTORS
330
6A
102
}
330
6A
100
AcDbMaterial
  1
Global
 73
     2
 43
0.0007999999797903
 43
0.0
 43
0.0
 43
0.0
 43
0.0
 43
0.0007999999797903
 43
0.0
 43
0.0
 43
0.0
 43
0.0
 43
1.0
 43
0.0
 43
0.0
 43
0.0
 43
0.0
 43
1.0
 78
     2
172
     2
 49
0.0007999999797903
 49
0.0
 49
0.0
 49
0.0
 49
0.0
 49
0.0007999999797903
 49
0.0
 49
0.0
 49
0.0
 49
0.0
 49
1.0
 49
0.0
 49
0.0
 49
0.0
 49
0.0
 49
1.0
176
     2
142
0.0007999999797903
142
0.0
142
0.0
142
0.0
142
0.0
142
0.0007999999797903
142
0.0
142
0.0
142
0.0
142
0.0
142
1.0
142
0.0
142
0.0
142
0.0
142
0.0
142
1.0
270
     2
144
0.0007999999797903
144
0.0
144
0.0
144
0.0
144
0.0
144
0.0007999999797903
144
0.0
144
0.0
144
0.0
144
0.0
144
1.0
144
0.0
144
0.0
144
0.0
144
0.0
144
1.0
274
     2
1001
ACAD
1070
    -1
1070
     3
1070
     0
1000

1071
        0
1070
     0
  0
ACAD_PROXY_OBJECT
  5
12E
102
{ACAD_REACTORS
330
12D
102
}
330
12D
100
AcDbProxyObject
 90
      499
 91
      508
 95
       23
 70
     0
 93
      618
310
40901902A4063FBFFFFFE0000000000000020400000000000020404254DD185B99185C99000000000000000104090140501A0000000000000410000000000000004102576400000000000003903F
340
14
340
0
340
11
340
0
 94
        0
1001
ACAD_MLEADERVER
1070
     2
1001
ACAD
1000
AcRTDxfName
1000
MLEADERSTYLE
1000
AcRTDxfName
1000
MLEADERSTYLE
  0
MLINESTYLE
  5
7E9
102
{ACAD_REACTORS
330
17
102
}
330
17
100
AcDbMlineStyle
  2
SOLBET_IZOLACJA
 70
   272
  3

 62
   256
 51
90.0
 52
90.0
 71
     2
 49
0.008
 62
   256
  6
BYLAYER
 49
-0.008
 62
   256
  6
BYLAYER
  0
MLINESTYLE
  5
18
102
{ACAD_REACTORS
330
17
102
}
330
17
100
AcDbMlineStyle
  2
STANDARD
 70
     0
  3

 62
   256
 51
90.0
 52
90.0
 71
     2
 49
0.5
 62
   256
  6
BYLAYER
 49
-0.5
 62
   256
  6
BYLAYER
  0
ACDBPLACEHOLDER
  5
F
102
{ACAD_REACTORS
330
E
102
}
330
E
  0
ACAD_PROXY_OBJECT
  5
10D
102
{ACAD_REACTORS
330
10C
102
}
330
10C
100
AcDbProxyObject
 90
      499
 91
      507
 95
       23
 70
     0
 93
       49
310
904313A31005FF
 94
        0
1001
ACAD
1000
AcRTDxfName
1000
SCALE
1000
AcRTDxfName
1000
SCALE
  0
ACAD_PROXY_OBJECT
  5
188
102
{ACAD_REACTORS
330
10C
102
}
330
10C
100
AcDbProxyObject
 90
      499
 91
      507
 95
       23
 70
     0
 93
      113
310
904313A3200400000000000000407F
 94
        0
1001
ACAD
1000
AcRTDxfName
1000
SCALE
1000
AcRTDxfName
1000
SCALE
  0
ACAD_PROXY_OBJECT
  5
189
102
{ACAD_REACTORS
330
10C
102
}
330
10C
100
AcDbProxyObject
 90
      499
 91
      507
 95
       23
 70
     0
 93
      113
310
904313A3400400000000000010407F
 94
        0
1001
ACAD
1000
AcRTDxfName
1000
SCALE
1000
AcRTDxfName
1000
SCALE
  0
ACAD_PROXY_OBJECT
  5
18A
102
{ACAD_REACTORS
330
10C
102
}
330
10C
100
AcDbProxyObject
 90
      499
 91
      507
 95
       23
 70
     0
 93
      113
310
904313A3500400000000000014407F
 94
        0
1001
ACAD
1000
AcRTDxfName
1000
SCALE
1000
AcRTDxfName
1000
SCALE
  0
ACAD_PROXY_OBJECT
  5
18B
102
{ACAD_REACTORS
330
10C
102
}
330
10C
100
AcDbProxyObject
 90
      499
 91
      507
 95
       23
 70
     0
 93
      113
310
904313A3800400000000000020407F
 94
        0
1001
ACAD
1000
AcRTDxfName
1000
SCALE
1000
AcRTDxfName
1000
SCALE
  0
ACAD_PROXY_OBJECT
  5
18C
102
{ACAD_REACTORS
330
10C
102
}
330
10C
100
AcDbProxyObject
 90
      499
 91
      507
 95
       23
 70
     0
 93
      121
310
905313A313000400000000000024407F
 94
        0
1001
ACAD
1000
AcRTDxfName
1000
SCALE
1000
AcRTDxfName
1000
SCALE
  0
ACAD_PROXY_OBJECT
  5
18D
102
{ACAD_REACTORS
330
10C
102
}
330
10C
100
AcDbProxyObject
 90
      499
 91
      507
 95
       23
 70
     0
 93
      121
310
905313A313600400000000000030407F
 94
        0
1001
ACAD
1000
AcRTDxfName
1000
SCALE
1000
AcRTDxfName
1000
SCALE
  0
ACAD_PROXY_OBJECT
  5
18E
102
{ACAD_REACTORS
330
10C
102
}
330
10C
100
AcDbProxyObject
 90
      499
 91
      507
 95
       23
 70
     0
 93
      121
310
905313A323000400000000000034407F
 94
        0
1001
ACAD
1000
AcRTDxfName
1000
SCALE
1000
AcRTDxfName
1000
SCALE
  0
ACAD_PROXY_OBJECT
  5
18F
102
{ACAD_REACTORS
330
10C
102
}
330
10C
100
AcDbProxyObject
 90
      499
 91
      507
 95
       23
 70
     0
 93
      121
310
905313A33300040000000000003E407F
 94
        0
1001
ACAD
1000
AcRTDxfName
1000
SCALE
1000
AcRTDxfName
1000
SCALE
  0
ACAD_PROXY_OBJECT
  5
190
102
{ACAD_REACTORS
330
10C
102
}
330
10C
100
AcDbProxyObject
 90
      499
 91
      507
 95
       23
 70
     0
 93
      121
310
905313A343000400000000000044407F
 94
        0
1001
ACAD
1000
AcRTDxfName
1000
SCALE
1000
AcRTDxfName
1000
SCALE
  0
ACAD_PROXY_OBJECT
  5
191
102
{ACAD_REACTORS
330
10C
102
}
330
10C
100
AcDbProxyObject
 90
      499
 91
      507
 95
       23
 70
     0
 93
      121
310
905313A353000400000000000049407F
 94
        0
1001
ACAD
1000
AcRTDxfName
1000
SCALE
1000
AcRTDxfName
1000
SCALE
  0
ACAD_PROXY_OBJECT
  5
192
102
{ACAD_REACTORS
330
10C
102
}
330
10C
100
AcDbProxyObject
 90
      499
 91
      507
 95
       23
 70
     0
 93
      129
310
906313A31303000400000000000059407F
 94
        0
1001
ACAD
1000
AcRTDxfName
1000
SCALE
1000
AcRTDxfName
1000
SCALE
  0
ACAD_PROXY_OBJECT
  5
193
102
{ACAD_REACTORS
330
10C
102
}
330
10C
100
AcDbProxyObject
 90
      499
 91
      507
 95
       23
 70
     0
 93
      113
310
904323A3100000000000000001017F
 94
        0
1001
ACAD
1000
AcRTDxfName
1000
SCALE
1000
AcRTDxfName
1000
SCALE
  0
ACAD_PROXY_OBJECT
  5
194
102
{ACAD_REACTORS
330
10C
102
}
330
10C
100
AcDbProxyObject
 90
      499
 91
      507
 95
       23
 70
     0
 93
      113
310
904343A3100000000000000041017F
 94
        0
1001
ACAD
1000
AcRTDxfName
1000
SCALE
1000
AcRTDxfName
1000
SCALE
  0
ACAD_PROXY_OBJECT
  5
195
102
{ACAD_REACTORS
330
10C
102
}
330
10C
100
AcDbProxyObject
 90
      499
 91
      507
 95
       23
 70
     0
 93
      113
310
904383A3100000000000000081017F
 94
        0
1001
ACAD
1000
AcRTDxfName
1000
SCALE
1000
AcRTDxfName
1000
SCALE
  0
ACAD_PROXY_OBJECT
  5
196
102
{ACAD_REACTORS
330
10C
102
}
330
10C
100
AcDbProxyObject
 90
      499
 91
      507
 95
       23
 70
     0
 93
      121
310
90531303A3100000000000000091017F
 94
        0
1001
ACAD
1000
AcRTDxfName
1000
SCALE
1000
AcRTDxfName
1000
SCALE
  0
ACAD_PROXY_OBJECT
  5
197
102
{ACAD_REACTORS
330
10C
102
}
330
10C
100
AcDbProxyObject
 90
      499
 91
      507
 95
       23
 70
     0
 93
      129
310
9063130303A3100000000000000165017F
 94
        0
1001
ACAD
1000
AcRTDxfName
1000
SCALE
1000
AcRTDxfName
1000
SCALE
  0
ACAD_PROXY_OBJECT
  5
198
102
{ACAD_REACTORS
330
10C
102
}
330
10C
100
AcDbProxyObject
 90
      499
 91
      507
 95
       23
 70
     0
 93
      265
310
90F312F31323822203D2031272D302200000000000000200FC00000000000028407F
 94
        0
1001
ACAD
1000
AcRTDxfName
1000
SCALE
1000
AcRTDxfName
1000
SCALE
  0
ACAD_PROXY_OBJECT
  5
199
102
{ACAD_REACTORS
330
10C
102
}
330
10C
100
AcDbProxyObject
 90
      499
 91
      507
 95
       23
 70
     0
 93
      257
310
90E312F363422203D2031272D302200000000000000240FC00000000000028407F
 94
        0
1001
ACAD
1000
AcRTDxfName
1000
SCALE
1000
AcRTDxfName
1000
SCALE
  0
ACAD_PROXY_OBJECT
  5
19A
102
{ACAD_REACTORS
330
10C
102
}
330
10C
100
AcDbProxyObject
 90
      499
 91
      507
 95
       23
 70
     0
 93
      257
310
90E312F333222203D2031272D302200000000000000280FC00000000000028407F
 94
        0
1001
ACAD
1000
AcRTDxfName
1000
SCALE
1000
AcRTDxfName
1000
SCALE
  0
ACAD_PROXY_OBJECT
  5
19B
102
{ACAD_REACTORS
330
10C
102
}
330
10C
100
AcDbProxyObject
 90
      499
 91
      507
 95
       23
 70
     0
 93
      257
310
90E312F313622203D2031272D3022000000000000002C0FC00000000000028407F
 94
        0
1001
ACAD
1000
AcRTDxfName
1000
SCALE
1000
AcRTDxfName
1000
SCALE
  0
ACAD_PROXY_OBJECT
  5
19C
102
{ACAD_REACTORS
330
10C
102
}
330
10C
100
AcDbProxyObject
 90
      499
 91
      507
 95
       23
 70
     0
 93
      257
310
90E332F333222203D2031272D3022000000000000002E0FC00000000000028407F
 94
        0
1001
ACAD
1000
AcRTDxfName
1000
SCALE
1000
AcRTDxfName
1000
SCALE
  0
ACAD_PROXY_OBJECT
  5
19D
102
{ACAD_REACTORS
330
10C
102
}
330
10C
100
AcDbProxyObject
 90
      499
 91
      507
 95
       23
 70
     0
 93
      249
310
90D312F3822203D2031272D302200000000000000300FC00000000000028407F
 94
        0
1001
ACAD
1000
AcRTDxfName
1000
SCALE
1000
AcRTDxfName
1000
SCALE
  0
ACAD_PROXY_OBJECT
  5
19E
102
{ACAD_REACTORS
330
10C
102
}
330
10C
100
AcDbProxyObject
 90
      499
 91
      507
 95
       23
 70
     0
 93
      257
310
90E332F313622203D2031272D302200000000000000320FC00000000000028407F
 94
        0
1001
ACAD
1000
AcRTDxfName
1000
SCALE
1000
AcRTDxfName
1000
SCALE
  0
ACAD_PROXY_OBJECT
  5
19F
102
{ACAD_REACTORS
330
10C
102
}
330
10C
100
AcDbProxyObject
 90
      499
 91
      507
 95
       23
 70
     0
 93
      249
310
90D312F3422203D2031272D302200000000000000340FC00000000000028407F
 94
        0
1001
ACAD
1000
AcRTDxfName
1000
SCALE
1000
AcRTDxfName
1000
SCALE
  0
ACAD_PROXY_OBJECT
  5
1A0
102
{ACAD_REACTORS
330
10C
102
}
330
10C
100
AcDbProxyObject
 90
      499
 91
      507
 95
       23
 70
     0
 93
      249
310
90D332F3822203D2031272D302200000000000000360FC00000000000028407F
 94
        0
1001
ACAD
1000
AcRTDxfName
1000
SCALE
1000
AcRTDxfName
1000
SCALE
  0
ACAD_PROXY_OBJECT
  5
1A1
102
{ACAD_REACTORS
330
10C
102
}
330
10C
100
AcDbProxyObject
 90
      499
 91
      507
 95
       23
 70
     0
 93
      249
310
90D312F3222203D2031272D302200000000000000380FC00000000000028407F
 94
        0
1001
ACAD
1000
AcRTDxfName
1000
SCALE
1000
AcRTDxfName
1000
SCALE
  0
ACAD_PROXY_OBJECT
  5
1A2
102
{ACAD_REACTORS
330
10C
102
}
330
10C
100
AcDbProxyObject
 90
      499
 91
      507
 95
       23
 70
     0
 93
      249
310
90D332F3422203D2031272D3022000000000000003A0FC00000000000028407F
 94
        0
1001
ACAD
1000
AcRTDxfName
1000
SCALE
1000
AcRTDxfName
1000
SCALE
  0
ACAD_PROXY_OBJECT
  5
1A3
102
{ACAD_REACTORS
330
10C
102
}
330
10C
100
AcDbProxyObject
 90
      499
 91
      507
 95
       23
 70
     0
 93
      169
310
90B3122203D2031272D302200400000000000028407F
 94
        0
1001
ACAD
1000
AcRTDxfName
1000
SCALE
1000
AcRTDxfName
1000
SCALE
  0
ACAD_PROXY_OBJECT
  5
1A4
102
{ACAD_REACTORS
330
10C
102
}
330
10C
100
AcDbProxyObject
 90
      499
 91
      507
 95
       23
 70
     0
 93
      265
310
90F312D312F3222203D2031272D3022000000000000003E0FC00000000000028407F
 94
        0
1001
ACAD
1000
AcRTDxfName
1000
SCALE
1000
AcRTDxfName
1000
SCALE
  0
ACAD_PROXY_OBJECT
  5
1A5
102
{ACAD_REACTORS
330
10C
102
}
330
10C
100
AcDbProxyObject
 90
      499
 91
      507
 95
       23
 70
     0
 93
      233
310
90B3322203D2031272D3022000000000000000210000000000000028407F
 94
        0
1001
ACAD
1000
AcRTDxfName
1000
SCALE
1000
AcRTDxfName
1000
SCALE
  0
ACAD_PROXY_OBJECT
  5
1A6
102
{ACAD_REACTORS
330
10C
102
}
330
10C
100
AcDbProxyObject
 90
      499
 91
      507
 95
       23
 70
     0
 93
      233
310
90B3622203D2031272D3022000000000000000610000000000000028407F
 94
        0
1001
ACAD
1000
AcRTDxfName
1000
SCALE
1000
AcRTDxfName
1000
SCALE
  0
ACAD_PROXY_OBJECT
  5
1A7
102
{ACAD_REACTORS
330
10C
102
}
330
10C
100
AcDbProxyObject
 90
      499
 91
      507
 95
       23
 70
     0
 93
      257
310
90E31272D3022203D2031272D3022000000000000000A10000000000000028407F
 94
        0
1001
ACAD
1000
AcRTDxfName
1000
SCALE
1000
AcRTDxfName
1000
SCALE
  0
TABLESTYLE
  5
7F
102
{ACAD_XDICTIONARY
360
162
102
}
102
{ACAD_REACTORS
330
7E
102
}
330
7E
100
AcDbTableStyle
  3
Standard
 70
     0
 71
     0
 40
1.5
 41
1.5
280
     0
281
     0
  7
Standard
140
4.5
170
     2
 62
     0
 63
     7
283
     0
274
    -2
284
     1
 64
     0
275
    -2
285
     1
 65
     0
276
    -2
286
     1
 66
     0
277
    -2
287
     1
 67
     0
278
    -2
288
     1
 68
     0
279
    -2
289
     1
 69
     0
  7
Standard
140
6.0
170
     5
 62
     0
 63
     7
283
     0
274
    -2
284
     1
 64
     0
275
    -2
285
     1
 65
     0
276
    -2
286
     1
 66
     0
277
    -2
287
     1
 67
     0
278
    -2
288
     1
 68
     0
279
    -2
289
     1
 69
     0
  7
Standard
140
4.5
170
     5
 62
     0
 63
     7
283
     0
274
    -2
284
     1
 64
     0
275
    -2
285
     1
 65
     0
276
    -2
286
     1
 66
     0
277
    -2
287
     1
 67
     0
278
    -2
288
     1
 68
     0
279
    -2
289
     1
 69
     0
  0
VISUALSTYLE
  5
F5
102
{ACAD_REACTORS
330
EF
102
}
330
EF
100
AcDbVisualStyle
  2
2dWireframe
 70
     4
 71
     0
 72
     2
 73
     1
 90
        0
 40
-0.6
 41
-30.0
 62
     5
 63
     7
 74
     1
 91
        4
 64
     7
 65
   257
 75
     1
175
     1
 42
1.0
 92
        0
 66
   257
 43
1.0
 76
     1
 77
     6
 78
     2
 67
     7
 79
     5
170
     0
171
     0
290
     0
174
     0
 93
        1
 44
0.0
173
     0
291
     0
 45
0.0
1001
ACAD
1000
AcDbSavedByObjectVersion
1070
     0
  0
VISUALSTYLE
  5
F7
102
{ACAD_REACTORS
330
EF
102
}
330
EF
100
AcDbVisualStyle
  2
3D Hidden
 70
     6
 71
     1
 72
     2
 73
     2
 90
        0
 40
-0.6
 41
-30.0
 62
     5
 63
     7
 74
     2
 91
        2
 64
     7
 65
   257
 75
     2
175
     1
 42
40.0
 92
        0
 66
   257
 43
1.0
 76
     1
 77
     6
 78
     2
 67
     7
 79
     3
170
     0
171
     0
290
     0
174
     0
 93
        1
 44
0.0
173
     0
291
     0
 45
0.0
1001
ACAD
1000
AcDbSavedByObjectVersion
1070
     0
  0
VISUALSTYLE
  5
F6
102
{ACAD_REACTORS
330
EF
102
}
330
EF
100
AcDbVisualStyle
  2
3dWireframe
 70
     5
 71
     0
 72
     2
 73
     1
 90
        0
 40
-0.6
 41
-30.0
 62
     5
 63
     7
 74
     1
 91
        4
 64
     7
 65
   257
 75
     1
175
     1
 42
1.0
 92
        0
 66
   257
 43
1.0
 76
     1
 77
     6
 78
     2
 67
     7
 79
     5
170
     0
171
     0
290
     0
174
     0
 93
        1
 44
0.0
173
     0
291
     0
 45
0.0
1001
ACAD
1000
AcDbSavedByObjectVersion
1070
     0
  0
VISUALSTYLE
  5
F4
102
{ACAD_REACTORS
330
EF
102
}
330
EF
100
AcDbVisualStyle
  2
Basic
 70
     7
 71
     1
 72
     0
 73
     1
 90
        0
 40
-0.6
 41
-30.0
 62
     5
 63
     7
 74
     0
 91
        4
 64
     7
 65
   257
 75
     1
175
     1
 42
1.0
 92
        8
 66
     7
 43
1.0
 76
     1
 77
     6
 78
     2
 67
     7
 79
     5
170
     0
171
     0
290
     0
174
     0
 93
        1
 44
0.0
173
     0
291
     1
 45
0.0
1001
ACAD
1000
AcDbSavedByObjectVersion
1070
     0
  0
VISUALSTYLE
  5
FB
102
{ACAD_REACTORS
330
EF
102
}
330
EF
100
AcDbVisualStyle
  2
Brighten
 70
    12
 71
     2
 72
     2
 73
     1
 90
        0
 40
-0.6
 41
-30.0
 62
     5
 63
     7
 74
     1
 91
        4
 64
     7
 65
   257
 75
     1
175
     1
 42
1.0
 92
        8
 66
     7
 43
1.0
 76
     1
 77
     6
 78
     2
 67
     7
 79
     5
170
     0
171
     0
290
     0
174
     0
 93
        1
 44
50.0
173
     0
291
     1
 45
0.0
1001
ACAD
1000
AcDbSavedByObjectVersion
1070
     0
  0
VISUALSTYLE
  5
FF
102
{ACAD_REACTORS
330
EF
102
}
330
EF
100
AcDbVisualStyle
  2
ColorChange
 70
    16
 71
     2
 72
     2
 73
     3
 90
        0
 40
-0.6
 41
-30.0
 62
     5
 63
     8
 74
     1
 91
        4
 64
     7
 65
   257
 75
     1
175
     1
 42
1.0
 92
        8
 66
     8
 43
1.0
 76
     1
 77
     6
 78
     2
 67
     7
 79
     5
170
     0
171
     0
290
     0
174
     0
 93
        1
 44
0.0
173
     0
291
     1
 45
0.0
1001
ACAD
1000
AcDbSavedByObjectVersion
1070
     0
  0
VISUALSTYLE
  5
F8
102
{ACAD_REACTORS
330
EF
102
}
330
EF
100
AcDbVisualStyle
  2
Conceptual
 70
     9
 71
     3
 72
     2
 73
     1
 90
        0
 40
-0.6
 41
-30.0
 62
     5
 63
     7
 74
     2
 91
        2
 64
     7
 65
   257
 75
     1
175
     1
 42
40.0
 92
        8
 66
     7
 43
1.0
 76
     1
 77
     6
 78
     2
 67
     7
 79
     3
170
     0
171
     0
290
     0
174
     0
 93
        1
 44
0.0
173
     0
291
     0
 45
0.0
1001
ACAD
1000
AcDbSavedByObjectVersion
1070
     0
  0
VISUALSTYLE
  5
FA
102
{ACAD_REACTORS
330
EF
102
}
330
EF
100
AcDbVisualStyle
  2
Dim
 70
    11
 71
     2
 72
     2
 73
     1
 90
        0
 40
-0.6
 41
-30.0
 62
     5
 63
     7
 74
     1
 91
        4
 64
     7
 65
   257
 75
     1
175
     1
 42
1.0
 92
        8
 66
     7
 43
1.0
 76
     1
 77
     6
 78
     2
 67
     7
 79
     5
170
     0
171
     0
290
     0
174
     0
 93
        1
 44
-50.0
173
     0
291
     1
 45
0.0
1001
ACAD
1000
AcDbSavedByObjectVersion
1070
     0
  0
VISUALSTYLE
  5
FE
102
{ACAD_REACTORS
330
EF
102
}
330
EF
100
AcDbVisualStyle
  2
Facepattern
 70
    15
 71
     2
 72
     2
 73
     1
 90
        0
 40
-0.6
 41
-30.0
 62
     5
 63
     7
 74
     1
 91
        4
 64
     7
 65
   257
 75
     1
175
     1
 42
1.0
 92
        8
 66
     7
 43
1.0
 76
     1
 77
     6
 78
     2
 67
     7
 79
     5
170
     0
171
     0
290
     0
174
     0
 93
        1
 44
0.0
173
     0
291
     1
 45
0.0
1001
ACAD
1000
AcDbSavedByObjectVersion
1070
     0
  0
VISUALSTYLE
  5
F0
102
{ACAD_REACTORS
330
EF
102
}
330
EF
100
AcDbVisualStyle
  2
Flat
 70
     0
 71
     2
 72
     1
 73
     1
 90
        2
 40
-0.6
 41
30.0
 62
     5
 63
     7
 74
     0
 91
        4
 64
     7
 65
   257
 75
     1
175
     1
 42
1.0
 92
        8
 66
     7
 43
1.0
 76
     1
 77
     6
 78
     2
 67
     7
 79
     5
170
     0
171
     0
290
     0
174
     0
 93
        1
 44
0.0
173
     0
291
     1
 45
0.0
1001
ACAD
1000
AcDbSavedByObjectVersion
1070
     0
  0
VISUALSTYLE
  5
F1
102
{ACAD_REACTORS
330
EF
102
}
330
EF
100
AcDbVisualStyle
  2
FlatWithEdges
 70
     1
 71
     2
 72
     1
 73
     1
 90
        2
 40
-0.6
 41
30.0
 62
     5
 63
     7
 74
     1
 91
        4
 64
     7
 65
   257
 75
     1
175
     1
 42
1.0
 92
        0
 66
   257
 43
1.0
 76
     1
 77
     6
 78
     2
 67
     7
 79
     5
170
     0
171
     0
290
     0
174
     0
 93
        1
 44
0.0
173
     0
291
     1
 45
0.0
1001
ACAD
1000
AcDbSavedByObjectVersion
1070
     0
  0
VISUALSTYLE
  5
F2
102
{ACAD_REACTORS
330
EF
102
}
330
EF
100
AcDbVisualStyle
  2
Gouraud
 70
     2
 71
     2
 72
     2
 73
     1
 90
        2
 40
-0.6
 41
30.0
 62
     5
 63
     7
 74
     0
 91
        4
 64
     7
 65
   257
 75
     1
175
     1
 42
1.0
 92
        0
 66
     7
 43
1.0
 76
     1
 77
     6
 78
     2
 67
     7
 79
     5
170
     0
171
     0
290
     0
174
     0
 93
        1
 44
0.0
173
     0
291
     1
 45
0.0
1001
ACAD
1000
AcDbSavedByObjectVersion
1070
     0
  0
VISUALSTYLE
  5
F3
102
{ACAD_REACTORS
330
EF
102
}
330
EF
100
AcDbVisualStyle
  2
GouraudWithEdges
 70
     3
 71
     2
 72
     2
 73
     1
 90
        2
 40
-0.6
 41
30.0
 62
     5
 63
     7
 74
     1
 91
        4
 64
     7
 65
   257
 75
     1
175
     1
 42
1.0
 92
        0
 66
   257
 43
1.0
 76
     1
 77
     6
 78
     2
 67
     7
 79
     5
170
     0
171
     0
290
     0
174
     0
 93
        1
 44
0.0
173
     0
291
     1
 45
0.0
1001
ACAD
1000
AcDbSavedByObjectVersion
1070
     0
  0
VISUALSTYLE
  5
FD
102
{ACAD_REACTORS
330
EF
102
}
330
EF
100
AcDbVisualStyle
  2
Linepattern
 70
    14
 71
     2
 72
     2
 73
     1
 90
        0
 40
-0.6
 41
-30.0
 62
     5
 63
     7
 74
     1
 91
        4
 64
     7
 65
   257
 75
     7
175
     7
 42
1.0
 92
        8
 66
     7
 43
1.0
 76
     1
 77
     6
 78
     2
 67
     7
 79
     5
170
     0
171
     0
290
     0
174
     0
 93
        1
 44
0.0
173
     0
291
     1
 45
0.0
1001
ACAD
1000
AcDbSavedByObjectVersion
1070
     0
  0
VISUALSTYLE
  5
F9
102
{ACAD_REACTORS
330
EF
102
}
330
EF
100
AcDbVisualStyle
  2
Realistic
 70
     8
 71
     2
 72
     2
 73
     1
 90
        0
 40
-0.6
 41
-30.0
 62
     5
 63
     7
 74
     1
 91
        0
 64
     7
 65
   257
 75
     1
175
     1
 42
1.0
 92
        8
 66
     8
 43
1.0
 76
     1
 77
     6
 78
     2
 67
     7
 79
     5
170
     0
171
     0
290
     0
174
     0
 93
       13
 44
0.0
173
     0
291
     0
 45
0.0
1001
ACAD
1000
AcDbSavedByObjectVersion
1070
     0
  0
VISUALSTYLE
  5
FC
102
{ACAD_REACTORS
330
EF
102
}
330
EF
100
AcDbVisualStyle
  2
Thicken
 70
    13
 71
     2
 72
     2
 73
     1
 90
        0
 40
-0.6
 41
-30.0
 62
     5
 63
     7
 74
     1
 91
        4
 64
     7
 65
   257
 75
     1
175
     1
 42
1.0
 92
       12
 66
     7
 43
1.0
 76
     1
 77
     6
 78
     2
 67
     7
 79
     5
170
     0
171
     0
290
     0
174
     0
 93
        1
 44
0.0
173
     0
291
     1
 45
0.0
1001
ACAD
1000
AcDbSavedByObjectVersion
1070
     0
  0
DICTIONARYVAR
  5
146
102
{ACAD_REACTORS
330
5E
102
}
330
5E
100
DictionaryVariables
280
     0
  1
1:1
  0
DICTIONARYVAR
  5
145
102
{ACAD_REACTORS
330
5E
102
}
330
5E
100
DictionaryVariables
280
     0
  1
STANDARD
  0
DICTIONARYVAR
  5
84
102
{ACAD_REACTORS
330
5E
102
}
330
5E
100
DictionaryVariables
280
     0
  1
STANDARD
  0
DICTIONARYVAR
  5
5F
102
{ACAD_REACTORS
330
5E
102
}
330
5E
100
DictionaryVariables
280
     0
  1
2
  0
DICTIONARYVAR
  5
63
102
{ACAD_REACTORS
330
5E
102
}
330
5E
100
DictionaryVariables
280
     0
  1
1
  0
DICTIONARYVAR
  5
466
102
{ACAD_REACTORS
330
5E
102
}
330
5E
100
DictionaryVariables
280
     0
  1
0
  0
DICTIONARYVAR
  5
464
102
{ACAD_REACTORS
330
5E
102
}
330
5E
100
DictionaryVariables
280
     0
  1
2
  0
DICTIONARYVAR
  5
463
102
{ACAD_REACTORS
330
5E
102
}
330
5E
100
DictionaryVariables
280
     0
  1
1
  0
DICTIONARYVAR
  5
292A
102
{ACAD_REACTORS
330
5E
102
}
330
5E
100
DictionaryVariables
280
     0
  1
80.000000
  0
DICTIONARYVAR
  5
2929
102
{ACAD_REACTORS
330
5E
102
}
330
5E
100
DictionaryVariables
280
     0
  1
5.000000
  0
DICTIONARYVAR
  5
465
102
{ACAD_REACTORS
330
5E
102
}
330
5E
100
DictionaryVariables
280
     0
  1
127
  0
DICTIONARY
  5
233A
102
{ACAD_REACTORS
330
2339
102
}
330
2339
100
AcDbDictionary
281
     1
  0
DICTIONARY
  5
292F
330
D3
100
AcDbDictionary
280
     1
281
     1
  3
ACAD_XREC_ROUNDTRIP
360
2930
  0
DICTIONARY
  5
2931
330
D7
100
AcDbDictionary
280
     1
281
     1
  3
ACAD_XREC_ROUNDTRIP
360
2932
  0
DICTIONARY
  5
292C
330
22
100
AcDbDictionary
280
     1
281
     1
  3
ACAD_XREC_ROUNDTRIP
360
292D
  0
DICTIONARY
  5
2935
330
ED
100
AcDbDictionary
280
     1
281
     1
  3
ACAD_XREC_ROUNDTRIP
360
2936
  0
DICTIONARY
  5
2933
330
EC
100
AcDbDictionary
280
     1
281
     1
  3
ACAD_XREC_ROUNDTRIP
360
2934
  0
DICTIONARY
  5
173
330
EE
100
AcDbDictionary
280
     1
281
     1
  3
ACAD_XREC_ROUNDTRIP
360
2937
  3
BUMPTILE
360
175
  3
DIFFUSETILE
360
174
  3
OPACITYTILE
360
176
  3
REFLECTIONTILE
360
177
  0
DICTIONARY
  5
162
330
7F
100
AcDbDictionary
280
     1
281
     1
  3
ACAD_ROUNDTRIP_2008_TABLESTYLE_CELLSTYLEMAP
360
284E
  3
ACAD_XREC_ROUNDTRIP
360
292E
  0
XRECORD
  5
2930
102
{ACAD_REACTORS
330
292F
102
}
330
292F
100
AcDbXrecord
280
     1
102
SHADEPLOT
 70
     0
102
SHADEPLOTRESLEVEL
 70
     2
102
SHADEPLOTCUSTOMDPI
 70
   300
  0
XRECORD
  5
2932
102
{ACAD_REACTORS
330
2931
102
}
330
2931
100
AcDbXrecord
280
     1
102
SHADEPLOT
 70
     0
102
SHADEPLOTRESLEVEL
 70
     2
102
SHADEPLOTCUSTOMDPI
 70
   300
  0
XRECORD
  5
292D
102
{ACAD_REACTORS
330
292C
102
}
330
292C
100
AcDbXrecord
280
     1
102
SHADEPLOT
 70
     0
102
SHADEPLOTRESLEVEL
 70
     2
102
SHADEPLOTCUSTOMDPI
 70
   300
  0
XRECORD
  5
2936
102
{ACAD_REACTORS
330
2935
102
}
330
2935
100
AcDbXrecord
280
     1
102
MATERIAL
148
0.0
149
0.0
149
0.0
 93
        0
 94
       63
282
     0
 72
     1
 77
     1
171
     1
175
     1
179
     1
273
     0
  0
XRECORD
  5
2934
102
{ACAD_REACTORS
330
2933
102
}
330
2933
100
AcDbXrecord
280
     1
102
MATERIAL
148
0.0
149
0.0
149
0.0
 93
        0
 94
       63
282
     0
 72
     1
 77
     1
171
     1
175
     1
179
     1
273
     0
  0
XRECORD
  5
2937
102
{ACAD_REACTORS
330
173
102
}
330
173
100
AcDbXrecord
280
     1
102
MATERIAL
148
0.0
149
0.0
149
0.0
 93
        0
 94
       63
282
     0
 72
     1
 77
     1
171
     1
175
     1
179
     1
273
     0
  0
XRECORD
  5
175
102
{ACAD_REACTORS
330
173
102
}
330
173
100
AcDbXrecord
280
     1
270
     1
271
     1
  0
XRECORD
  5
174
102
{ACAD_REACTORS
330
173
102
}
330
173
100
AcDbXrecord
280
     1
270
     1
271
     1
  0
XRECORD
  5
176
102
{ACAD_REACTORS
330
173
102
}
330
173
100
AcDbXrecord
280
     1
270
     1
271
     1
  0
XRECORD
  5
177
102
{ACAD_REACTORS
330
173
102
}
330
173
100
AcDbXrecord
280
     1
270
     1
271
     1
  0
ACAD_PROXY_OBJECT
  5
284E
102
{ACAD_REACTORS
330
162
102
}
330
162
100
AcDbProxyObject
 90
      499
 91
      509
 95
       23
 70
     0
 93
     5304
310
40D054060020000020000003200101A000080002A5058000000C10000000000000006101010000000000003E0FC000000000000F83F0000000000003E0FC000000000000F83F02B5E8DC0F42B1CFC0AD7A3703D0AC73F419019018000000C1003FBFFFFFE0000000000003C8FD029018000000C1003FBFFFFFE00000000000
310
03C8FD049018000000C1003FBFFFFFE0000000000003C8FD089018000000C1003FBFFFFFE0000000000003C8FD109018000000C1003FBFFFFFE0000000000003C8FD209018000000C1003FBFFFFFE0000000000003C8FD01405075F5449544C450041501A8000000C800406800020000A94160000003040000000000000012
310
40404000000000000F83F0000000000003E0FC000000000000F83F0000000000003E0FC0AD7A3703D0AC73F02B5E8DC0F42B1CFD0640640600000030400FEFFFFFF8000000000000F23F40A40600000030400FEFFFFFF8000000000000F23F41240600000030400FEFFFFFF8000000000000F23F42240600000030400FEFFF
310
FFF8000000000000F23F44240600000030400FEFFFFFF8000000000000F23F48240600000030400FEFFFFFF8000000000000F23F409014217D2115051115480105406A0000003200101A000080002A5028000000C10000000000000004901010000000000003E0FC000000000000F83F0000000000003E0FC000000000000F
310
83F02B5E8DC0F42B1CFC0AD7A3703D0AC73F419019018000000C1003FBFFFFFE0000000000003C8FD029018000000C1003FBFFFFFE0000000000003C8FD049018000000C1003FBFFFFFE0000000000003C8FD089018000000C1003FBFFFFFE0000000000003C8FD109018000000C1003FBFFFFFE0000000000003C8FD20901
310
8000000C1003FBFFFFFE0000000000003C8FD03409065F444154410000
340
11
340
14
340
14
340
14
340
14
340
14
340
14
340
11
340
14
340
14
340
14
340
14
340
14
340
14
340
11
340
14
340
14
340
14
340
14
340
14
340
14
 94
        0
1001
ACAD
1000
AcRTDxfName
1000
CELLSTYLEMAP
1000
AcRTDxfName
1000
CELLSTYLEMAP
  0
XRECORD
  5
292E
102
{ACAD_REACTORS
330
162
102
}
330
162
100
AcDbXrecord
280
     1
102
ACAD_ROUNDTRIP_PRE2007_TABLESTYLE
 90
      512
 91
        0
  1

 92
      512
 93
        0
  2

 94
      512
 95
        0
  3

  0
ENDSEC
  0
EOF
