  0
SECTION
  2
HEADER
  9
$ACADVER
  1
AC1015
  9
$ACADMAINTVER
 70
    20
  9
$DWGCODEPAGE
  3
ANSI_1250
  9
$INSBASE
 10
0.0
 20
0.0
 30
0.0
  9
$EXTMIN
 10
-0.0001131745479483
 20
-0.0026971829098557
 30
-0.0000000000000053
  9
$EXTMAX
 10
210.0030836411595
 20
297.0018240278761
 30
0.0000000000000099
  9
$LIMMIN
 10
0.0
 20
0.0
  9
$LIMMAX
 10
210.0
 20
297.0
  9
$ORTHOMODE
 70
     0
  9
$REGENMODE
 70
     1
  9
$FILLMODE
 70
     1
  9
$QTEXTMODE
 70
     0
  9
$MIRRTEXT
 70
     0
  9
$LTSCALE
 40
1.0
  9
$ATTMODE
 70
     2
  9
$TEXTSIZE
 40
5.0
  9
$TRACEWID
 40
1.0
  9
$TEXTSTYLE
  7
Solbet_5
  9
$CLAYER
  8
SOLBET_Zbrojenie_Konstrukcja
  9
$CELTYPE
  6
ByLayer
  9
$CECOLOR
 62
   256
  9
$CELTSCALE
 40
1.0
  9
$DISPSILH
 70
     0
  9
$DIMSCALE
 40
1.0
  9
$DIMASZ
 40
2.5
  9
$DIMEXO
 40
0.0
  9
$DIMDLI
 40
3.75
  9
$DIMRND
 40
0.0
  9
$DIMDLE
 40
0.0
  9
$DIMEXE
 40
1.25
  9
$DIMTP
 40
0.0
  9
$DIMTM
 40
0.0
  9
$DIMTXT
 40
2.5
  9
$DIMCEN
 40
2.5
  9
$DIMTSZ
 40
0.0
  9
$DIMTOL
 70
     0
  9
$DIMLIM
 70
     0
  9
$DIMTIH
 70
     0
  9
$DIMTOH
 70
     0
  9
$DIMSE1
 70
     0
  9
$DIMSE2
 70
     0
  9
$DIMTAD
 70
     1
  9
$DIMZIN
 70
     8
  9
$DIMBLK
  1

  9
$DIMASO
 70
     1
  9
$DIMSHO
 70
     1
  9
$DIMPOST
  1

  9
$DIMAPOST
  1

  9
$DIMALT
 70
     0
  9
$DIMALTD
 70
     3
  9
$DIMALTF
 40
0.03937007874016
  9
$DIMLFAC
 40
1.0
  9
$DIMTOFL
 70
     1
  9
$DIMTVP
 40
0.0
  9
$DIMTIX
 70
     0
  9
$DIMSOXD
 70
     0
  9
$DIMSAH
 70
     0
  9
$DIMBLK1
  1

  9
$DIMBLK2
  1

  9
$DIMSTYLE
  2
Solbet
  9
$DIMCLRD
 70
     0
  9
$DIMCLRE
 70
     0
  9
$DIMCLRT
 70
     0
  9
$DIMTFAC
 40
1.0
  9
$DIMGAP
 40
0.625
  9
$DIMJUST
 70
     0
  9
$DIMSD1
 70
     0
  9
$DIMSD2
 70
     0
  9
$DIMTOLJ
 70
     0
  9
$DIMTZIN
 70
     8
  9
$DIMALTZ
 70
     0
  9
$DIMALTTZ
 70
     0
  9
$DIMUPT
 70
     0
  9
$DIMDEC
 70
     2
  9
$DIMTDEC
 70
     2
  9
$DIMALTU
 70
     2
  9
$DIMALTTD
 70
     3
  9
$DIMTXSTY
  7
Solbet_2_5
  9
$DIMAUNIT
 70
     0
  9
$DIMADEC
 70
     0
  9
$DIMALTRND
 40
0.0
  9
$DIMAZIN
 70
     0
  9
$DIMDSEP
 70
    44
  9
$DIMATFIT
 70
     3
  9
$DIMFRAC
 70
     0
  9
$DIMLDRBLK
  1

  9
$DIMLUNIT
 70
     2
  9
$DIMLWD
 70
    -2
  9
$DIMLWE
 70
    -2
  9
$DIMTMOVE
 70
     0
  9
$LUNITS
 70
     2
  9
$LUPREC
 70
     4
  9
$SKETCHINC
 40
1.0
  9
$FILLETRAD
 40
0.0
  9
$AUNITS
 70
     0
  9
$AUPREC
 70
     0
  9
$MENU
  1
.
  9
$ELEVATION
 40
0.0
  9
$PELEVATION
 40
0.0
  9
$THICKNESS
 40
0.0
  9
$LIMCHECK
 70
     0
  9
$CHAMFERA
 40
0.0
  9
$CHAMFERB
 40
0.0
  9
$CHAMFERC
 40
0.0
  9
$CHAMFERD
 40
0.0
  9
$SKPOLY
 70
     0
  9
$TDCREATE
 40
2454690.075573148
  9
$TDUCREATE
 40
2454690.033906482
  9
$TDUPDATE
 40
2454848.887222315
  9
$TDUUPDATE
 40
2454848.845555648
  9
$TDINDWG
 40
0.6424888657
  9
$TDUSRTIMER
 40
0.6424843403
  9
$USRTIMER
 70
     1
  9
$ANGBASE
 50
0.0
  9
$ANGDIR
 70
     0
  9
$PDMODE
 70
     0
  9
$PDSIZE
 40
0.0
  9
$PLINEWID
 40
0.0
  9
$SPLFRAME
 70
     0
  9
$SPLINETYPE
 70
     6
  9
$SPLINESEGS
 70
     8
  9
$HANDSEED
  5
2D8D
  9
$SURFTAB1
 70
     6
  9
$SURFTAB2
 70
     6
  9
$SURFTYPE
 70
     6
  9
$SURFU
 70
     6
  9
$SURFV
 70
     6
  9
$UCSBASE
  2

  9
$UCSNAME
  2

  9
$UCSORG
 10
0.0
 20
0.0
 30
0.0
  9
$UCSXDIR
 10
1.0
 20
0.0
 30
0.0
  9
$UCSYDIR
 10
0.0
 20
1.0
 30
0.0
  9
$UCSORTHOREF
  2

  9
$UCSORTHOVIEW
 70
     0
  9
$UCSORGTOP
 10
0.0
 20
0.0
 30
0.0
  9
$UCSORGBOTTOM
 10
0.0
 20
0.0
 30
0.0
  9
$UCSORGLEFT
 10
0.0
 20
0.0
 30
0.0
  9
$UCSORGRIGHT
 10
0.0
 20
0.0
 30
0.0
  9
$UCSORGFRONT
 10
0.0
 20
0.0
 30
0.0
  9
$UCSORGBACK
 10
0.0
 20
0.0
 30
0.0
  9
$PUCSBASE
  2

  9
$PUCSNAME
  2

  9
$PUCSORG
 10
0.0
 20
0.0
 30
0.0
  9
$PUCSXDIR
 10
1.0
 20
0.0
 30
0.0
  9
$PUCSYDIR
 10
0.0
 20
1.0
 30
0.0
  9
$PUCSORTHOREF
  2

  9
$PUCSORTHOVIEW
 70
     0
  9
$PUCSORGTOP
 10
0.0
 20
0.0
 30
0.0
  9
$PUCSORGBOTTOM
 10
0.0
 20
0.0
 30
0.0
  9
$PUCSORGLEFT
 10
0.0
 20
0.0
 30
0.0
  9
$PUCSORGRIGHT
 10
0.0
 20
0.0
 30
0.0
  9
$PUCSORGFRONT
 10
0.0
 20
0.0
 30
0.0
  9
$PUCSORGBACK
 10
0.0
 20
0.0
 30
0.0
  9
$USERI1
 70
     0
  9
$USERI2
 70
     0
  9
$USERI3
 70
     0
  9
$USERI4
 70
     0
  9
$USERI5
 70
     0
  9
$USERR1
 40
0.0
  9
$USERR2
 40
0.0
  9
$USERR3
 40
0.0
  9
$USERR4
 40
0.0
  9
$USERR5
 40
0.0
  9
$WORLDVIEW
 70
     1
  9
$SHADEDGE
 70
     3
  9
$SHADEDIF
 70
    70
  9
$TILEMODE
 70
     1
  9
$MAXACTVP
 70
    64
  9
$PINSBASE
 10
0.0
 20
0.0
 30
0.0
  9
$PLIMCHECK
 70
     0
  9
$PEXTMIN
 10
0.0
 20
0.0
 30
0.0
  9
$PEXTMAX
 10
0.0
 20
0.0
 30
0.0
  9
$PLIMMIN
 10
0.0
 20
0.0
  9
$PLIMMAX
 10
12.0
 20
9.0
  9
$UNITMODE
 70
     0
  9
$VISRETAIN
 70
     1
  9
$PLINEGEN
 70
     0
  9
$PSLTSCALE
 70
     1
  9
$TREEDEPTH
 70
  3020
  9
$CMLSTYLE
  2
SOLBET_IZOLACJA
  9
$CMLJUST
 70
     0
  9
$CMLSCALE
 40
20.0
  9
$PROXYGRAPHICS
 70
     1
  9
$MEASUREMENT
 70
     1
  9
$CELWEIGHT
370
    -1
  9
$ENDCAPS
280
     0
  9
$JOINSTYLE
280
     0
  9
$LWDISPLAY
290
     1
  9
$INSUNITS
 70
     4
  9
$HYPERLINKBASE
  1

  9
$STYLESHEET
  1

  9
$XEDIT
290
     1
  9
$CEPSNTYPE
380
     0
  9
$PSTYLEMODE
290
     1
  9
$FINGERPRINTGUID
  2
{6B12AB33-8E39-428E-8E85-461C8D99A3CB}
  9
$VERSIONGUID
  2
{FA654069-31AE-4810-93E3-98EA93FD43F0}
  9
$EXTNAMES
290
     1
  9
$PSVPSCALE
 40
0.0
  9
$OLESTARTUP
290
     0
  0
ENDSEC
  0
SECTION
  2
CLASSES
  0
CLASS
  1
ACDBDICTIONARYWDFLT
  2
AcDbDictionaryWithDefault
  3
ObjectDBX Classes
 90
        0
280
     0
281
     0
  0
CLASS
  1
ACDBPLACEHOLDER
  2
AcDbPlaceHolder
  3
ObjectDBX Classes
 90
        0
280
     0
281
     0
  0
CLASS
  1
LAYOUT
  2
AcDbLayout
  3
ObjectDBX Classes
 90
        0
280
     0
281
     0
  0
CLASS
  1
DICTIONARYVAR
  2
AcDbDictionaryVar
  3
ObjectDBX Classes
 90
        0
280
     0
281
     0
  0
CLASS
  1
TABLESTYLE
  2
AcDbTableStyle
  3
ObjectDBX Classes
 90
     4095
280
     0
281
     0
  0
CLASS
  1
MATERIAL
  2
AcDbMaterial
  3
ObjectDBX Classes
 90
     1024
280
     0
281
     0
  0
CLASS
  1
VISUALSTYLE
  2
AcDbVisualStyle
  3
ObjectDBX Classes
 90
     4095
280
     0
281
     0
  0
CLASS
  1
SCALE
  2
AcDbScale
  3
ObjectDBX Classes
 90
     1153
280
     0
281
     0
  0
CLASS
  1
MLEADERSTYLE
  2
AcDbMLeaderStyle
  3
ACDB_MLEADERSTYLE_CLASS
 90
     4095
280
     0
281
     0
  0
CLASS
  1
CELLSTYLEMAP
  2
AcDbCellStyleMap
  3
ObjectDBX Classes
 90
     1152
280
     0
281
     0
  0
CLASS
  1
DIMASSOC
  2
AcDbDimAssoc
  3
"AcDbDimAssoc|Product Desc:     AcDim ARX App For Dimension|Company:          Autodesk, Inc.|WEB Address:      www.autodesk.com"
 90
    32768
280
     0
281
     0
  0
CLASS
  1
SORTENTSTABLE
  2
AcDbSortentsTable
  3
ObjectDBX Classes
 90
        0
280
     0
281
     0
  0
CLASS
  1
MULTILEADER
  2
AcDbMLeader
  3
ACDB_MLEADER_CLASS
 90
    33793
280
     0
281
     1
  0
CLASS
  1
ACDB_MTEXTOBJECTCONTEXTDATA_CLASS
  2
AcDbMTextObjectContextData
  3
ObjectDBX Classes
 90
    33921
280
     0
281
     0
  0
ENDSEC
  0
SECTION
  2
TABLES
  0
TABLE
  2
VPORT
  5
8
102
{ACAD_XDICTIONARY
360
443
102
}
330
0
100
AcDbSymbolTable
 70
     1
  0
VPORT
  5
EA
330
8
100
AcDbSymbolTableRecord
100
AcDbViewportTableRecord
  2
*Active
 70
     0
 10
0.0
 20
0.0
 11
1.0
 21
1.0
 12
105.0014852333057
 22
148.4995634224831
 13
0.0
 23
0.0
 14
10.0
 24
10.0
 15
10.0
 25
10.0
 16
0.0
 26
0.0
 36
1.0
 17
0.0
 27
0.0
 37
0.0
 40
300.3045714464613
 41
1.745825602968459
 42
50.0
 43
0.0
 44
0.0
 50
0.0
 51
0.0
 71
     0
 72
  1000
 73
     1
 74
     3
 75
     0
 76
     0
 77
     0
 78
     0
281
     0
 65
     1
110
0.0
120
0.0
130
0.0
111
1.0
121
0.0
131
0.0
112
0.0
122
1.0
132
0.0
 79
     0
146
0.0
  0
ENDTAB
  0
TABLE
  2
LTYPE
  5
5
330
0
100
AcDbSymbolTable
 70
     3
  0
LTYPE
  5
14
330
5
100
AcDbSymbolTableRecord
100
AcDbLinetypeTableRecord
  2
ByBlock
 70
     0
  3

 72
    65
 73
     0
 40
0.0
  0
LTYPE
  5
15
330
5
100
AcDbSymbolTableRecord
100
AcDbLinetypeTableRecord
  2
ByLayer
 70
     0
  3

 72
    65
 73
     0
 40
0.0
  0
LTYPE
  5
16
330
5
100
AcDbSymbolTableRecord
100
AcDbLinetypeTableRecord
  2
Continuous
 70
     0
  3
Solid line
 72
    65
 73
     0
 40
0.0
  0
LTYPE
  5
982
330
5
100
AcDbSymbolTableRecord
100
AcDbLinetypeTableRecord
  2
BATTING
 70
     0
  3
Batting SSSSSSSSSSSSSSSSSSSSSSSSSSSSSSSSSSSSSSSSSSSSSSS
 72
    65
 73
     4
 40
10.16254
 49
0.00254
 74
     0
 49
-2.54
 74
     4
 75
   134
340
7E7
 46
2.54
 50
0.0
 44
-2.54
 45
0.0
 49
-5.08
 74
     4
 75
   134
340
7E7
 46
2.54
 50
180.0
 44
2.54
 45
0.0
 49
-2.54
 74
     0
  0
LTYPE
  5
2A95
330
5
100
AcDbSymbolTableRecord
100
AcDbLinetypeTableRecord
  2
DASHED2
 70
     0
  3
Dashed (.5x) _ _ _ _ _ _ _ _ _ _ _ _ _ _ _ _ _
 72
    65
 73
     2
 40
9.524999999999998
 49
6.349999999999999
 74
     0
 49
-3.174999999999999
 74
     0
  0
ENDTAB
  0
TABLE
  2
LAYER
  5
2
102
{ACAD_XDICTIONARY
360
3E5
102
}
330
0
100
AcDbSymbolTable
 70
    14
  0
LAYER
  5
10
102
{ACAD_XDICTIONARY
360
13C
102
}
330
2
100
AcDbSymbolTableRecord
100
AcDbLayerTableRecord
  2
0
 70
     0
 62
     7
  6
Continuous
370
    -3
390
F
  0
LAYER
  5
2BB
330
2
100
AcDbSymbolTableRecord
100
AcDbLayerTableRecord
  2
DEFPOINTS
 70
     0
 62
     7
  6
Continuous
290
     0
370
    -3
390
F
  0
LAYER
  5
3DD
102
{ACAD_XDICTIONARY
360
403
102
}
330
2
100
AcDbSymbolTableRecord
100
AcDbLayerTableRecord
  2
SOLBET_Bloczki
 70
     0
 62
   140
  6
Continuous
370
    -3
390
F
1001
AcAecLayerStandard
1000

1000

  0
LAYER
  5
3DF
102
{ACAD_XDICTIONARY
360
405
102
}
330
2
100
AcDbSymbolTableRecord
100
AcDbLayerTableRecord
  2
SOLBET_Wymiary_Opisy
 70
     0
 62
     1
  6
Continuous
370
    -3
390
F
1001
AcAecLayerStandard
1000

1000

  0
LAYER
  5
3E1
102
{ACAD_XDICTIONARY
360
409
102
}
330
2
100
AcDbSymbolTableRecord
100
AcDbLayerTableRecord
  2
SOLBET_Izolacja
 70
     0
 62
    40
  6
Continuous
370
    -3
390
F
1001
AcAecLayerStandard
1000

1000

  0
LAYER
  5
3E2
102
{ACAD_XDICTIONARY
360
40B
102
}
330
2
100
AcDbSymbolTableRecord
100
AcDbLayerTableRecord
  2
SOLBET_Zbrojenie_Konstrukcja
 70
     0
 62
     7
  6
Continuous
370
    -3
390
F
1001
AcAecLayerStandard
1000

1000

  0
LAYER
  5
3E4
102
{ACAD_XDICTIONARY
360
40F
102
}
330
2
100
AcDbSymbolTableRecord
100
AcDbLayerTableRecord
  2
SOLBET_Tynki_Posadzki
 70
     0
 62
     3
  6
Continuous
370
    -3
390
F
1001
AcAecLayerStandard
1000

1000

  0
LAYER
  5
3E8
102
{ACAD_XDICTIONARY
360
411
102
}
330
2
100
AcDbSymbolTableRecord
100
AcDbLayerTableRecord
  2
SOLBET_Ramka_05
 70
     0
 62
     2
  6
Continuous
370
    -3
390
F
1001
AcAecLayerStandard
1000

1000

  0
LAYER
  5
472
330
2
100
AcDbSymbolTableRecord
100
AcDbLayerTableRecord
  2
SOLBET_Zaprawy
 70
     0
 62
     4
  6
Continuous
370
    -3
390
F
1001
AcAecLayerStandard
1000

1000

  0
LAYER
  5
4E2
330
2
100
AcDbSymbolTableRecord
100
AcDbLayerTableRecord
  2
SOLBET_Emulsje_Folie
 70
     0
 62
     6
  6
Continuous
370
    -3
390
F
1001
AcAecLayerStandard
1000

1000

  0
LAYER
  5
2316
330
2
100
AcDbSymbolTableRecord
100
AcDbLayerTableRecord
  2
SOLBET_Stolarka_Okna
 70
     0
 62
     2
  6
Continuous
370
    -3
390
F
1001
AcAecLayerStandard
1000

1000

  0
LAYER
  5
2946
330
2
100
AcDbSymbolTableRecord
100
AcDbLayerTableRecord
  2
SOLBET_Beton
 70
     0
 62
     9
  6
Continuous
370
    -3
390
F
1001
AcAecLayerStandard
1000

1000

  0
LAYER
  5
2948
330
2
100
AcDbSymbolTableRecord
100
AcDbLayerTableRecord
  2
SOLBET_Grunt
 70
     0
 62
    42
  6
Continuous
370
    -3
390
F
1001
AcAecLayerStandard
1000

1000

  0
LAYER
  5
2C5F
102
{ACAD_XDICTIONARY
360
2C60
102
}
330
2
100
AcDbSymbolTableRecord
100
AcDbLayerTableRecord
  2
SOLBET_Wymiary_Opisy @ 1
 70
     0
 62
     1
  6
Continuous
370
    -3
390
F
1001
AcAecLayerStandard
1000

1000

1001
AcadAnnotativeDecomposition
1000
AnnotativeData
1002
{
1070
     1
1070
     1
1002
}
  0
ENDTAB
  0
TABLE
  2
STYLE
  5
3
330
0
100
AcDbSymbolTable
 70
     5
  0
STYLE
  5
11
330
3
100
AcDbSymbolTableRecord
100
AcDbTextStyleTableRecord
  2
Standard
 70
     0
 40
0.0
 41
1.0
 50
0.0
 71
     0
 42
2.5
  3
txt.shx
  4

  0
STYLE
  5
7D7
330
3
100
AcDbSymbolTableRecord
100
AcDbTextStyleTableRecord
  2
Solbet_5
 70
     0
 40
5.0
 41
1.0
 50
0.0
 71
     0
 42
5.0
  3
isocpeur.ttf
  4

1001
ACAD
1000
ISOCPEUR
1071
       34
  0
STYLE
  5
7D9
330
3
100
AcDbSymbolTableRecord
100
AcDbTextStyleTableRecord
  2
Solbet_2_5
 70
     0
 40
2.5
 41
1.0
 50
0.0
 71
     0
 42
2.5
  3
isocpeur.ttf
  4

1001
ACAD
1000
ISOCPEUR
1071
       34
  0
STYLE
  5
7E7
330
3
100
AcDbSymbolTableRecord
100
AcDbTextStyleTableRecord
  2

 70
     1
 40
0.0
 41
1.0
 50
0.0
 71
     0
 42
2.5
  3
ltypeshp.shx
  4

  0
STYLE
  5
28D1
330
3
100
AcDbSymbolTableRecord
100
AcDbTextStyleTableRecord
  2
Solbet_1
 70
     0
 40
1.0
 41
1.0
 50
0.0
 71
     0
 42
2.5
  3
isocpeur.ttf
  4

1001
ACAD
1000
ISOCPEUR
1071
       34
  0
ENDTAB
  0
TABLE
  2
VIEW
  5
6
330
0
100
AcDbSymbolTable
 70
     0
  0
ENDTAB
  0
TABLE
  2
UCS
  5
7
330
0
100
AcDbSymbolTable
 70
     0
  0
ENDTAB
  0
TABLE
  2
APPID
  5
9
330
0
100
AcDbSymbolTable
 70
    13
  0
APPID
  5
12
330
9
100
AcDbSymbolTableRecord
100
AcDbRegAppTableRecord
  2
ACAD
 70
     0
  0
APPID
  5
9E
330
9
100
AcDbSymbolTableRecord
100
AcDbRegAppTableRecord
  2
ACAD_PSEXT
 70
     0
  0
APPID
  5
133
330
9
100
AcDbSymbolTableRecord
100
AcDbRegAppTableRecord
  2
AcadAnnoPO
 70
     0
  0
APPID
  5
134
330
9
100
AcDbSymbolTableRecord
100
AcDbRegAppTableRecord
  2
AcadAnnotative
 70
     0
  0
APPID
  5
135
330
9
100
AcDbSymbolTableRecord
100
AcDbRegAppTableRecord
  2
ACAD_DSTYLE_DIMJAG
 70
     0
  0
APPID
  5
136
330
9
100
AcDbSymbolTableRecord
100
AcDbRegAppTableRecord
  2
ACAD_DSTYLE_DIMTALN
 70
     0
  0
APPID
  5
165
330
9
100
AcDbSymbolTableRecord
100
AcDbRegAppTableRecord
  2
ACAD_MLEADERVER
 70
     0
  0
APPID
  5
2C4
330
9
100
AcDbSymbolTableRecord
100
AcDbRegAppTableRecord
  2
ASO_SCHRAFF
 70
     0
  0
APPID
  5
3DE
330
9
100
AcDbSymbolTableRecord
100
AcDbRegAppTableRecord
  2
AcAecLayerStandard
 70
     0
  0
APPID
  5
7DE
330
9
100
AcDbSymbolTableRecord
100
AcDbRegAppTableRecord
  2
ACAD_EXEMPT_FROM_CAD_STANDARDS
 70
     0
  0
APPID
  5
948
330
9
100
AcDbSymbolTableRecord
100
AcDbRegAppTableRecord
  2
ACAD_DSTYLE_DIMBREAK
 70
     0
  0
APPID
  5
1D0A
330
9
100
AcDbSymbolTableRecord
100
AcDbRegAppTableRecord
  2
AcadAnnotativeDecomposition
 70
     0
  0
APPID
  5
2274
330
9
100
AcDbSymbolTableRecord
100
AcDbRegAppTableRecord
  2
AcDbAttr
 70
     0
  0
ENDTAB
  0
TABLE
  2
DIMSTYLE
  5
A
330
0
100
AcDbSymbolTable
 70
     2
100
AcDbDimStyleTable
 71
     1
340
949
  0
DIMSTYLE
105
949
330
A
100
AcDbSymbolTableRecord
100
AcDbDimStyleTableRecord
  2
Solbet
 70
     0
 41
2.5
 42
0.0
 43
3.75
 44
1.25
 73
     0
 74
     0
 77
     1
 78
     8
140
2.5
141
2.5
143
0.03937007874016
147
0.625
171
     3
172
     1
271
     2
272
     2
274
     3
278
    44
283
     0
284
     8
340
7D9
1001
ACAD_DSTYLE_DIMBREAK
1070
   391
1040
3.75
1001
ACAD_DSTYLE_DIMJAG
1070
   388
1040
1.5
1001
ACAD_DSTYLE_DIMTALN
1070
   392
1070
     0
  0
DIMSTYLE
105
954
330
A
100
AcDbSymbolTableRecord
100
AcDbDimStyleTableRecord
  2
Solbet$7
 70
     0
 41
2.5
 42
0.0
 43
3.75
 44
1.25
 73
     0
 74
     0
 77
     1
 78
     8
140
2.5
141
2.5
143
0.03937007874016
147
0.625
171
     3
172
     1
271
     2
272
     2
274
     3
278
    44
283
     0
284
     8
340
7D9
341
958
1001
ACAD_DSTYLE_DIMBREAK
1070
   391
1040
3.75
1001
ACAD_DSTYLE_DIMJAG
1070
   388
1040
1.5
1001
ACAD_DSTYLE_DIMTALN
1070
   392
1070
     0
  0
ENDTAB
  0
TABLE
  2
BLOCK_RECORD
  5
1
330
0
100
AcDbSymbolTable
 70
    12
  0
BLOCK_RECORD
  5
1F
102
{ACAD_XDICTIONARY
360
4A3
102
}
330
1
100
AcDbSymbolTableRecord
100
AcDbBlockTableRecord
  2
*Model_Space
340
22
  0
BLOCK_RECORD
  5
D2
330
1
100
AcDbSymbolTableRecord
100
AcDbBlockTableRecord
  2
*Paper_Space
340
D3
  0
BLOCK_RECORD
  5
D6
330
1
100
AcDbSymbolTableRecord
100
AcDbBlockTableRecord
  2
*Paper_Space0
340
D7
  0
BLOCK_RECORD
  5
958
330
1
100
AcDbSymbolTableRecord
100
AcDbBlockTableRecord
  2
_DotSmall
340
0
102
{BLKREFS
331
288E
331
2890
331
2AD2
331
2AD6
102
}
  0
BLOCK_RECORD
  5
24E6
330
1
100
AcDbSymbolTableRecord
100
AcDbBlockTableRecord
  2
*X2
340
0
102
{BLKREFS
331
26F3
102
}
  0
BLOCK_RECORD
  5
250E
330
1
100
AcDbSymbolTableRecord
100
AcDbBlockTableRecord
  2
*X3
340
0
102
{BLKREFS
331
27FB
102
}
  0
BLOCK_RECORD
  5
28D2
102
{ACAD_XDICTIONARY
360
28E0
102
}
330
1
100
AcDbSymbolTableRecord
100
AcDbBlockTableRecord
  2
SOLBET_Ksztaltka_U_420x240x500_PRA
340
0
1001
ACAD
1000
DesignCenter Data
1002
{
1070
     1
1070
     4
1002
}
  0
BLOCK_RECORD
  5
28E9
102
{ACAD_XDICTIONARY
360
28F5
102
}
330
1
100
AcDbSymbolTableRecord
100
AcDbBlockTableRecord
  2
SOLBET_Bloczek_Optimal_420x240x590_P+W_PRA
340
0
1001
ACAD
1000
DesignCenter Data
1002
{
1070
     1
1070
     4
1002
}
  0
BLOCK_RECORD
  5
2902
102
{ACAD_XDICTIONARY
360
290C
102
}
330
1
100
AcDbSymbolTableRecord
100
AcDbBlockTableRecord
  2
SOLBET_Plytka_80x240x590_brak_PRA
340
0
1001
ACAD
1000
DesignCenter Data
1002
{
1070
     1
1070
     4
1002
}
  0
BLOCK_RECORD
  5
2982
102
{ACAD_XDICTIONARY
360
298E
102
}
330
1
100
AcDbSymbolTableRecord
100
AcDbBlockTableRecord
  2
SOLBET_Bloczek_Ideal_420x240x590_P+W_PRA
340
0
1001
ACAD
1000
DesignCenter Data
1002
{
1070
     1
1070
     4
1002
}
  0
BLOCK_RECORD
  5
2C97
102
{ACAD_XDICTIONARY
360
2CA5
102
}
330
1
100
AcDbSymbolTableRecord
100
AcDbBlockTableRecord
  2
SOLBET_Ksztaltka_U_420x240x500_KG400_PRA
340
0
102
{BLKREFS
331
2CA9
102
}
1001
ACAD
1000
DesignCenter Data
1002
{
1070
     1
1070
     4
1002
}
  0
BLOCK_RECORD
  5
2CAA
102
{ACAD_XDICTIONARY
360
2CB4
102
}
330
1
100
AcDbSymbolTableRecord
100
AcDbBlockTableRecord
  2
SOLBET_Plytka_80x240x590_KG600_PRA
340
0
102
{BLKREFS
331
2CB8
102
}
1001
ACAD
1000
DesignCenter Data
1002
{
1070
     1
1070
     4
1002
}
  0
BLOCK_RECORD
  5
2CB9
102
{ACAD_XDICTIONARY
360
2CC5
102
}
330
1
100
AcDbSymbolTableRecord
100
AcDbBlockTableRecord
  2
SOLBET_Bloczek_Ideal_420x240x590_P+W_KG400_PRA
340
0
102
{BLKREFS
331
2CC9
331
2CCA
331
2CCB
102
}
1001
ACAD
1000
DesignCenter Data
1002
{
1070
     1
1070
     4
1002
}
  0
ENDTAB
  0
ENDSEC
  0
SECTION
  2
BLOCKS
  0
BLOCK
  5
20
330
1F
100
AcDbEntity
  8
0
100
AcDbBlockBegin
  2
*Model_Space
 70
     0
 10
0.0
 20
0.0
 30
0.0
  3
*Model_Space
  1

  0
ENDBLK
  5
21
330
1F
100
AcDbEntity
  8
0
100
AcDbBlockEnd
  0
BLOCK
  5
D4
330
D2
100
AcDbEntity
 67
     1
  8
0
100
AcDbBlockBegin
  2
*Paper_Space
 70
     0
 10
0.0
 20
0.0
 30
0.0
  3
*Paper_Space
  1

  0
ENDBLK
  5
D5
330
D2
100
AcDbEntity
 67
     1
  8
0
100
AcDbBlockEnd
  0
BLOCK
  5
D8
330
D6
100
AcDbEntity
 67
     1
  8
0
100
AcDbBlockBegin
  2
*Paper_Space0
 70
     0
 10
0.0
 20
0.0
 30
0.0
  3
*Paper_Space0
  1

  0
ENDBLK
  5
D9
330
D6
100
AcDbEntity
 67
     1
  8
0
100
AcDbBlockEnd
  0
BLOCK
  5
95A
330
958
100
AcDbEntity
  8
0
100
AcDbBlockBegin
  2
_DotSmall
 70
     0
 10
0.0
 20
0.0
 30
0.0
  3
_DotSmall
  1

  0
LWPOLYLINE
  5
959
330
958
100
AcDbEntity
  8
0
  6
ByBlock
 62
     0
100
AcDbPolyline
 90
        2
 70
     1
 43
0.5
 10
-0.0625
 20
0.0
 42
1.0
 10
0.0625
 20
0.0
 42
1.0
  0
ENDBLK
  5
95B
330
958
100
AcDbEntity
  8
0
100
AcDbBlockEnd
  0
BLOCK
  5
24E7
330
24E6
100
AcDbEntity
  8
0
100
AcDbBlockBegin
  2
*X2
 70
     1
 10
0.0
 20
0.0
 30
0.0
  3
*X2
  1
ASOWDBLK
  0
LINE
  5
24E8
330
24E6
100
AcDbEntity
  8
0
 62
     0
100
AcDbLine
 10
12.3679971441842
 20
9.463695206850969
 30
0.0
 11
12.37947492774574
 21
9.477373896645453
 31
0.0
  0
LINE
  5
24E9
330
24E6
100
AcDbEntity
  8
0
 62
     0
100
AcDbLine
 10
12.54731218983439
 20
9.448007173105322
 30
0.0
 11
12.55936445751601
 21
9.462370506413803
 31
0.0
  0
LINE
  5
24EA
330
24E6
100
AcDbEntity
  8
0
 62
     0
100
AcDbLine
 10
12.36799714853588
 20
9.463695209658894
 30
0.0
 11
12.38294006900726
 21
9.462387873517679
 31
0.0
  0
LINE
  5
24EB
330
24E6
100
AcDbEntity
  8
0
 62
     0
100
AcDbLine
 10
12.54731219419239
 20
9.448007175964315
 30
0.0
 11
12.56225511466377
 21
9.4466998398231
 31
0.0
  0
LINE
  5
24EC
330
24E6
100
AcDbEntity
  8
0
 62
     0
100
AcDbLine
 10
12.38294734493005
 20
9.4623781245925
 30
0.0
 11
12.38018119759329
 21
9.477373896645453
 31
0.0
  0
LINE
  5
24ED
330
24E6
100
AcDbEntity
  8
0
 62
     0
100
AcDbLine
 10
12.56226237690854
 20
9.446689950037018
 30
0.0
 11
12.55937173644585
 21
9.462360621258849
 31
0.0
  0
LINE
  5
24EE
330
24E6
100
AcDbEntity
  8
0
 62
     0
100
AcDbLine
 10
11.75616891039773
 20
9.427373896645452
 30
0.0
 11
11.76738393501053
 21
9.439062362340582
 31
0.0
  0
LINE
  5
24EF
330
24E6
100
AcDbEntity
  8
0
 62
     0
100
AcDbLine
 10
11.7687499570032
 20
9.427373896645452
 30
0.0
 11
11.76739122001888
 21
9.43905355256455
 31
0.0
  0
LINE
  5
24F0
330
24E6
100
AcDbEntity
  8
0
 62
     0
100
AcDbLine
 10
12.14321939628071
 20
9.427373896645452
 30
0.0
 11
12.16009382309612
 21
9.433851382211726
 31
0.0
  0
LINE
  5
24F1
330
24E6
100
AcDbEntity
  8
0
 62
     0
100
AcDbLine
 10
11.78330683110781
 20
9.447153917176395
 30
0.0
 11
11.80081146410463
 21
9.453873316230369
 31
0.0
  0
LINE
  5
24F2
330
24E6
100
AcDbEntity
  8
0
 62
     0
100
AcDbLine
 10
11.78330683628649
 20
9.447153915051121
 30
0.0
 11
11.79574239987482
 21
9.438766021499059
 31
0.0
  0
LINE
  5
24F3
330
24E6
100
AcDbEntity
  8
0
 62
     0
100
AcDbLine
 10
12.15793081287172
 20
9.427373896645452
 30
0.0
 11
12.16010106960009
 21
9.433841872497813
 31
0.0
  0
LINE
  5
24F4
330
24E6
100
AcDbEntity
  8
0
 62
     0
100
AcDbLine
 10
11.79574964859947
 20
9.438756799333843
 30
0.0
 11
11.8008187296486
 21
9.453864087513544
 31
0.0
  0
LINE
  5
24F5
330
24E6
100
AcDbEntity
  8
0
 62
     0
100
AcDbLine
 10
12.20471516834098
 20
9.445898146433325
 30
0.0
 11
12.20471516834098
 21
9.445898146433325
 31
0.0
  0
LINE
  5
24F6
330
24E6
100
AcDbEntity
  8
0
 62
     0
100
AcDbLine
 10
12.07635598518457
 20
9.428295498211584
 30
0.0
 11
12.07635598518457
 21
9.428295498211584
 31
0.0
  0
LINE
  5
24F7
330
24E6
100
AcDbEntity
  8
0
 62
     0
100
AcDbLine
 10
11.82327259770628
 20
9.476770236297685
 30
0.0
 11
11.82327259770628
 21
9.476770236297685
 31
0.0
  0
LINE
  5
24F8
330
24E6
100
AcDbEntity
  8
0
 62
     0
100
AcDbLine
 10
11.69491341454987
 20
9.459167588075944
 30
0.0
 11
11.69491341454987
 21
9.459167588075944
 31
0.0
  0
LINE
  5
24F9
330
24E6
100
AcDbEntity
  8
0
 62
     0
100
AcDbLine
 10
11.56506669388041
 20
9.44042351217481
 30
0.0
 11
11.56506669388041
 21
9.44042351217481
 31
0.0
  0
LINE
  5
24FA
330
24E6
100
AcDbEntity
  8
0
 62
     0
100
AcDbLine
 10
12.33099179897913
 20
9.461902795903919
 30
0.0
 11
12.33099179897913
 21
9.461902795903919
 31
0.0
  0
LINE
  5
24FB
330
24E6
100
AcDbEntity
  8
0
 62
     0
100
AcDbLine
 10
12.27744372398571
 20
9.441526547948372
 30
0.0
 11
12.27744372398571
 21
9.441526547948372
 31
0.0
  0
LINE
  5
24FC
330
24E6
100
AcDbEntity
  8
0
 62
     0
100
AcDbLine
 10
12.34002868085993
 20
9.449766013832263
 30
0.0
 11
12.34002868085993
 21
9.449766013832263
 31
0.0
  0
LINE
  5
24FD
330
24E6
100
AcDbEntity
  8
0
 62
     0
100
AcDbLine
 10
12.43471166512113
 20
9.462231265189277
 30
0.0
 11
12.43471166512113
 21
9.462231265189277
 31
0.0
  0
LINE
  5
24FE
330
24E6
100
AcDbEntity
  8
0
 62
     0
100
AcDbLine
 10
11.55501244355407
 20
9.436361153104019
 30
0.0
 11
11.55501244355407
 21
9.436361153104019
 31
0.0
  0
LINE
  5
24FF
330
24E6
100
AcDbEntity
  8
0
 62
     0
100
AcDbLine
 10
11.71290003772785
 20
9.457147449215062
 30
0.0
 11
11.71290003772785
 21
9.457147449215062
 31
0.0
  0
LINE
  5
2500
330
24E6
100
AcDbEntity
  8
0
 62
     0
100
AcDbLine
 10
11.77548499460207
 20
9.465386915098953
 30
0.0
 11
11.77548499460207
 21
9.465386915098953
 31
0.0
  0
LINE
  5
2501
330
24E6
100
AcDbEntity
  8
0
 62
     0
100
AcDbLine
 10
12.00720232847171
 20
9.461538266747048
 30
0.0
 11
12.00720232847171
 21
9.461538266747048
 31
0.0
  0
LINE
  5
2502
330
24E6
100
AcDbEntity
  8
0
 62
     0
100
AcDbLine
 10
12.14065793751482
 20
9.455899548813453
 30
0.0
 11
12.14065793751482
 21
9.455899548813453
 31
0.0
  0
LINE
  5
2503
330
24E6
100
AcDbEntity
  8
0
 62
     0
100
AcDbLine
 10
12.27411354655792
 20
9.450260830879859
 30
0.0
 11
12.27411354655792
 21
9.450260830879859
 31
0.0
  0
LINE
  5
2504
330
24E6
100
AcDbEntity
  8
0
 62
     0
100
AcDbLine
 10
12.40756915560102
 20
9.444622112946266
 30
0.0
 11
12.40756915560102
 21
9.444622112946266
 31
0.0
  0
LINE
  5
2505
330
24E6
100
AcDbEntity
  8
0
 62
     0
100
AcDbLine
 10
12.54102476464413
 20
9.438983395012668
 30
0.0
 11
12.54102476464413
 21
9.438983395012668
 31
0.0
  0
LINE
  5
2506
330
24E6
100
AcDbEntity
  8
0
 62
     0
100
AcDbLine
 10
12.67448037368723
 20
9.433344677079073
 30
0.0
 11
12.67448037368723
 21
9.433344677079073
 31
0.0
  0
LINE
  5
2507
330
24E6
100
AcDbEntity
  8
0
 62
     0
100
AcDbLine
 10
11.87374671942861
 20
9.467176984680643
 30
0.0
 11
11.87374671942861
 21
9.467176984680643
 31
0.0
  0
LINE
  5
2508
330
24E6
100
AcDbEntity
  8
0
 62
     0
100
AcDbLine
 10
11.74029111038551
 20
9.472815702614237
 30
0.0
 11
11.74029111038551
 21
9.472815702614237
 31
0.0
  0
LINE
  5
2509
330
24E6
100
AcDbEntity
  8
0
 62
     0
100
AcDbLine
 10
12.47470767275208
 20
9.433432165767177
 30
0.0
 11
12.47470767275208
 21
9.433432165767177
 31
0.0
  0
LINE
  5
250A
330
24E6
100
AcDbEntity
  8
0
 62
     0
100
AcDbLine
 10
12.62050421508768
 20
9.458458411350253
 30
0.0
 11
12.62050421508768
 21
9.458458411350253
 31
0.0
  0
LINE
  5
250B
330
24E6
100
AcDbEntity
  8
0
 62
     0
100
AcDbLine
 10
11.75604679277084
 20
9.457466884084235
 30
0.0
 11
11.75604679277084
 21
9.457466884084235
 31
0.0
  0
LINE
  5
250C
330
24E6
100
AcDbEntity
  8
0
 62
     0
100
AcDbLine
 10
11.61025025043524
 20
9.432440638501157
 30
0.0
 11
11.61025025043524
 21
9.432440638501157
 31
0.0
  0
ENDBLK
  5
250D
330
24E6
100
AcDbEntity
  8
0
100
AcDbBlockEnd
  0
BLOCK
  5
250F
330
250E
100
AcDbEntity
  8
0
100
AcDbBlockBegin
  2
*X3
 70
     1
 10
0.0
 20
0.0
 30
0.0
  3
*X3
  1
ASOWDBLK
  0
LINE
  5
2510
330
250E
100
AcDbEntity
  8
0
 62
     0
100
AcDbLine
 10
11.99304811965889
 20
9.120426821088543
 30
0.0
 11
12.03304811965889
 21
9.16042682108854
 31
0.0
  0
LINE
  5
2511
330
250E
100
AcDbEntity
  8
0
 62
     0
100
AcDbLine
 10
11.94885394583473
 20
9.120426821088543
 30
0.0
 11
11.98885394583473
 21
9.16042682108854
 31
0.0
  0
LINE
  5
2512
330
250E
100
AcDbEntity
  8
0
 62
     0
100
AcDbLine
 10
11.90465977201057
 20
9.120426821088543
 30
0.0
 11
11.94465977201057
 21
9.16042682108854
 31
0.0
  0
LINE
  5
2513
330
250E
100
AcDbEntity
  8
0
 62
     0
100
AcDbLine
 10
11.86046559818641
 20
9.120426821088543
 30
0.0
 11
11.90046559818641
 21
9.16042682108854
 31
0.0
  0
LINE
  5
2514
330
250E
100
AcDbEntity
  8
0
 62
     0
100
AcDbLine
 10
11.81627142436225
 20
9.120426821088543
 30
0.0
 11
11.85627142436225
 21
9.16042682108854
 31
0.0
  0
LINE
  5
2515
330
250E
100
AcDbEntity
  8
0
 62
     0
100
AcDbLine
 10
11.77207725053809
 20
9.120426821088543
 30
0.0
 11
11.81207725053809
 21
9.16042682108854
 31
0.0
  0
LINE
  5
2516
330
250E
100
AcDbEntity
  8
0
 62
     0
100
AcDbLine
 10
11.72788307671393
 20
9.120426821088543
 30
0.0
 11
11.76788307671393
 21
9.16042682108854
 31
0.0
  0
LINE
  5
2517
330
250E
100
AcDbEntity
  8
0
 62
     0
100
AcDbLine
 10
11.68368890288977
 20
9.120426821088543
 30
0.0
 11
11.72368890288977
 21
9.16042682108854
 31
0.0
  0
LINE
  5
2518
330
250E
100
AcDbEntity
  8
0
 62
     0
100
AcDbLine
 10
11.63949472906562
 20
9.120426821088543
 30
0.0
 11
11.67949472906562
 21
9.16042682108854
 31
0.0
  0
LINE
  5
2519
330
250E
100
AcDbEntity
  8
0
 62
     0
100
AcDbLine
 10
11.59530055524146
 20
9.120426821088543
 30
0.0
 11
11.63530055524145
 21
9.16042682108854
 31
0.0
  0
LINE
  5
251A
330
250E
100
AcDbEntity
  8
0
 62
     0
100
AcDbLine
 10
11.5511063814173
 20
9.120426821088543
 30
0.0
 11
11.59110638141729
 21
9.16042682108854
 31
0.0
  0
LINE
  5
251B
330
250E
100
AcDbEntity
  8
0
 62
     0
100
AcDbLine
 10
11.50691220759314
 20
9.120426821088543
 30
0.0
 11
11.54691220759314
 21
9.16042682108854
 31
0.0
  0
LINE
  5
251C
330
250E
100
AcDbEntity
  8
0
 62
     0
100
AcDbLine
 10
11.46271803376898
 20
9.120426821088543
 30
0.0
 11
11.50271803376898
 21
9.16042682108854
 31
0.0
  0
LINE
  5
251D
330
250E
100
AcDbEntity
  8
0
 62
     0
100
AcDbLine
 10
11.41852385994482
 20
9.120426821088543
 30
0.0
 11
11.45852385994482
 21
9.16042682108854
 31
0.0
  0
LINE
  5
251E
330
250E
100
AcDbEntity
  8
0
 62
     0
100
AcDbLine
 10
11.39401831761913
 20
9.140115452587011
 30
0.0
 11
11.41432968612066
 21
9.16042682108854
 31
0.0
  0
LINE
  5
251F
330
250E
100
AcDbEntity
  8
0
 62
     0
100
AcDbLine
 10
12.03724229348305
 20
9.120426821088543
 30
0.0
 11
12.07724229348305
 21
9.16042682108854
 31
0.0
  0
LINE
  5
2520
330
250E
100
AcDbEntity
  8
0
 62
     0
100
AcDbLine
 10
12.08143646730721
 20
9.120426821088543
 30
0.0
 11
12.12143646730721
 21
9.16042682108854
 31
0.0
  0
LINE
  5
2521
330
250E
100
AcDbEntity
  8
0
 62
     0
100
AcDbLine
 10
12.12563064113137
 20
9.120426821088543
 30
0.0
 11
12.16563064113137
 21
9.16042682108854
 31
0.0
  0
LINE
  5
2522
330
250E
100
AcDbEntity
  8
0
 62
     0
100
AcDbLine
 10
12.16982481495553
 20
9.120426821088543
 30
0.0
 11
12.20982481495552
 21
9.16042682108854
 31
0.0
  0
LINE
  5
2523
330
250E
100
AcDbEntity
  8
0
 62
     0
100
AcDbLine
 10
12.21401898877969
 20
9.120426821088543
 30
0.0
 11
12.25401898877968
 21
9.16042682108854
 31
0.0
  0
LINE
  5
2524
330
250E
100
AcDbEntity
  8
0
 62
     0
100
AcDbLine
 10
12.25821316260385
 20
9.120426821088543
 30
0.0
 11
12.29821316260384
 21
9.16042682108854
 31
0.0
  0
LINE
  5
2525
330
250E
100
AcDbEntity
  8
0
 62
     0
100
AcDbLine
 10
12.302407336428
 20
9.120426821088543
 30
0.0
 11
12.342407336428
 21
9.16042682108854
 31
0.0
  0
LINE
  5
2526
330
250E
100
AcDbEntity
  8
0
 62
     0
100
AcDbLine
 10
12.34660151025216
 20
9.120426821088543
 30
0.0
 11
12.38660151025216
 21
9.16042682108854
 31
0.0
  0
LINE
  5
2527
330
250E
100
AcDbEntity
  8
0
 62
     0
100
AcDbLine
 10
12.39079568407632
 20
9.120426821088543
 30
0.0
 11
12.43079568407632
 21
9.16042682108854
 31
0.0
  0
LINE
  5
2528
330
250E
100
AcDbEntity
  8
0
 62
     0
100
AcDbLine
 10
12.43498985790048
 20
9.120426821088543
 30
0.0
 11
12.47498985790048
 21
9.16042682108854
 31
0.0
  0
LINE
  5
2529
330
250E
100
AcDbEntity
  8
0
 62
     0
100
AcDbLine
 10
12.47918403172464
 20
9.120426821088543
 30
0.0
 11
12.51918403172464
 21
9.16042682108854
 31
0.0
  0
LINE
  5
252A
330
250E
100
AcDbEntity
  8
0
 62
     0
100
AcDbLine
 10
12.5233782055488
 20
9.120426821088543
 30
0.0
 11
12.5633782055488
 21
9.16042682108854
 31
0.0
  0
LINE
  5
252B
330
250E
100
AcDbEntity
  8
0
 62
     0
100
AcDbLine
 10
12.56757237937296
 20
9.120426821088543
 30
0.0
 11
12.60757237937296
 21
9.16042682108854
 31
0.0
  0
LINE
  5
252C
330
250E
100
AcDbEntity
  8
0
 62
     0
100
AcDbLine
 10
12.61176655319712
 20
9.120426821088543
 30
0.0
 11
12.65176655319712
 21
9.16042682108854
 31
0.0
  0
LINE
  5
252D
330
250E
100
AcDbEntity
  8
0
 62
     0
100
AcDbLine
 10
12.65596072702128
 20
9.120426821088543
 30
0.0
 11
12.68399674713724
 21
9.1484628412045
 31
0.0
  0
LINE
  5
252E
330
250E
100
AcDbEntity
  8
0
 62
     0
100
AcDbLine
 10
12.04858244068372
 20
9.120426821088543
 30
0.0
 11
12.00858244068372
 21
9.16042682108854
 31
0.0
  0
LINE
  5
252F
330
250E
100
AcDbEntity
  8
0
 62
     0
100
AcDbLine
 10
12.00438826685956
 20
9.120426821088543
 30
0.0
 11
11.96438826685956
 21
9.16042682108854
 31
0.0
  0
LINE
  5
2530
330
250E
100
AcDbEntity
  8
0
 62
     0
100
AcDbLine
 10
11.9601940930354
 20
9.120426821088543
 30
0.0
 11
11.9201940930354
 21
9.16042682108854
 31
0.0
  0
LINE
  5
2531
330
250E
100
AcDbEntity
  8
0
 62
     0
100
AcDbLine
 10
11.91599991921124
 20
9.120426821088543
 30
0.0
 11
11.87599991921124
 21
9.16042682108854
 31
0.0
  0
LINE
  5
2532
330
250E
100
AcDbEntity
  8
0
 62
     0
100
AcDbLine
 10
11.87180574538708
 20
9.120426821088543
 30
0.0
 11
11.83180574538708
 21
9.16042682108854
 31
0.0
  0
LINE
  5
2533
330
250E
100
AcDbEntity
  8
0
 62
     0
100
AcDbLine
 10
11.82761157156292
 20
9.120426821088543
 30
0.0
 11
11.78761157156293
 21
9.16042682108854
 31
0.0
  0
LINE
  5
2534
330
250E
100
AcDbEntity
  8
0
 62
     0
100
AcDbLine
 10
11.78341739773876
 20
9.120426821088543
 30
0.0
 11
11.74341739773877
 21
9.16042682108854
 31
0.0
  0
LINE
  5
2535
330
250E
100
AcDbEntity
  8
0
 62
     0
100
AcDbLine
 10
11.7392232239146
 20
9.120426821088543
 30
0.0
 11
11.69922322391461
 21
9.16042682108854
 31
0.0
  0
LINE
  5
2536
330
250E
100
AcDbEntity
  8
0
 62
     0
100
AcDbLine
 10
11.69502905009045
 20
9.120426821088543
 30
0.0
 11
11.65502905009045
 21
9.16042682108854
 31
0.0
  0
LINE
  5
2537
330
250E
100
AcDbEntity
  8
0
 62
     0
100
AcDbLine
 10
11.65083487626629
 20
9.120426821088543
 30
0.0
 11
11.61083487626629
 21
9.16042682108854
 31
0.0
  0
LINE
  5
2538
330
250E
100
AcDbEntity
  8
0
 62
     0
100
AcDbLine
 10
11.60664070244213
 20
9.120426821088543
 30
0.0
 11
11.56664070244213
 21
9.16042682108854
 31
0.0
  0
LINE
  5
2539
330
250E
100
AcDbEntity
  8
0
 62
     0
100
AcDbLine
 10
11.56244652861797
 20
9.120426821088543
 30
0.0
 11
11.52244652861797
 21
9.16042682108854
 31
0.0
  0
LINE
  5
253A
330
250E
100
AcDbEntity
  8
0
 62
     0
100
AcDbLine
 10
11.51825235479381
 20
9.120426821088543
 30
0.0
 11
11.47825235479381
 21
9.16042682108854
 31
0.0
  0
LINE
  5
253B
330
250E
100
AcDbEntity
  8
0
 62
     0
100
AcDbLine
 10
11.47405818096965
 20
9.120426821088543
 30
0.0
 11
11.43405818096965
 21
9.16042682108854
 31
0.0
  0
LINE
  5
253C
330
250E
100
AcDbEntity
  8
0
 62
     0
100
AcDbLine
 10
11.42986400714549
 20
9.120426821088543
 30
0.0
 11
11.39401831761913
 21
9.156272510614906
 31
0.0
  0
LINE
  5
253D
330
250E
100
AcDbEntity
  8
0
 62
     0
100
AcDbLine
 10
12.09277661450788
 20
9.120426821088543
 30
0.0
 11
12.05277661450788
 21
9.16042682108854
 31
0.0
  0
LINE
  5
253E
330
250E
100
AcDbEntity
  8
0
 62
     0
100
AcDbLine
 10
12.13697078833203
 20
9.120426821088543
 30
0.0
 11
12.09697078833204
 21
9.16042682108854
 31
0.0
  0
LINE
  5
253F
330
250E
100
AcDbEntity
  8
0
 62
     0
100
AcDbLine
 10
12.1811649621562
 20
9.120426821088543
 30
0.0
 11
12.1411649621562
 21
9.16042682108854
 31
0.0
  0
LINE
  5
2540
330
250E
100
AcDbEntity
  8
0
 62
     0
100
AcDbLine
 10
12.22535913598036
 20
9.120426821088543
 30
0.0
 11
12.18535913598036
 21
9.16042682108854
 31
0.0
  0
LINE
  5
2541
330
250E
100
AcDbEntity
  8
0
 62
     0
100
AcDbLine
 10
12.26955330980451
 20
9.120426821088543
 30
0.0
 11
12.22955330980451
 21
9.16042682108854
 31
0.0
  0
LINE
  5
2542
330
250E
100
AcDbEntity
  8
0
 62
     0
100
AcDbLine
 10
12.31374748362867
 20
9.120426821088543
 30
0.0
 11
12.27374748362868
 21
9.16042682108854
 31
0.0
  0
LINE
  5
2543
330
250E
100
AcDbEntity
  8
0
 62
     0
100
AcDbLine
 10
12.35794165745283
 20
9.120426821088543
 30
0.0
 11
12.31794165745283
 21
9.16042682108854
 31
0.0
  0
LINE
  5
2544
330
250E
100
AcDbEntity
  8
0
 62
     0
100
AcDbLine
 10
12.40213583127699
 20
9.120426821088543
 30
0.0
 11
12.36213583127699
 21
9.16042682108854
 31
0.0
  0
LINE
  5
2545
330
250E
100
AcDbEntity
  8
0
 62
     0
100
AcDbLine
 10
12.44633000510115
 20
9.120426821088543
 30
0.0
 11
12.40633000510115
 21
9.16042682108854
 31
0.0
  0
LINE
  5
2546
330
250E
100
AcDbEntity
  8
0
 62
     0
100
AcDbLine
 10
12.49052417892531
 20
9.120426821088543
 30
0.0
 11
12.45052417892531
 21
9.16042682108854
 31
0.0
  0
LINE
  5
2547
330
250E
100
AcDbEntity
  8
0
 62
     0
100
AcDbLine
 10
12.53471835274947
 20
9.120426821088543
 30
0.0
 11
12.49471835274947
 21
9.16042682108854
 31
0.0
  0
LINE
  5
2548
330
250E
100
AcDbEntity
  8
0
 62
     0
100
AcDbLine
 10
12.57891252657363
 20
9.120426821088543
 30
0.0
 11
12.53891252657363
 21
9.16042682108854
 31
0.0
  0
LINE
  5
2549
330
250E
100
AcDbEntity
  8
0
 62
     0
100
AcDbLine
 10
12.62310670039779
 20
9.120426821088543
 30
0.0
 11
12.58310670039779
 21
9.16042682108854
 31
0.0
  0
LINE
  5
254A
330
250E
100
AcDbEntity
  8
0
 62
     0
100
AcDbLine
 10
12.66730087422195
 20
9.120426821088543
 30
0.0
 11
12.62730087422195
 21
9.16042682108854
 31
0.0
  0
LINE
  5
254B
330
250E
100
AcDbEntity
  8
0
 62
     0
100
AcDbLine
 10
12.68399674713724
 20
9.147925121997415
 30
0.0
 11
12.67149504804611
 21
9.16042682108854
 31
0.0
  0
ENDBLK
  5
254C
330
250E
100
AcDbEntity
  8
0
100
AcDbBlockEnd
  0
BLOCK
  5
28E2
330
28D2
100
AcDbEntity
  8
0
100
AcDbBlockBegin
  2
SOLBET_Ksztaltka_U_420x240x500_PRA
 70
     2
 10
0.0
 20
0.0
 30
0.0
  3
SOLBET_Ksztaltka_U_420x240x500_PRA
  1

  0
ATTDEF
  5
28D3
330
28D2
100
AcDbEntity
  8
SOLBET_Wymiary_Opisy
100
AcDbText
 10
-0.0000000476806008
 20
4.790718044940628
 30
0.0
 40
0.9913121336814832
  1
420x240x500
  7
Solbet_1
100
AcDbAttributeDefinition
  3

  2
WYMIARY
 70
     3
1001
AcDbAttr
1070
     0
1070
     1
  0
ATTDEF
  5
28D4
330
28D2
100
AcDbEntity
  8
SOLBET_Wymiary_Opisy
100
AcDbText
 10
-0.0000000476806008
 20
3.27819863722453
 30
0.0
 40
0.9913121336814832
  1
400
  7
Solbet_1
100
AcDbAttributeDefinition
  3

  2
KLASA_GĘSTOŚCI
 70
     3
1001
AcDbAttr
1070
     0
1070
     1
  0
ATTDEF
  5
28D5
330
28D2
100
AcDbEntity
  8
SOLBET_Wymiary_Opisy
100
AcDbText
 10
-0.0000000476806008
 20
0.2448648003876223
 30
0.0
 40
0.9913121336814832
  1
SOLBET
  7
Solbet_1
100
AcDbAttributeDefinition
  3

  2
FIRMA
 70
     3
1001
AcDbAttr
1070
     0
1070
     1
  0
ATTDEF
  5
28D6
330
28D2
100
AcDbEntity
  8
SOLBET_Wymiary_Opisy
100
AcDbText
 10
-0.0000000476806008
 20
6.347422594011662
 30
0.0
 40
0.9913121336814832
  1
Kształtka U
  7
Solbet_1
100
AcDbAttributeDefinition
  3
Nazwa
  2
NAZWA
 70
     3
1001
AcDbAttr
1070
     0
1070
     1
  0
ATTDEF
  5
28D7
330
28D2
100
AcDbEntity
  8
SOLBET_Wymiary_Opisy
100
AcDbText
 10
-0.0000000476806008
 20
1.744181559914735
 30
0.0
 40
0.9913121336814832
  1
Prawo
  7
Solbet_1
100
AcDbAttributeDefinition
  3

  2
WIDOK
 70
    11
1001
AcDbAttr
1070
     0
1070
     1
  0
LINE
  5
28D8
330
28D2
100
AcDbEntity
  8
SOLBET_Bloczki
100
AcDbLine
 10
0.0000011705760737
 20
20.99999992050084
 30
0.0
 11
12.00000117057607
 21
20.99999992050084
 31
0.0
  0
LINE
  5
28D9
330
28D2
100
AcDbEntity
  8
SOLBET_Bloczki
100
AcDbLine
 10
12.00000117057607
 20
20.99999992050084
 30
0.0
 11
12.00000117057607
 21
-0.0000000794991628
 31
0.0
  0
LINE
  5
28DA
330
28D2
100
AcDbEntity
  8
SOLBET_Bloczki
100
AcDbLine
 10
12.00000117057607
 20
-0.0000000794991628
 30
0.0
 11
0.0000011705760699
 21
-0.0000000794991593
 31
0.0
  0
LINE
  5
28DB
330
28D2
100
AcDbEntity
  8
SOLBET_Bloczki
100
AcDbLine
 10
0.0000011705760699
 20
-0.0000000794991593
 30
0.0
 11
0.0000011705760706
 21
3.99999992050084
 31
0.0
  0
LINE
  5
28DC
330
28D2
100
AcDbEntity
  8
SOLBET_Bloczki
100
AcDbLine
 10
0.0000011705760737
 20
20.99999992050084
 30
0.0
 11
0.000001170576073
 21
16.99999992050084
 31
0.0
  0
LINE
  5
28DD
330
28D2
100
AcDbEntity
  8
SOLBET_Bloczki
100
AcDbLine
 10
8.000001170576073
 20
16.99999992050084
 30
0.0
 11
8.000001170576069
 21
3.99999992050084
 31
0.0
  0
LINE
  5
28DE
330
28D2
100
AcDbEntity
  8
SOLBET_Bloczki
100
AcDbLine
 10
0.000001170576073
 20
16.99999992050084
 30
0.0
 11
8.000001170576073
 21
16.99999992050084
 31
0.0
  0
LINE
  5
28DF
330
28D2
100
AcDbEntity
  8
SOLBET_Bloczki
100
AcDbLine
 10
0.0000011705760706
 20
3.99999992050084
 30
0.0
 11
8.000001170576069
 21
3.99999992050084
 31
0.0
  0
ENDBLK
  5
28E3
330
28D2
100
AcDbEntity
  8
0
100
AcDbBlockEnd
  0
BLOCK
  5
28F7
330
28E9
100
AcDbEntity
  8
0
100
AcDbBlockBegin
  2
SOLBET_Bloczek_Optimal_420x240x590_P+W_PRA
 70
     2
 10
0.0
 20
0.0
 30
0.0
  3
SOLBET_Bloczek_Optimal_420x240x590_P+W_PRA
  1

  0
ATTDEF
  5
28EA
330
28E9
100
AcDbEntity
  8
SOLBET_Wymiary_Opisy
100
AcDbText
 10
-0.0000000703746536
 20
6.303237281370451
 30
0.0
 40
0.9913121336814832
  1
420x240x590
  7
Solbet_1
100
AcDbAttributeDefinition
  3

  2
WYMIARY
 70
     3
1001
AcDbAttr
1070
     0
1070
     1
  0
ATTDEF
  5
28EB
330
28E9
100
AcDbEntity
  8
SOLBET_Wymiary_Opisy
100
AcDbText
 10
-0.0000000703746536
 20
4.790717873654354
 30
0.0
 40
0.9913121336814832
  1
400
  7
Solbet_1
100
AcDbAttributeDefinition
  3

  2
KLASA_GĘSTOŚCI
 70
     9
1001
AcDbAttr
1070
     0
1070
     1
  0
ATTDEF
  5
28EC
330
28E9
100
AcDbEntity
  8
SOLBET_Wymiary_Opisy
100
AcDbText
 10
-0.0000000703746536
 20
3.269569038442127
 30
0.0
 40
0.9913121336814832
  1
Pióra+Wpusty
  7
Solbet_1
100
AcDbAttributeDefinition
  3

  2
PROFILOWANIE
 70
     3
1001
AcDbAttr
1070
     0
1070
     1
  0
ATTDEF
  5
28ED
330
28E9
100
AcDbEntity
  8
SOLBET_Wymiary_Opisy
100
AcDbText
 10
-0.0000000703746536
 20
0.2448646291013483
 30
0.0
 40
0.9913121336814832
  1
SOLBET
  7
Solbet_1
100
AcDbAttributeDefinition
  3

  2
FIRMA
 70
     3
1001
AcDbAttr
1070
     0
1070
     1
  0
ATTDEF
  5
28EE
330
28E9
100
AcDbEntity
  8
SOLBET_Wymiary_Opisy
100
AcDbText
 10
-0.0000000703746536
 20
9.333547279718283
 30
0.0
 40
0.9913121336814832
  1
Bloczek
  7
Solbet_1
100
AcDbAttributeDefinition
  3
Nazwa
  2
NAZWA
 70
     3
1001
AcDbAttr
1070
     0
1070
     1
  0
ATTDEF
  5
28EF
330
28E9
100
AcDbEntity
  8
SOLBET_Wymiary_Opisy
100
AcDbText
 10
-0.0000000703746536
 20
7.794499099484078
 30
0.0
 40
0.9913121336814832
  1
OPTIMAL
  7
Solbet_1
100
AcDbAttributeDefinition
  3

  2
SYSTEM
 70
     3
1001
AcDbAttr
1070
     0
1070
     1
  0
ATTDEF
  5
28F0
330
28E9
100
AcDbEntity
  8
SOLBET_Wymiary_Opisy
100
AcDbText
 10
-0.0000000703746536
 20
1.74418138862846
 30
0.0
 40
0.9913121336814832
  1
Prawo
  7
Solbet_1
100
AcDbAttributeDefinition
  3

  2
WIDOK
 70
    11
1001
AcDbAttr
1070
     0
1070
     1
  0
LINE
  5
28F1
330
28E9
100
AcDbEntity
  8
SOLBET_Bloczki
100
AcDbLine
 10
21.00000014074931
 20
12.00000020414847
 30
0.0
 11
21.00000014074931
 21
0.000000204148364
 31
0.0
  0
LINE
  5
28F2
330
28E9
100
AcDbEntity
  8
SOLBET_Bloczki
100
AcDbLine
 10
21.00000014074931
 20
12.00000020414847
 30
0.0
 11
0.0000001407493072
 21
12.00000020414847
 31
0.0
  0
LINE
  5
28F3
330
28E9
100
AcDbEntity
  8
SOLBET_Bloczki
100
AcDbLine
 10
0.0000001407493072
 20
12.00000020414847
 30
0.0
 11
0.0000001407493072
 21
0.000000204148364
 31
0.0
  0
LINE
  5
28F4
330
28E9
100
AcDbEntity
  8
SOLBET_Bloczki
100
AcDbLine
 10
0.0000001407493072
 20
0.000000204148364
 30
0.0
 11
21.00000014074931
 21
0.000000204148364
 31
0.0
  0
ENDBLK
  5
28F8
330
28E9
100
AcDbEntity
  8
0
100
AcDbBlockEnd
  0
BLOCK
  5
290E
330
2902
100
AcDbEntity
  8
0
100
AcDbBlockBegin
  2
SOLBET_Plytka_80x240x590_brak_PRA
 70
     2
 10
0.0
 20
0.0
 30
0.0
  3
SOLBET_Plytka_80x240x590_brak_PRA
  1

  0
ATTDEF
  5
2903
330
2902
100
AcDbEntity
  8
SOLBET_Wymiary_Opisy
100
AcDbText
 10
0.0000000947117284
 20
4.975188798271157
 30
0.0
 40
1.029483505648801
  1
80x240x590
  7
Solbet_1
100
AcDbAttributeDefinition
  3

  2
WYMIARY
 70
     3
1001
AcDbAttr
1070
     0
1070
     1
  0
ATTDEF
  5
2904
330
2902
100
AcDbEntity
  8
SOLBET_Wymiary_Opisy
100
AcDbText
 10
0.0000000947117284
 20
3.40442846021831
 30
0.0
 40
1.029483505648801
  1
600
  7
Solbet_1
100
AcDbAttributeDefinition
  3

  2
KLASA_GĘSTOŚCI
 70
     3
1001
AcDbAttr
1070
     0
1070
     1
  0
ATTDEF
  5
2905
330
2902
100
AcDbEntity
  8
SOLBET_Wymiary_Opisy
100
AcDbText
 10
0.0000000947117284
 20
0.2542933553923256
 30
0.0
 40
1.029483505648801
  1
SOLBET
  7
Solbet_1
100
AcDbAttributeDefinition
  3

  2
FIRMA
 70
     3
1001
AcDbAttr
1070
     0
1070
     1
  0
ATTDEF
  5
2906
330
2902
100
AcDbEntity
  8
SOLBET_Wymiary_Opisy
100
AcDbText
 10
-0.0000001564046322
 20
6.512920961642439
 30
0.0
 40
1.029483505648801
  1
Płytka
  7
Solbet_1
100
AcDbAttributeDefinition
  3
Nazwa
  2
NAZWA
 70
     3
1001
AcDbAttr
1070
     0
1070
     1
  0
ATTDEF
  5
2907
330
2902
100
AcDbEntity
  8
SOLBET_Wymiary_Opisy
100
AcDbText
 10
0.0000000947117284
 20
1.811342665324326
 30
0.0
 40
1.029483505648801
  1
Prawo
  7
Solbet_1
100
AcDbAttributeDefinition
  3

  2
WIDOK
 70
    11
1001
AcDbAttr
1070
     0
1070
     1
  0
LINE
  5
2908
330
2902
100
AcDbEntity
  8
SOLBET_Bloczki
100
AcDbLine
 10
3.999999830192336
 20
12.00000020463494
 30
0.0
 11
3.999999830192336
 21
0.0000002046349437
 31
0.0
  0
LINE
  5
2909
330
2902
100
AcDbEntity
  8
SOLBET_Bloczki
100
AcDbLine
 10
3.999999830192336
 20
0.0000002046349437
 30
0.0
 11
-0.000000169807663
 21
0.0000002046349437
 31
0.0
  0
LINE
  5
290A
330
2902
100
AcDbEntity
  8
SOLBET_Bloczki
100
AcDbLine
 10
-0.000000169807663
 20
0.0000002046349437
 30
0.0
 11
-0.000000169807663
 21
12.00000020463517
 31
0.0
  0
LINE
  5
290B
330
2902
100
AcDbEntity
  8
SOLBET_Bloczki
100
AcDbLine
 10
-0.000000169807663
 20
12.00000020463517
 30
0.0
 11
3.999999830192336
 21
12.00000020463517
 31
0.0
  0
ENDBLK
  5
290F
330
2902
100
AcDbEntity
  8
0
100
AcDbBlockEnd
  0
BLOCK
  5
2990
330
2982
100
AcDbEntity
  8
0
100
AcDbBlockBegin
  2
SOLBET_Bloczek_Ideal_420x240x590_P+W_PRA
 70
     2
 10
0.0
 20
0.0
 30
0.0
  3
SOLBET_Bloczek_Ideal_420x240x590_P+W_PRA
  1

  0
ATTDEF
  5
2983
330
2982
100
AcDbEntity
  8
SOLBET_Wymiary_Opisy
100
AcDbText
 10
-0.0000000703746536
 20
6.303237281370451
 30
0.0
 40
0.9913121336814832
  1
420x240x590
  7
Solbet_1
100
AcDbAttributeDefinition
  3

  2
WYMIARY
 70
     3
1001
AcDbAttr
1070
     0
1070
     1
  0
ATTDEF
  5
2984
330
2982
100
AcDbEntity
  8
SOLBET_Wymiary_Opisy
100
AcDbText
 10
-0.0000000703746536
 20
4.790717873654354
 30
0.0
 40
0.9913121336814832
  1
400
  7
Solbet_1
100
AcDbAttributeDefinition
  3

  2
KLASA_GĘSTOŚCI
 70
     9
1001
AcDbAttr
1070
     0
1070
     1
  0
ATTDEF
  5
2985
330
2982
100
AcDbEntity
  8
SOLBET_Wymiary_Opisy
100
AcDbText
 10
-0.0000000703746536
 20
3.269569038442127
 30
0.0
 40
0.9913121336814832
  1
Pióra+Wpusty
  7
Solbet_1
100
AcDbAttributeDefinition
  3

  2
PROFILOWANIE
 70
     3
1001
AcDbAttr
1070
     0
1070
     1
  0
ATTDEF
  5
2986
330
2982
100
AcDbEntity
  8
SOLBET_Wymiary_Opisy
100
AcDbText
 10
-0.0000000703746536
 20
0.2448646291013483
 30
0.0
 40
0.9913121336814832
  1
SOLBET
  7
Solbet_1
100
AcDbAttributeDefinition
  3

  2
FIRMA
 70
     3
1001
AcDbAttr
1070
     0
1070
     1
  0
ATTDEF
  5
2987
330
2982
100
AcDbEntity
  8
SOLBET_Wymiary_Opisy
100
AcDbText
 10
-0.0000000703746536
 20
9.333547279718283
 30
0.0
 40
0.9913121336814832
  1
Bloczek
  7
Solbet_1
100
AcDbAttributeDefinition
  3
Nazwa
  2
NAZWA
 70
     3
1001
AcDbAttr
1070
     0
1070
     1
  0
ATTDEF
  5
2988
330
2982
100
AcDbEntity
  8
SOLBET_Wymiary_Opisy
100
AcDbText
 10
-0.0000000703746536
 20
7.794499099484078
 30
0.0
 40
0.9913121336814832
  1
SOLBET IDEAL
  7
Solbet_1
100
AcDbAttributeDefinition
  3

  2
SYSTEM
 70
     3
1001
AcDbAttr
1070
     0
1070
     1
  0
ATTDEF
  5
2989
330
2982
100
AcDbEntity
  8
SOLBET_Wymiary_Opisy
100
AcDbText
 10
-0.0000000703746536
 20
1.74418138862846
 30
0.0
 40
0.9913121336814832
  1
Prawo
  7
Solbet_1
100
AcDbAttributeDefinition
  3

  2
WIDOK
 70
    11
1001
AcDbAttr
1070
     0
1070
     1
  0
LINE
  5
298A
330
2982
100
AcDbEntity
  8
SOLBET_Bloczki
100
AcDbLine
 10
21.00000014074931
 20
12.00000020414847
 30
0.0
 11
21.00000014074931
 21
0.000000204148364
 31
0.0
  0
LINE
  5
298B
330
2982
100
AcDbEntity
  8
SOLBET_Bloczki
100
AcDbLine
 10
21.00000014074931
 20
12.00000020414847
 30
0.0
 11
0.0000001407493072
 21
12.00000020414847
 31
0.0
  0
LINE
  5
298C
330
2982
100
AcDbEntity
  8
SOLBET_Bloczki
100
AcDbLine
 10
0.0000001407493072
 20
12.00000020414847
 30
0.0
 11
0.0000001407493072
 21
0.000000204148364
 31
0.0
  0
LINE
  5
298D
330
2982
100
AcDbEntity
  8
SOLBET_Bloczki
100
AcDbLine
 10
0.0000001407493072
 20
0.000000204148364
 30
0.0
 11
21.00000014074931
 21
0.000000204148364
 31
0.0
  0
ENDBLK
  5
2991
330
2982
100
AcDbEntity
  8
0
100
AcDbBlockEnd
  0
BLOCK
  5
2CA7
330
2C97
100
AcDbEntity
  8
0
100
AcDbBlockBegin
  2
SOLBET_Ksztaltka_U_420x240x500_KG400_PRA
 70
     2
 10
0.0
 20
0.0
 30
0.0
  3
SOLBET_Ksztaltka_U_420x240x500_KG400_PRA
  1

  0
ATTDEF
  5
2C98
330
2C97
100
AcDbEntity
  8
SOLBET_Wymiary_Opisy
100
AcDbText
 10
-0.0000000476806008
 20
4.790718044940628
 30
0.0
 40
0.9913121336814832
  1
420x240x500
  7
Solbet_1
100
AcDbAttributeDefinition
  3

  2
WYMIARY
 70
    11
1001
AcDbAttr
1070
     0
1070
     1
  0
ATTDEF
  5
2C99
330
2C97
100
AcDbEntity
  8
SOLBET_Wymiary_Opisy
100
AcDbText
 10
-0.0000000476806008
 20
3.27819863722453
 30
0.0
 40
0.9913121336814832
  1
400
  7
Solbet_1
100
AcDbAttributeDefinition
  3

  2
KLASA_GĘSTOŚCI
 70
    11
1001
AcDbAttr
1070
     0
1070
     1
  0
ATTDEF
  5
2C9A
330
2C97
100
AcDbEntity
  8
SOLBET_Wymiary_Opisy
100
AcDbText
 10
-0.0000000476806008
 20
0.2448648003876223
 30
0.0
 40
0.9913121336814832
  1
SOLBET
  7
Solbet_1
100
AcDbAttributeDefinition
  3

  2
FIRMA
 70
    11
1001
AcDbAttr
1070
     0
1070
     1
  0
ATTDEF
  5
2C9B
330
2C97
100
AcDbEntity
  8
SOLBET_Wymiary_Opisy
100
AcDbText
 10
-0.0000000476806008
 20
6.347422594011662
 30
0.0
 40
0.9913121336814832
  1
Kształtka U
  7
Solbet_1
100
AcDbAttributeDefinition
  3
Nazwa
  2
NAZWA
 70
    11
1001
AcDbAttr
1070
     0
1070
     1
  0
ATTDEF
  5
2C9C
330
2C97
100
AcDbEntity
  8
SOLBET_Wymiary_Opisy
100
AcDbText
 10
-0.0000000476806008
 20
1.744181559914735
 30
0.0
 40
0.9913121336814832
  1
Prawo
  7
Solbet_1
100
AcDbAttributeDefinition
  3

  2
WIDOK
 70
    11
1001
AcDbAttr
1070
     0
1070
     1
  0
LINE
  5
2C9D
330
2C97
100
AcDbEntity
  8
SOLBET_Bloczki
100
AcDbLine
 10
0.0000011705760737
 20
20.99999992050084
 30
0.0
 11
12.00000117057607
 21
20.99999992050084
 31
0.0
  0
LINE
  5
2C9E
330
2C97
100
AcDbEntity
  8
SOLBET_Bloczki
100
AcDbLine
 10
12.00000117057607
 20
20.99999992050084
 30
0.0
 11
12.00000117057607
 21
-0.0000000794991628
 31
0.0
  0
LINE
  5
2C9F
330
2C97
100
AcDbEntity
  8
SOLBET_Bloczki
100
AcDbLine
 10
12.00000117057607
 20
-0.0000000794991628
 30
0.0
 11
0.0000011705760699
 21
-0.0000000794991593
 31
0.0
  0
LINE
  5
2CA0
330
2C97
100
AcDbEntity
  8
SOLBET_Bloczki
100
AcDbLine
 10
0.0000011705760699
 20
-0.0000000794991593
 30
0.0
 11
0.0000011705760706
 21
3.99999992050084
 31
0.0
  0
LINE
  5
2CA1
330
2C97
100
AcDbEntity
  8
SOLBET_Bloczki
100
AcDbLine
 10
0.0000011705760737
 20
20.99999992050084
 30
0.0
 11
0.000001170576073
 21
16.99999992050084
 31
0.0
  0
LINE
  5
2CA2
330
2C97
100
AcDbEntity
  8
SOLBET_Bloczki
100
AcDbLine
 10
8.000001170576073
 20
16.99999992050084
 30
0.0
 11
8.000001170576069
 21
3.99999992050084
 31
0.0
  0
LINE
  5
2CA3
330
2C97
100
AcDbEntity
  8
SOLBET_Bloczki
100
AcDbLine
 10
0.000001170576073
 20
16.99999992050084
 30
0.0
 11
8.000001170576073
 21
16.99999992050084
 31
0.0
  0
LINE
  5
2CA4
330
2C97
100
AcDbEntity
  8
SOLBET_Bloczki
100
AcDbLine
 10
0.0000011705760706
 20
3.99999992050084
 30
0.0
 11
8.000001170576069
 21
3.99999992050084
 31
0.0
  0
ENDBLK
  5
2CA8
330
2C97
100
AcDbEntity
  8
0
100
AcDbBlockEnd
  0
BLOCK
  5
2CB6
330
2CAA
100
AcDbEntity
  8
0
100
AcDbBlockBegin
  2
SOLBET_Plytka_80x240x590_KG600_PRA
 70
     2
 10
0.0
 20
0.0
 30
0.0
  3
SOLBET_Plytka_80x240x590_KG600_PRA
  1

  0
ATTDEF
  5
2CAB
330
2CAA
100
AcDbEntity
  8
SOLBET_Wymiary_Opisy
100
AcDbText
 10
0.0000000947117284
 20
4.975188798271157
 30
0.0
 40
1.029483505648801
  1
80x240x590
  7
Solbet_1
100
AcDbAttributeDefinition
  3

  2
WYMIARY
 70
    11
1001
AcDbAttr
1070
     0
1070
     1
  0
ATTDEF
  5
2CAC
330
2CAA
100
AcDbEntity
  8
SOLBET_Wymiary_Opisy
100
AcDbText
 10
0.0000000947117284
 20
3.40442846021831
 30
0.0
 40
1.029483505648801
  1
600
  7
Solbet_1
100
AcDbAttributeDefinition
  3

  2
KLASA_GĘSTOŚCI
 70
    11
1001
AcDbAttr
1070
     0
1070
     1
  0
ATTDEF
  5
2CAD
330
2CAA
100
AcDbEntity
  8
SOLBET_Wymiary_Opisy
100
AcDbText
 10
0.0000000947117284
 20
0.2542933553923256
 30
0.0
 40
1.029483505648801
  1
SOLBET
  7
Solbet_1
100
AcDbAttributeDefinition
  3

  2
FIRMA
 70
    11
1001
AcDbAttr
1070
     0
1070
     1
  0
ATTDEF
  5
2CAE
330
2CAA
100
AcDbEntity
  8
SOLBET_Wymiary_Opisy
100
AcDbText
 10
-0.0000001564046322
 20
6.512920961642439
 30
0.0
 40
1.029483505648801
  1
Płytka
  7
Solbet_1
100
AcDbAttributeDefinition
  3
Nazwa
  2
NAZWA
 70
    11
1001
AcDbAttr
1070
     0
1070
     1
  0
ATTDEF
  5
2CAF
330
2CAA
100
AcDbEntity
  8
SOLBET_Wymiary_Opisy
100
AcDbText
 10
0.0000000947117284
 20
1.811342665324326
 30
0.0
 40
1.029483505648801
  1
Prawo
  7
Solbet_1
100
AcDbAttributeDefinition
  3

  2
WIDOK
 70
    11
1001
AcDbAttr
1070
     0
1070
     1
  0
LINE
  5
2CB0
330
2CAA
100
AcDbEntity
  8
SOLBET_Bloczki
100
AcDbLine
 10
3.999999830192336
 20
12.00000020463494
 30
0.0
 11
3.999999830192336
 21
0.0000002046349437
 31
0.0
  0
LINE
  5
2CB1
330
2CAA
100
AcDbEntity
  8
SOLBET_Bloczki
100
AcDbLine
 10
3.999999830192336
 20
0.0000002046349437
 30
0.0
 11
-0.000000169807663
 21
0.0000002046349437
 31
0.0
  0
LINE
  5
2CB2
330
2CAA
100
AcDbEntity
  8
SOLBET_Bloczki
100
AcDbLine
 10
-0.000000169807663
 20
0.0000002046349437
 30
0.0
 11
-0.000000169807663
 21
12.00000020463517
 31
0.0
  0
LINE
  5
2CB3
330
2CAA
100
AcDbEntity
  8
SOLBET_Bloczki
100
AcDbLine
 10
-0.000000169807663
 20
12.00000020463517
 30
0.0
 11
3.999999830192336
 21
12.00000020463517
 31
0.0
  0
ENDBLK
  5
2CB7
330
2CAA
100
AcDbEntity
  8
0
100
AcDbBlockEnd
  0
BLOCK
  5
2CC7
330
2CB9
100
AcDbEntity
  8
0
100
AcDbBlockBegin
  2
SOLBET_Bloczek_Ideal_420x240x590_P+W_KG400_PRA
 70
     2
 10
0.0
 20
0.0
 30
0.0
  3
SOLBET_Bloczek_Ideal_420x240x590_P+W_KG400_PRA
  1

  0
ATTDEF
  5
2CBA
330
2CB9
100
AcDbEntity
  8
SOLBET_Wymiary_Opisy
100
AcDbText
 10
-0.0000000703746536
 20
6.303237281370451
 30
0.0
 40
0.9913121336814832
  1
420x240x590
  7
Solbet_1
100
AcDbAttributeDefinition
  3

  2
WYMIARY
 70
    11
1001
AcDbAttr
1070
     0
1070
     1
  0
ATTDEF
  5
2CBB
330
2CB9
100
AcDbEntity
  8
SOLBET_Wymiary_Opisy
100
AcDbText
 10
-0.0000000703746536
 20
4.790717873654354
 30
0.0
 40
0.9913121336814832
  1
400
  7
Solbet_1
100
AcDbAttributeDefinition
  3

  2
KLASA_GĘSTOŚCI
 70
    11
1001
AcDbAttr
1070
     0
1070
     1
  0
ATTDEF
  5
2CBC
330
2CB9
100
AcDbEntity
  8
SOLBET_Wymiary_Opisy
100
AcDbText
 10
-0.0000000703746536
 20
3.269569038442127
 30
0.0
 40
0.9913121336814832
  1
Pióra+Wpusty
  7
Solbet_1
100
AcDbAttributeDefinition
  3

  2
PROFILOWANIE
 70
    11
1001
AcDbAttr
1070
     0
1070
     1
  0
ATTDEF
  5
2CBD
330
2CB9
100
AcDbEntity
  8
SOLBET_Wymiary_Opisy
100
AcDbText
 10
-0.0000000703746536
 20
0.2448646291013483
 30
0.0
 40
0.9913121336814832
  1
SOLBET
  7
Solbet_1
100
AcDbAttributeDefinition
  3

  2
FIRMA
 70
    11
1001
AcDbAttr
1070
     0
1070
     1
  0
ATTDEF
  5
2CBE
330
2CB9
100
AcDbEntity
  8
SOLBET_Wymiary_Opisy
100
AcDbText
 10
-0.0000000703746536
 20
9.333547279718283
 30
0.0
 40
0.9913121336814832
  1
Bloczek
  7
Solbet_1
100
AcDbAttributeDefinition
  3
Nazwa
  2
NAZWA
 70
    11
1001
AcDbAttr
1070
     0
1070
     1
  0
ATTDEF
  5
2CBF
330
2CB9
100
AcDbEntity
  8
SOLBET_Wymiary_Opisy
100
AcDbText
 10
-0.0000000703746536
 20
7.794499099484078
 30
0.0
 40
0.9913121336814832
  1
SOLBET Ideal
  7
Solbet_1
100
AcDbAttributeDefinition
  3

  2
SYSTEM
 70
    11
1001
AcDbAttr
1070
     0
1070
     1
  0
ATTDEF
  5
2CC0
330
2CB9
100
AcDbEntity
  8
SOLBET_Wymiary_Opisy
100
AcDbText
 10
-0.0000000703746536
 20
1.74418138862846
 30
0.0
 40
0.9913121336814832
  1
Prawo
  7
Solbet_1
100
AcDbAttributeDefinition
  3

  2
WIDOK
 70
    11
1001
AcDbAttr
1070
     0
1070
     1
  0
LINE
  5
2CC1
330
2CB9
100
AcDbEntity
  8
SOLBET_Bloczki
100
AcDbLine
 10
21.00000014074931
 20
12.00000020414847
 30
0.0
 11
21.00000014074931
 21
0.000000204148364
 31
0.0
  0
LINE
  5
2CC2
330
2CB9
100
AcDbEntity
  8
SOLBET_Bloczki
100
AcDbLine
 10
21.00000014074931
 20
12.00000020414847
 30
0.0
 11
0.0000001407493072
 21
12.00000020414847
 31
0.0
  0
LINE
  5
2CC3
330
2CB9
100
AcDbEntity
  8
SOLBET_Bloczki
100
AcDbLine
 10
0.0000001407493072
 20
12.00000020414847
 30
0.0
 11
0.0000001407493072
 21
0.000000204148364
 31
0.0
  0
LINE
  5
2CC4
330
2CB9
100
AcDbEntity
  8
SOLBET_Bloczki
100
AcDbLine
 10
0.0000001407493072
 20
0.000000204148364
 30
0.0
 11
21.00000014074931
 21
0.000000204148364
 31
0.0
  0
ENDBLK
  5
2CC8
330
2CB9
100
AcDbEntity
  8
0
100
AcDbBlockEnd
  0
ENDSEC
  0
SECTION
  2
ENTITIES
  0
LINE
  5
26D4
330
1F
100
AcDbEntity
  8
SOLBET_Wymiary_Opisy
 62
     1
100
AcDbLine
 10
149.2477539556732
 20
229.1303820765814
 30
0.0
 11
149.2477539556732
 21
97.89268347988253
 31
0.0
  0
LWPOLYLINE
  5
26D5
330
1F
100
AcDbEntity
  8
SOLBET_Zbrojenie_Konstrukcja
  6
Continuous
100
AcDbPolyline
 90
        2
 70
     1
 43
0.3
 10
75.78923273295931
 20
116.8329903547304
 42
1.0
 10
76.08923273296221
 20
116.8329903547304
 42
1.0
  0
LWPOLYLINE
  5
26D6
330
1F
100
AcDbEntity
  8
SOLBET_Zbrojenie_Konstrukcja
  6
Continuous
100
AcDbPolyline
 90
        2
 70
     1
 43
0.3
 10
83.18387669617568
 20
116.8113706796492
 42
1.0
 10
83.48387669617494
 20
116.8113706796492
 42
1.0
  0
LWPOLYLINE
  5
26D7
330
1F
100
AcDbEntity
  8
SOLBET_Zbrojenie_Konstrukcja
  6
Continuous
100
AcDbPolyline
 90
        2
 70
     1
 43
0.3
 10
83.18387669617568
 20
108.0166005307973
 42
1.0
 10
83.48387669617494
 20
108.0166005307973
 42
1.0
  0
LWPOLYLINE
  5
26D8
330
1F
100
AcDbEntity
  8
SOLBET_Zbrojenie_Konstrukcja
  6
Continuous
100
AcDbPolyline
 90
        2
 70
     1
 43
0.3
 10
75.78923273295931
 20
108.0166005307973
 42
1.0
 10
76.08923273296221
 20
108.0166005307973
 42
1.0
  0
LINE
  5
26D9
330
1F
100
AcDbEntity
  8
SOLBET_Zbrojenie_Konstrukcja
  6
Continuous
100
AcDbLine
 10
78.2341528042254
 20
115.7440238418952
 30
0.0
 11
76.81993924185206
 21
117.1582374042681
 31
0.0
  0
LINE
  5
26DA
330
1F
100
AcDbEntity
  8
SOLBET_Zbrojenie_Konstrukcja
  6
Continuous
100
AcDbLine
 10
77.03415280422468
 20
114.5440238418954
 30
0.0
 11
75.61993924185134
 21
115.9582374042683
 31
0.0
  0
LWPOLYLINE
  5
26DB
330
1F
100
AcDbEntity
  8
SOLBET_Zbrojenie_Konstrukcja
  6
Continuous
100
AcDbPolyline
 90
        5
 70
     0
 43
0.0
 10
83.6255705359601
 20
107.7003791304772
 10
83.6255705359601
 20
117.1582374042681
 10
75.61993924185134
 20
117.1582374042681
 10
75.61993924185134
 20
107.7003791304772
 10
83.6255705359601
 20
107.7003791304772
  0
ARC
  5
26E3
330
1F
100
AcDbEntity
  8
SOLBET_Tynki_Posadzki
100
AcDbCircle
 10
89.24883247976522
 20
124.8236859640327
 30
0.0
 40
1.5000521396288
100
AcDbArc
 50
0.0
 51
90.0
  0
LINE
  5
26E8
330
1F
100
AcDbEntity
  8
SOLBET_Tynki_Posadzki
100
AcDbLine
 10
90.04689867095857
 20
124.8236859640327
 30
0.0
 11
149.2477539556732
 21
124.8236859640327
 31
0.0
  0
LINE
  5
26ED
330
1F
100
AcDbEntity
  8
SOLBET_Tynki_Posadzki
100
AcDbLine
 10
89.24883247976884
 20
124.3236859640327
 30
0.0
 11
89.24883247976884
 21
166.9503791304777
 31
0.0
  0
LINE
  5
26EF
330
1F
100
AcDbEntity
  8
SOLBET_Emulsje_Folie
100
AcDbLine
 10
89.86364852943205
 20
124.5736859640327
 30
0.0
 11
89.86364852943205
 21
121.8962184440496
 31
0.0
  0
LINE
  5
26F0
330
1F
100
AcDbEntity
  8
SOLBET_Emulsje_Folie
100
AcDbLine
 10
90.11364852943206
 20
121.6462184440496
 30
0.0
 11
149.2477539556732
 21
121.6462184440496
 31
0.0
  0
ARC
  5
26F1
330
1F
100
AcDbEntity
  8
SOLBET_Emulsje_Folie
100
AcDbCircle
 10
90.11364852943206
 20
121.8962184440496
 30
0.0
 40
0.25
100
AcDbArc
 50
180.0
 51
270.0
  0
LWPOLYLINE
  5
26F2
330
1F
100
AcDbEntity
  8
SOLBET_Tynki_Posadzki
100
AcDbPolyline
 90
        5
 70
     1
 43
0.0
 10
89.86364852943205
 20
121.8962184440496
 42
0.0737237824442244
 10
89.87440171265024
 20
121.8236859640327
 10
149.2477539556732
 20
121.8236859640327
 10
149.2477539556732
 20
124.3236859640327
 10
89.86364852943205
 20
124.3236859640327
1001
ASO_SCHRAFF
1005
0
1070
     1
1002
{
1070
     1
1005
0
1002
}
1002
{
1070
     2
1005
0
1002
}
1002
{
1070
     4
1000
AR-CONC
1040
0.01
1040
0.0
1070
     0
1000
T__SCHR
1070
   256
1000
_bylayer
1040
50.0
1070
     1
1002
}
  0
INSERT
  5
26F3
330
1F
100
AcDbEntity
  8
SOLBET_Tynki_Posadzki
100
AcDbBlockReference
  2
*X2
 10
-484.9520834011908
 20
-349.5450088682397
 30
0.0
 41
50.0
 42
50.0
 43
50.0
1001
ASO_SCHRAFF
1005
0
1070
     0
1005
0
1001
ACAD
1000
HATCH
1002
{
1070
    16
1000
AR-CONC
1040
0.025
1040
0.0
1002
}
  0
LWPOLYLINE
  5
26F5
330
1F
100
AcDbEntity
  8
SOLBET_Beton
100
AcDbPolyline
 90
        6
 70
     1
 43
0.0
 10
74.74883247976885
 20
118.9503791599003
 10
74.74883247976885
 20
106.9503791451888
 10
84.74883247976521
 20
106.9503791451888
 10
84.74883247976521
 20
108.9503791451887
 10
149.2477539556732
 20
108.9503791451887
 10
149.2477539678313
 20
118.9503791451888
  0
LINE
  5
26F6
330
1F
100
AcDbEntity
  8
SOLBET_Tynki_Posadzki
100
AcDbLine
 10
89.24883247976884
 20
106.4503791304777
 30
0.0
 11
89.24883247976884
 21
97.89268347988253
 31
0.0
  0
LINE
  5
26F7
330
1F
100
AcDbEntity
  8
SOLBET_Tynki_Posadzki
100
AcDbLine
 10
89.24883247976884
 20
106.4503791304777
 30
0.0
 11
149.2477539556732
 21
106.4503791304777
 31
0.0
  0
LINE
  5
26F8
330
1F
100
AcDbEntity
  8
SOLBET_Tynki_Posadzki
100
AcDbLine
 10
89.24883247976884
 20
106.4503791304777
 30
0.0
 11
88.75082564729217
 21
106.9503791304777
 31
0.0
  0
LINE
  5
26FE
330
1F
100
AcDbEntity
  8
SOLBET_Zbrojenie_Konstrukcja
100
AcDbLine
 10
147.4845046930333
 20
112.4503791304777
 30
0.0
 11
149.2497471232001
 21
112.4503791304777
 31
0.0
  0
LWPOLYLINE
  5
26FF
330
1F
100
AcDbEntity
  8
SOLBET_Beton
100
AcDbPolyline
 90
        3
 70
     0
 43
0.0
 10
149.2497471232001
 20
117.4503791304777
 10
147.4845046930333
 20
117.4503791304777
 10
147.4845046930333
 20
108.9503791304777
  0
LWPOLYLINE
  5
2706
330
1F
100
AcDbEntity
  8
SOLBET_Zbrojenie_Konstrukcja
100
AcDbPolyline
 90
       16
 70
     1
 43
0.0
 10
84.92063582607665
 20
118.9644187361086
 42
0.0327594189470737
 10
84.99877172885902
 20
118.9695436095658
 42
0.0442669587490688
 10
85.05537995449634
 20
118.9821706302382
 42
0.0869419154566485
 10
85.10209670038097
 20
119.0065745200431
 42
0.2330776669510323
 10
85.11119279993948
 20
119.0250274938034
 42
0.2330776669455295
 10
85.10209670038097
 20
119.0434804675633
 42
0.086941915456222
 10
85.05537995449634
 20
119.0678843573687
 42
0.0442669587489878
 10
84.99877172885902
 20
119.0805113780411
 42
0.032759418946939
 10
84.92063582607665
 20
119.0856362514983
 42
0.032759418947148
 10
84.84249992330154
 20
119.0805113780411
 42
0.0442669587490284
 10
84.78589169766058
 20
119.0678843573687
 42
0.0869419154566317
 10
84.73917495177961
 20
119.0434804675633
 42
0.233077666949109
 10
84.73007885221745
 20
119.0250274938034
 42
0.2330776669474527
 10
84.73917495177961
 20
119.0065745200431
 42
0.0869419154562388
 10
84.78589169766058
 20
118.9821706302382
 42
0.0442669587490685
 10
84.84249992330154
 20
118.9695436095658
 42
0.0327594189470737
  0
LWPOLYLINE
  5
2707
102
{ACAD_REACTORS
330
2A58
102
}
330
1F
100
AcDbEntity
  8
SOLBET_Zbrojenie_Konstrukcja
100
AcDbPolyline
 90
       16
 70
     1
 43
0.0
 10
85.10209670038097
 20
119.0065745200431
 42
-0.0869419154568836
 10
85.05537995449998
 20
118.9821706302382
 42
-0.04426695874853
 10
84.99877172885902
 20
118.9695436095658
 42
-0.0327594189474477
 10
84.92063582607665
 20
118.9644187361086
 42
-0.0327594189473721
 10
84.84249992329791
 20
118.9695436095658
 42
-0.0442669587487512
 10
84.78589169766058
 20
118.9821706302382
 42
-0.0869419154555393
 10
84.73917495177961
 20
119.0065745200431
 42
-0.233077666948955
 10
84.73007885221745
 20
119.0250274938034
 42
-0.2330776669476068
 10
84.73917495177961
 20
119.0434804675633
 42
-0.0869419154571649
 10
84.78589169766058
 20
119.0678843573687
 42
-0.0442669587478621
 10
84.84249992329791
 20
119.0805113780406
 42
-0.032759418947709
 10
84.92063582607665
 20
119.0856362514983
 42
-0.0327594189469762
 10
84.99877172885902
 20
119.0805113780411
 42
-0.0442669587489952
 10
85.05537995449998
 20
119.0678843573687
 42
-0.0869419154555225
 10
85.10209670038097
 20
119.0434804675637
 42
-0.2095631734287794
 10
85.11109934212294
 20
119.0271107504168
 42
-0.256839199828224
1001
ASO_SCHRAFF
1005
0
1070
     1
1002
{
1070
     1
1005
0
1002
}
1002
{
1070
     2
1005
0
1002
}
1002
{
1070
     4
1000
SOFIFUELL
1040
1.0
1040
0.0
1070
     0
1000
T__SCHR
1070
   256
1000
_bylayer
1040
50.0
1070
     1
1002
}
  0
LWPOLYLINE
  5
2708
330
1F
100
AcDbEntity
  8
SOLBET_Zbrojenie_Konstrukcja
100
AcDbPolyline
 90
       16
 70
     1
 43
0.0
 10
75.76112508033332
 20
118.9644187361086
 42
-0.0327594189470737
 10
75.68298917755459
 20
118.9695436095658
 42
-0.0442669587490688
 10
75.62638095191363
 20
118.9821706302382
 42
-0.0869419154566485
 10
75.57966420603628
 20
119.0065745200431
 42
-0.2330776669510323
 10
75.57056810647049
 20
119.0250274938034
 42
-0.2330776669455295
 10
75.57966420603264
 20
119.0434804675633
 42
-0.086941915456222
 10
75.62638095191363
 20
119.0678843573687
 42
-0.0442669587489878
 10
75.68298917755459
 20
119.0805113780411
 42
-0.032759418946939
 10
75.76112508033332
 20
119.0856362514983
 42
-0.032759418947148
 10
75.83926098311571
 20
119.0805113780411
 42
-0.0442669587490284
 10
75.89586920875302
 20
119.0678843573687
 42
-0.0869419154566317
 10
75.94258595463401
 20
119.0434804675633
 42
-0.233077666949109
 10
75.95168205419617
 20
119.0250274938034
 42
-0.2330776669474527
 10
75.94258595463401
 20
119.0065745200431
 42
-0.0869419154562388
 10
75.89586920875302
 20
118.9821706302382
 42
-0.0442669587490685
 10
75.83926098311571
 20
118.9695436095658
 42
-0.0327594189470737
  0
LWPOLYLINE
  5
2709
102
{ACAD_REACTORS
330
2A58
102
}
330
1F
100
AcDbEntity
  8
SOLBET_Zbrojenie_Konstrukcja
100
AcDbPolyline
 90
       16
 70
     1
 43
0.0
 10
75.57966420603264
 20
119.0065745200431
 42
0.0869419154568836
 10
75.62638095191363
 20
118.9821706302382
 42
0.04426695874853
 10
75.68298917755459
 20
118.9695436095658
 42
0.0327594189474477
 10
75.76112508033332
 20
118.9644187361086
 42
0.0327594189473721
 10
75.83926098311571
 20
118.9695436095658
 42
0.0442669587487512
 10
75.89586920875302
 20
118.9821706302382
 42
0.0869419154555393
 10
75.94258595463401
 20
119.0065745200431
 42
0.233077666948955
 10
75.95168205419617
 20
119.0250274938034
 42
0.2330776669476068
 10
75.94258595463401
 20
119.0434804675633
 42
0.0869419154571649
 10
75.89586920875302
 20
119.0678843573687
 42
0.0442669587478621
 10
75.83926098311571
 20
119.0805113780406
 42
0.032759418947709
 10
75.76112508033332
 20
119.0856362514983
 42
0.0327594189469762
 10
75.68298917755459
 20
119.0805113780411
 42
0.0442669587489952
 10
75.62638095191363
 20
119.0678843573687
 42
0.0869419154555225
 10
75.57966420603628
 20
119.0434804675637
 42
0.2095631734287794
 10
75.57066156429067
 20
119.0271107504168
 42
0.256839199828224
1001
ASO_SCHRAFF
1005
0
1070
     1
1002
{
1070
     1
1005
0
1002
}
1002
{
1070
     2
1005
0
1002
}
1002
{
1070
     4
1000
SOFIFUELL
1040
1.0
1040
0.0
1070
     0
1000
T__SCHR
1070
   256
1000
_bylayer
1040
50.0
1070
     1
1002
}
  0
LINE
  5
2711
330
1F
100
AcDbEntity
  8
SOLBET_Wymiary_Opisy
 62
     1
100
AcDbLine
 10
64.6449434869848
 20
97.89268347988253
 30
0.0
 11
149.2477539556732
 21
97.89268347988253
 31
0.0
  0
LINE
  5
2712
330
1F
100
AcDbEntity
  8
SOLBET_Tynki_Posadzki
100
AcDbLine
 10
66.99883247976521
 20
97.89268347988253
 30
0.0
 11
66.9988324797652
 21
167.2209738696836
 31
0.0
  0
LINE
  5
2713
330
1F
100
AcDbEntity
  8
SOLBET_Zaprawy
100
AcDbLine
 10
67.46551067323361
 20
97.89268347988253
 30
0.0
 11
67.46551067323359
 21
167.4454559825428
 31
0.0
  0
LWPOLYLINE
  5
2714
330
1F
100
AcDbEntity
  8
SOLBET_Bloczki
100
AcDbPolyline
 90
        4
 70
     0
 43
0.0
 10
88.74883247976521
 20
97.89268347988253
 10
88.74883247976521
 20
106.9503791304777
 10
67.74883247976885
 20
106.9503791304777
 10
67.74883247976885
 20
97.89268347988253
  0
LWPOLYLINE
  5
2715
330
1F
100
AcDbEntity
  8
SOLBET_Zbrojenie_Konstrukcja
  6
Continuous
100
AcDbPolyline
 90
        6
 70
     0
 43
0.0
 10
124.374634671016
 20
117.5716646932336
 10
75.87463467101969
 20
117.5716646932336
 42
0.4142135623730951
 10
75.37463467101606
 20
117.0716646932336
 10
75.37463467101606
 20
109.5716646932336
 42
0.4142135623730964
 10
75.87463467101969
 20
109.0716646932336
 10
94.37463467101968
 20
109.0716646932336
  0
LWPOLYLINE
  5
271E
330
1F
100
AcDbEntity
  8
SOLBET_Zbrojenie_Konstrukcja
  6
Continuous
100
AcDbPolyline
 90
        2
 70
     1
 43
0.3
 10
75.78923273295931
 20
165.9281623771065
 42
1.0
 10
76.08923273296221
 20
165.9281623771065
 42
1.0
  0
LWPOLYLINE
  5
271F
330
1F
100
AcDbEntity
  8
SOLBET_Zbrojenie_Konstrukcja
  6
Continuous
100
AcDbPolyline
 90
        2
 70
     1
 43
0.3
 10
83.18387669617568
 20
165.9065427020254
 42
1.0
 10
83.48387669617494
 20
165.9065427020254
 42
1.0
  0
LWPOLYLINE
  5
2720
330
1F
100
AcDbEntity
  8
SOLBET_Zbrojenie_Konstrukcja
  6
Continuous
100
AcDbPolyline
 90
        2
 70
     1
 43
0.3
 10
83.18387669617568
 20
160.0166005307977
 42
1.0
 10
83.48387669617494
 20
160.0166005307977
 42
1.0
  0
LWPOLYLINE
  5
2721
330
1F
100
AcDbEntity
  8
SOLBET_Zbrojenie_Konstrukcja
  6
Continuous
100
AcDbPolyline
 90
        2
 70
     1
 43
0.3
 10
75.78923273295931
 20
160.0166005307977
 42
1.0
 10
76.08923273296221
 20
160.0166005307977
 42
1.0
  0
LINE
  5
2722
330
1F
100
AcDbEntity
  8
SOLBET_Zbrojenie_Konstrukcja
  6
Continuous
100
AcDbLine
 10
78.2341528042254
 20
164.8391958642713
 30
0.0
 11
76.81993924185206
 21
166.2534094266442
 31
0.0
  0
LINE
  5
2723
330
1F
100
AcDbEntity
  8
SOLBET_Zbrojenie_Konstrukcja
  6
Continuous
100
AcDbLine
 10
77.03415280422468
 20
163.6391958642715
 30
0.0
 11
75.61993924185134
 21
165.0534094266448
 31
0.0
  0
LWPOLYLINE
  5
2724
330
1F
100
AcDbEntity
  8
SOLBET_Zbrojenie_Konstrukcja
  6
Continuous
100
AcDbPolyline
 90
        5
 70
     0
 43
0.0
 10
83.6255705359601
 20
159.7003791304777
 10
83.6255705359601
 20
166.2534094266442
 10
75.61993924185134
 20
166.2534094266442
 10
75.61993924185134
 20
159.7003791304777
 10
83.6255705359601
 20
159.7003791304777
  0
LINE
  5
2725
330
1F
100
AcDbEntity
  8
SOLBET_Izolacja
  6
Continuous
100
AcDbLine
 10
71.74883247976885
 20
158.9503791304777
 30
0.0
 11
71.74883247976885
 21
166.9503791304781
 31
0.0
  0
LINE
  5
2726
330
1F
100
AcDbEntity
  8
SOLBET_Izolacja
  6
Continuous
100
AcDbLine
 10
74.74883247976885
 20
158.9503791304777
 30
0.0
 11
74.74883247976885
 21
166.9503791304781
 31
0.0
  0
LINE
  5
272C
330
1F
100
AcDbEntity
  8
SOLBET_Zbrojenie_Konstrukcja
100
AcDbLine
 10
78.72628902185368
 20
174.5400883754863
 30
0.0
 11
80.77137593767673
 21
174.5400883754863
 31
0.0
  0
LWPOLYLINE
  5
272D
330
1F
100
AcDbEntity
  8
SOLBET_Zbrojenie_Konstrukcja
100
AcDbPolyline
 90
        4
 70
     0
 43
0.0
 10
79.74883247976521
 20
175.0455511528461
 10
79.74883247976521
 20
160.7955511528533
 42
1.0
 10
80.77243273147741
 20
160.7955511528533
 10
80.77243273147741
 20
162.6392353009036
  0
LWPOLYLINE
  5
272E
330
1F
100
AcDbEntity
  8
SOLBET_Stolarka_Okna
100
AcDbPolyline
 90
        4
 70
     1
 43
0.0
 10
76.24883247976516
 20
167.1903791304779
 10
83.24883247976885
 20
167.1903791304779
 10
83.24883247976885
 20
174.1503791304702
 10
76.24883247976521
 20
174.1503791304702
1001
ASO_SCHRAFF
1005
272E
1070
     1
1002
{
1070
     1
1005
272E
1002
}
1002
{
1070
     2
1005
272F
1002
}
1002
{
1070
     4
1000
SOFIHOLZ
1040
0.5
1040
0.0
1070
     0
1000
T__SCHR
1070
   256
1000
_bylayer
1040
50.0
1070
     1
1002
}
  0
LINE
  5
2731
330
1F
100
AcDbEntity
  8
SOLBET_Wymiary_Opisy
100
AcDbLine
 10
34.38254027908329
 20
161.5189316607582
 30
0.0
 11
149.2477539556732
 21
216.7715366057245
 31
0.0
  0
LINE
  5
2732
330
1F
100
AcDbEntity
  8
SOLBET_Wymiary_Opisy
100
AcDbLine
 10
33.88403957396291
 20
162.5552699486688
 30
0.0
 11
149.2477539556732
 21
218.0476643097994
 31
0.0
  0
LINE
  5
2733
330
1F
100
AcDbEntity
  8
SOLBET_Wymiary_Opisy
 62
     1
100
AcDbLine
 10
53.30697858011098
 20
170.6219880151051
 30
0.0
 11
52.80847787499277
 21
171.6583263030182
 31
0.0
  0
LINE
  5
2734
330
1F
100
AcDbEntity
  8
SOLBET_Wymiary_Opisy
 62
     1
100
AcDbLine
 10
59.6151246804531
 20
173.6563401332213
 30
0.0
 11
59.1166239753349
 21
174.6926784211344
 31
0.0
  0
LINE
  5
2735
330
1F
100
AcDbEntity
  8
SOLBET_Wymiary_Opisy
 62
     1
100
AcDbLine
 10
65.92327078079887
 20
176.6906922513375
 30
0.0
 11
65.42477007568066
 21
177.7270305392506
 31
0.0
  0
LINE
  5
2736
330
1F
100
AcDbEntity
  8
SOLBET_Wymiary_Opisy
 62
     1
100
AcDbLine
 10
72.23141688114464
 20
179.7250443694537
 30
0.0
 11
71.7329161760228
 21
180.7613826573673
 31
0.0
  0
LINE
  5
2737
330
1F
100
AcDbEntity
  8
SOLBET_Wymiary_Opisy
 62
     1
100
AcDbLine
 10
78.53956298148677
 20
182.7593964875699
 30
0.0
 11
78.04106227636856
 21
183.7957347754835
 31
0.0
  0
LINE
  5
2738
330
1F
100
AcDbEntity
  8
SOLBET_Wymiary_Opisy
 62
     1
100
AcDbLine
 10
84.84770908183254
 20
185.7937486056861
 30
0.0
 11
84.3492083767107
 21
186.8300868935997
 31
0.0
  0
LINE
  5
2739
330
1F
100
AcDbEntity
  8
SOLBET_Wymiary_Opisy
 62
     1
100
AcDbLine
 10
91.15585518217466
 20
188.8281007238023
 30
0.0
 11
90.65735447705282
 21
189.8644390117164
 31
0.0
  0
LINE
  5
273A
330
1F
100
AcDbEntity
  8
SOLBET_Wymiary_Opisy
 62
     1
100
AcDbLine
 10
97.46400128251679
 20
191.8624528419185
 30
0.0
 11
96.96550057739859
 21
192.8987911298321
 31
0.0
  0
LINE
  5
273B
330
1F
100
AcDbEntity
  8
SOLBET_Wymiary_Opisy
 62
     1
100
AcDbLine
 10
103.7721473828625
 20
194.8968049600347
 30
0.0
 11
103.2736466777443
 21
195.9331432479488
 31
0.0
  0
LINE
  5
273C
330
1F
100
AcDbEntity
  8
SOLBET_Wymiary_Opisy
 62
     1
100
AcDbLine
 10
110.0802934832047
 20
197.9311570781514
 30
0.0
 11
109.5817927780865
 21
198.9674953660645
 31
0.0
  0
LINE
  5
273D
330
1F
100
AcDbEntity
  8
SOLBET_Wymiary_Opisy
 62
     1
100
AcDbLine
 10
116.3884395835468
 20
200.9655091962676
 30
0.0
 11
115.8899388784322
 21
202.0018474841812
 31
0.0
  0
LINE
  5
273E
330
1F
100
AcDbEntity
  8
SOLBET_Wymiary_Opisy
 62
     1
100
AcDbLine
 10
122.6965856838962
 20
203.9998613143838
 30
0.0
 11
122.1980849787744
 21
205.0361996022969
 31
0.0
  0
LINE
  5
273F
330
1F
100
AcDbEntity
  8
SOLBET_Wymiary_Opisy
 62
     1
100
AcDbLine
 10
129.0047317842383
 20
207.0342134325
 30
0.0
 11
128.5062310791165
 21
208.0705517204136
 31
0.0
  0
LINE
  5
2740
330
1F
100
AcDbEntity
  8
SOLBET_Wymiary_Opisy
 62
     1
100
AcDbLine
 10
135.3128778845805
 20
210.0685655506162
 30
0.0
 11
134.8143771794622
 21
211.1049038385294
 31
0.0
  0
LINE
  5
2741
330
1F
100
AcDbEntity
  8
SOLBET_Wymiary_Opisy
100
AcDbLine
 10
141.6210239849262
 20
213.1029176687329
 30
0.0
 11
141.1225232798044
 21
214.139255956646
 31
0.0
  0
LINE
  5
2742
330
1F
100
AcDbEntity
  8
SOLBET_Wymiary_Opisy
 62
     1
100
AcDbLine
 10
147.9291700852684
 20
216.1372697868486
 30
0.0
 11
147.4306693801501
 21
217.1736080747622
 31
0.0
  0
LINE
  5
2743
330
1F
100
AcDbEntity
  8
SOLBET_Wymiary_Opisy
100
AcDbLine
 10
33.79734379915921
 20
162.7355026943927
 30
0.0
 11
149.2477539556732
 21
218.2695995626822
 31
0.0
  0
LINE
  5
2744
330
1F
100
AcDbEntity
  8
SOLBET_Wymiary_Opisy
  6
Continuous
100
AcDbLine
 10
33.71064802435484
 20
162.915735440118
 30
0.0
 11
149.2477539556732
 21
218.4915348155649
 31
0.0
  0
LINE
  5
2745
330
1F
100
AcDbEntity
  8
SOLBET_Wymiary_Opisy
  6
Continuous
100
AcDbLine
 10
33.212147319233
 20
163.9520737280317
 30
0.0
 11
149.2477539556732
 21
219.7676625196394
 31
0.0
  0
LWPOLYLINE
  5
2746
330
1F
100
AcDbEntity
  8
SOLBET_Wymiary_Opisy
 62
     1
100
AcDbPolyline
 90
        5
 70
     0
 43
0.0
 10
45.82843951992453
 20
170.0207779642641
 10
47.18018511285317
 20
170.6709962752892
 10
46.68168440773496
 20
171.7073345632028
 10
45.32993881480268
 20
171.0571162521781
 10
45.82843951992453
 20
170.0207779642641
  0
LINE
  5
2749
330
1F
100
AcDbEntity
  8
SOLBET_Wymiary_Opisy
 62
     1
100
AcDbLine
 10
40.69068637942308
 20
164.5532837788722
 30
0.0
 11
40.19218567430487
 21
165.5896220667858
 31
0.0
  0
LINE
  5
274C
330
1F
100
AcDbEntity
  8
SOLBET_Wymiary_Opisy
  6
Continuous
100
AcDbLine
 10
34.38254027908329
 20
161.5189316607582
 30
0.0
 11
33.88403957396291
 21
162.5552699486688
 31
0.0
  0
LINE
  5
274E
330
1F
100
AcDbEntity
  8
SOLBET_Izolacja
100
AcDbLine
 10
81.4044449703344
 20
174.1503791304702
 30
0.0
 11
149.2477539556732
 21
206.7844502260094
 31
0.0
  0
LWPOLYLINE
  5
2751
330
1F
100
AcDbEntity
  8
SOLBET_Wymiary_Opisy
 62
     1
100
AcDbPolyline
 90
        5
 70
     0
 43
0.0
 10
33.212147319233
 20
163.9520737280317
 10
37.71796596233816
 20
166.1194680981147
 10
37.21946525721631
 20
167.1558063860283
 10
32.71364661411479
 20
164.9884120159457
 10
33.212147319233
 20
163.9520737280317
  0
LINE
  5
2752
330
1F
100
AcDbEntity
  8
SOLBET_Wymiary_Opisy
 62
     1
100
AcDbLine
 10
32.71364661411479
 20
164.9884120159457
 30
0.0
 11
45.32993881480268
 21
171.0571162521781
 31
0.0
  0
LINE
  5
2753
330
1F
100
AcDbEntity
  8
SOLBET_Wymiary_Opisy
  6
Continuous
100
AcDbLine
 10
38.21646666745636
 20
165.083129810201
 30
0.0
 11
37.71796596233816
 21
166.1194680981147
 31
0.0
  0
LWPOLYLINE
  5
2754
330
1F
100
AcDbEntity
  8
SOLBET_Zbrojenie_Konstrukcja
100
AcDbPolyline
 90
       15
 70
     0
 43
0.0
 10
32.62695083931447
 20
165.1686447616697
 10
37.12732974048248
 20
167.3334225004649
 10
39.78028486455713
 20
167.3334225004649
 10
43.97565833578318
 20
169.3514861559678
 10
43.88896256097922
 20
169.5317189016913
 10
39.73468343975964
 20
167.5334225004652
 10
37.08172831568499
 20
167.5334225004652
 10
32.54025506451052
 20
165.3488775073937
 10
32.54025506451052
 20
160.6413929677627
 42
-1.013424621101684
 10
25.04158863496395
 20
160.7413929677626
 10
24.79391779563065
 20
160.7413929677626
 10
24.79391779563065
 20
160.6413929677627
 10
24.94025506450834
 20
160.6413929677627
 42
1.0
 10
32.64025506450906
 20
160.6413929677627
 10
32.64025506450906
 20
165.3488775073937
  0
LWPOLYLINE
  5
2756
330
1F
100
AcDbEntity
  8
SOLBET_Wymiary_Opisy
 62
     1
100
AcDbPolyline
 90
        5
 70
     0
 43
0.0
 10
57.09298612768015
 20
175.4392638894718
 10
58.44473172060879
 20
176.0894822004969
 10
57.94623101549422
 20
177.1258204884105
 10
56.5944854225583
 20
176.4756021773854
 10
57.09298612768015
 20
175.4392638894718
  0
LWPOLYLINE
  5
2757
330
1F
100
AcDbEntity
  8
SOLBET_Wymiary_Opisy
 62
     1
100
AcDbPolyline
 90
        5
 70
     0
 43
0.0
 10
68.35753273543577
 20
180.8577498146795
 10
69.70927832836804
 20
181.5079681257047
 10
69.21077762324983
 20
182.5443064136178
 10
67.85903203031756
 20
181.8940881025931
 10
68.35753273543577
 20
180.8577498146795
  0
LWPOLYLINE
  5
2758
330
1F
100
AcDbEntity
  8
SOLBET_Wymiary_Opisy
 62
     1
100
AcDbPolyline
 90
        5
 70
     0
 43
0.0
 10
79.62207934319138
 20
186.2762357398873
 10
80.97382493612366
 20
186.9264540509119
 10
80.47532423100546
 20
187.9627923388255
 10
79.12357863807682
 20
187.3125740278004
 10
79.62207934319138
 20
186.2762357398873
  0
LWPOLYLINE
  5
2759
330
1F
100
AcDbEntity
  8
SOLBET_Wymiary_Opisy
 62
     1
100
AcDbPolyline
 90
        7
 70
     0
 43
0.0
 10
81.83317030715461
 20
188.4757137498308
 10
64.18829318618572
 20
182.4233603678016
 10
64.02606671773736
 20
182.89631128802
 10
81.67094383870988
 20
188.9486646700492
 10
81.94700802651841
 20
188.1438341580304
 10
80.77874480644295
 20
187.7431092449213
 10
80.66490708707915
 20
188.0749888367221
  0
LWPOLYLINE
  5
275A
330
1F
100
AcDbEntity
  8
SOLBET_Wymiary_Opisy
 62
     1
100
AcDbPolyline
 90
        7
 70
     0
 43
0.0
 10
82.86481208306412
 20
189.5069662645218
 10
65.21993496209524
 20
183.454612882493
 10
65.05770849365053
 20
183.927563802711
 10
82.70258561461941
 20
189.9799171847406
 10
82.97864980242792
 20
189.1750866727214
 10
81.81038658235246
 20
188.7743617596123
 10
81.6965488629923
 20
189.1062413514136
  0
LWPOLYLINE
  5
275B
330
1F
100
AcDbEntity
  8
SOLBET_Wymiary_Opisy
 62
     1
100
AcDbPolyline
 90
        7
 70
     0
 43
0.0
 10
70.56862369939898
 20
183.0572278246235
 10
52.92374657842646
 20
177.0048744425943
 10
52.76152010998174
 20
177.4778253628122
 10
70.40639723095063
 20
183.5301787448415
 10
70.68246141876278
 20
182.7253482328223
 10
69.51419819868732
 20
182.3246233197141
 10
69.40036047932352
 20
182.6565029115144
  0
LWPOLYLINE
  5
275C
330
1F
100
AcDbEntity
  8
SOLBET_Wymiary_Opisy
 62
     1
100
AcDbPolyline
 90
        7
 70
     0
 43
0.0
 10
71.60026547530851
 20
184.0884803393145
 10
53.95538835433962
 20
178.0361269572857
 10
53.79316188589126
 20
178.5090778775037
 10
71.43803900686015
 20
184.5614312595329
 10
71.71410319467231
 20
183.7566007475137
 10
70.54583997459684
 20
183.3558758344046
 10
70.43200225523304
 20
183.6877554262054
  0
LWPOLYLINE
  5
275D
330
1F
100
AcDbEntity
  8
SOLBET_Wymiary_Opisy
 62
     1
100
AcDbPolyline
 90
        7
 70
     0
 43
0.0
 10
59.30407709164336
 20
177.6387418994158
 10
41.65919997067084
 20
171.5863885173866
 10
41.49697350222249
 20
172.0593394376045
 10
59.14185062319501
 20
178.1116928196342
 10
59.41791481100352
 20
177.306862307615
 10
58.24965159092807
 20
176.9061373945059
 10
58.13581387156791
 20
177.2380169863071
  0
LWPOLYLINE
  5
275E
330
1F
100
AcDbEntity
  8
SOLBET_Wymiary_Opisy
 62
     1
100
AcDbPolyline
 90
        7
 70
     0
 43
0.0
 10
60.33571886755288
 20
178.6699944141068
 10
42.69084174658035
 20
172.617641032078
 10
42.52861527813201
 20
173.090591952296
 10
60.17349239910453
 20
179.1429453343252
 10
60.44955658691304
 20
178.3381148223064
 10
59.28129336684122
 20
177.9373899091973
 10
59.16745564747742
 20
178.2692695009981
  0
LWPOLYLINE
  5
275F
330
1F
100
AcDbEntity
  8
SOLBET_Wymiary_Opisy
 62
     1
100
AcDbPolyline
 90
        7
 70
     0
 43
0.0
 10
47.99691029554213
 20
172.3213502017882
 10
30.85957653858185
 20
164.9535512239639
 10
30.66209104277931
 20
165.4128980199133
 10
47.79942479974323
 20
172.7806969977381
 10
48.13549001476912
 20
171.999016909648
 10
47.00083112306145
 20
171.5111966488615
 10
46.86225140383448
 20
171.8335299410017
  0
LWPOLYLINE
  5
2760
330
1F
100
AcDbEntity
  8
SOLBET_Wymiary_Opisy
 62
     1
100
AcDbPolyline
 90
        7
 70
     0
 43
0.0
 10
48.94771365684409
 20
173.4275777873225
 10
31.81037989988016
 20
166.0597788094982
 10
31.61289440408126
 20
166.5191256054476
 10
48.75022816104518
 20
173.8869245832719
 10
49.08629337607107
 20
173.1052444951823
 10
47.95163448436341
 20
172.6174242343958
 10
47.81305476513643
 20
172.9397575265364
  0
LWPOLYLINE
  5
2761
330
1F
100
AcDbEntity
  8
SOLBET_Wymiary_Opisy
 62
     1
100
AcDbPolyline
 90
        7
 70
     0
 43
0.0
 10
94.12935869082337
 20
194.9254521897295
 10
76.48448156985449
 20
188.8730988077007
 10
76.32225510140614
 20
189.3460497279187
 10
93.96713222237503
 20
195.3984031099479
 10
94.24319641018355
 20
194.5935725979287
 10
93.07493319011172
 20
194.1928476848201
 10
92.96109547074792
 20
194.5247272766208
  0
LWPOLYLINE
  5
2762
330
1F
100
AcDbEntity
  8
SOLBET_Wymiary_Opisy
 62
     1
100
AcDbPolyline
 90
        7
 70
     0
 43
0.0
 10
93.09771691491022
 20
193.8941996750385
 10
75.45283979394134
 20
187.8418462930093
 10
75.29061332549662
 20
188.3147972132272
 10
92.93549044646551
 20
194.3671505952565
 10
93.21155463427402
 20
193.5623200832377
 10
92.04329141419856
 20
193.1615951701291
 10
91.9294536948384
 20
193.4934747619294
  0
LWPOLYLINE
  5
2763
330
1F
100
AcDbEntity
  8
SOLBET_Wymiary_Opisy
 62
     1
100
AcDbPolyline
 90
        5
 70
     0
 43
0.0
 10
90.88662595095064
 20
191.6947216650945
 10
92.23837154387927
 20
192.3449399761197
 10
91.73987083876108
 20
193.3812782640328
 10
90.38812524583244
 20
192.7310599530082
 10
90.88662595095064
 20
191.6947216650945
  0
LWPOLYLINE
  5
2764
330
1F
100
AcDbEntity
  8
SOLBET_Wymiary_Opisy
 62
     1
100
AcDbPolyline
 90
        7
 70
     0
 43
0.0
 10
105.393905298579
 20
200.3439381149373
 10
87.74902817761011
 20
194.291584732908
 10
87.58680170916177
 20
194.764535653126
 10
105.2316788301306
 20
200.8168890351557
 10
105.5077430179428
 20
200.0120585231365
 10
104.3394797978673
 20
199.6113336100274
 10
104.2256420785035
 20
199.9432132018286
  0
LWPOLYLINE
  5
2765
330
1F
100
AcDbEntity
  8
SOLBET_Wymiary_Opisy
 62
     1
100
AcDbPolyline
 90
        7
 70
     0
 43
0.0
 10
104.3622635226695
 20
199.3126856002462
 10
86.7173864017006
 20
193.2603322182166
 10
86.55515993325224
 20
193.7332831384354
 10
104.2000370542211
 20
199.7856365204642
 10
104.4761012420296
 20
198.9808060084455
 10
103.3078380219578
 20
198.5800810953364
 10
103.194000302594
 20
198.9119606871371
  0
LWPOLYLINE
  5
2767
330
1F
100
AcDbEntity
  8
SOLBET_Wymiary_Opisy
 62
     1
100
AcDbPolyline
 90
        7
 70
     0
 43
0.0
 10
116.6584519063382
 20
205.762424040145
 10
99.01357478536574
 20
199.7100706581158
 10
98.85134831691738
 20
200.1830215783337
 10
116.4962254378899
 20
206.235374960363
 10
116.7722896256984
 20
205.4305444483438
 10
115.6040264056229
 20
205.0298195352351
 10
115.4901886862591
 20
205.3616991270359
  0
LWPOLYLINE
  5
2768
330
1F
100
AcDbEntity
  8
SOLBET_Wymiary_Opisy
 62
     1
100
AcDbPolyline
 90
        7
 70
     0
 43
0.0
 10
115.6268101304251
 20
204.7311715254535
 10
97.98193300945621
 20
198.6788181434243
 10
97.81970654100787
 20
199.1517690636427
 10
115.4645836619804
 20
205.2041224456715
 10
115.7406478497889
 20
204.3992919336528
 10
114.5723846297134
 20
203.9985670205441
 10
114.4585469103496
 20
204.3304466123444
  0
LWPOLYLINE
  5
2769
330
1F
100
AcDbEntity
  8
SOLBET_Wymiary_Opisy
 62
     1
100
AcDbPolyline
 90
        5
 70
     0
 43
0.0
 10
113.4157191664619
 20
202.5316935155096
 10
114.7674647593978
 20
203.1819118265347
 10
114.2689640542759
 20
204.2182501144479
 10
112.9172184613473
 20
203.5680318034236
 10
113.4157191664619
 20
202.5316935155096
  0
LWPOLYLINE
  5
276A
330
1F
100
AcDbEntity
  8
SOLBET_Wymiary_Opisy
 62
     1
100
AcDbPolyline
 90
        7
 70
     0
 43
0.0
 10
127.9229985140938
 20
211.1809099653523
 10
110.2781213931213
 20
205.1285565833231
 10
110.1158949246766
 20
205.6015075035415
 10
127.7607720456491
 20
211.6538608855707
 10
128.036836233454
 20
210.8490303735515
 10
126.8685730133785
 20
210.4483054604424
 10
126.754735294022
 20
210.7801850522436
  0
LWPOLYLINE
  5
276B
330
1F
100
AcDbEntity
  8
SOLBET_Wymiary_Opisy
 62
     1
100
AcDbPolyline
 90
        7
 70
     0
 43
0.0
 10
126.8913567381843
 20
210.1496574506612
 10
109.2464796172118
 20
204.0973040686316
 10
109.0842531487671
 20
204.5702549888505
 10
126.729130269736
 20
210.6226083708792
 10
127.0051944575445
 20
209.8177778588605
 10
125.836931237469
 20
209.4170529457514
 10
125.7230935181089
 20
209.7489325375522
  0
LWPOLYLINE
  5
276C
330
1F
100
AcDbEntity
  8
SOLBET_Wymiary_Opisy
 62
     1
100
AcDbPolyline
 90
        5
 70
     0
 43
0.0
 10
124.6802657742211
 20
207.9501794407173
 10
126.0320113671534
 20
208.600397751742
 10
125.5335106620315
 20
209.6367360396556
 10
124.1817650691029
 20
208.9865177286309
 10
124.6802657742211
 20
207.9501794407173
  0
LWPOLYLINE
  5
276D
330
1F
100
AcDbEntity
  8
SOLBET_Wymiary_Opisy
 62
     1
100
AcDbPolyline
 90
        7
 70
     0
 43
0.0
 10
139.1875451218531
 20
216.59939589056
 10
121.5426680008806
 20
210.5470425085308
 10
121.3804415324322
 20
211.0199934287487
 10
139.0253186534048
 20
217.072346810778
 10
139.3013828412096
 20
216.2675162987588
 10
138.1331196211378
 20
215.8667913856501
 10
138.0192819017777
 20
216.1986709774509
  0
LWPOLYLINE
  5
276E
330
1F
100
AcDbEntity
  8
SOLBET_Wymiary_Opisy
 62
     1
100
AcDbPolyline
 90
        7
 70
     0
 43
0.0
 10
138.1559033459399
 20
215.5681433758685
 10
120.5110262249711
 20
209.5157899938393
 10
120.3487997565227
 20
209.9887409140578
 10
137.9936768774952
 20
216.0410942960865
 10
138.2697410653001
 20
215.2362637840678
 10
137.1014778452283
 20
214.8355388709591
 10
136.9876401258681
 20
215.1674184627594
  0
LWPOLYLINE
  5
276F
330
1F
100
AcDbEntity
  8
SOLBET_Wymiary_Opisy
 62
     1
100
AcDbPolyline
 90
        5
 70
     0
 43
0.0
 10
135.9448123819804
 20
213.3686653659246
 10
137.296557974909
 20
214.0188836769497
 10
136.7980572697908
 20
215.0552219648629
 10
135.4463116768585
 20
214.4050036538386
 10
135.9448123819804
 20
213.3686653659246
  0
LWPOLYLINE
  5
2770
330
1F
100
AcDbEntity
  8
SOLBET_Wymiary_Opisy
 62
     1
100
AcDbPolyline
 90
        5
 70
     0
 43
0.0
 10
147.209358989736
 20
218.7871512911323
 10
148.5611045826646
 20
219.437369602157
 10
148.0626038775464
 20
220.4737078900706
 10
146.7108582846142
 20
219.8234895790459
 10
147.209358989736
 20
218.7871512911323
  0
LWPOLYLINE
  5
2771
330
1F
100
AcDbEntity
  8
SOLBET_Wymiary_Opisy
 62
     1
100
AcDbPolyline
 90
        4
 70
     0
 43
0.0
 10
149.2477539556732
 20
221.6047830024853
 10
132.8072146086362
 20
215.9655284337381
 10
132.6449881401879
 20
216.4384793539565
 10
149.2477539556732
 20
222.1333790772845
  0
LWPOLYLINE
  5
2772
330
1F
100
AcDbEntity
  8
SOLBET_Wymiary_Opisy
 62
     1
100
AcDbPolyline
 90
        3
 70
     0
 43
0.0
 10
149.2477539556732
 20
220.556466037386
 10
148.3660244529839
 20
220.2540247961664
 10
148.2521867336237
 20
220.5859043879672
  0
LWPOLYLINE
  5
2773
330
1F
100
AcDbEntity
  8
SOLBET_Wymiary_Opisy
 62
     1
100
AcDbPolyline
 90
        4
 70
     0
 43
0.0
 10
149.2477539556732
 20
220.9273930026001
 10
131.7755728327267
 20
214.9342759190466
 10
131.6133463642783
 20
215.4072268392655
 10
149.2477539556732
 20
221.4559890773993
  0
LINE
  5
2774
330
1F
100
AcDbEntity
  8
SOLBET_Izolacja
100
AcDbLine
 10
77.58761967514345
 20
174.1503791304702
 30
0.0
 11
75.05372460921198
 21
179.4181198726893
 31
0.0
  0
LINE
  5
2777
330
1F
100
AcDbEntity
  8
SOLBET_Izolacja
100
AcDbLine
 10
83.24883247976885
 20
169.4891873339569
 30
0.0
 11
149.2477539556732
 21
201.236068903945
 31
0.0
  0
LINE
  5
2780
330
1F
100
AcDbEntity
  8
SOLBET_Izolacja
100
AcDbLine
 10
75.05372460921198
 20
179.4181198726893
 30
0.0
 11
149.2477539556732
 21
215.1070222091052
 31
0.0
  0
LINE
  5
2786
330
1F
100
AcDbEntity
  8
SOLBET_Emulsje_Folie
100
AcDbLine
 10
83.35720219827107
 20
169.2638964018014
 30
0.0
 11
149.3561236741754
 21
201.0107779717899
 31
0.0
  0
LINE
  5
2787
330
1F
100
AcDbEntity
  8
SOLBET_Zaprawy
100
AcDbLine
 10
88.74883247976521
 20
171.5799658986638
 30
0.0
 11
149.4644933926813
 21
200.7854870396349
 31
0.0
  0
LINE
  5
2788
330
1F
100
AcDbEntity
  8
SOLBET_Tynki_Posadzki
100
AcDbLine
 10
88.74883247976521
 20
171.0251277664573
 30
0.0
 11
149.6812328296893
 21
200.3349051753243
 31
0.0
  0
LINE
  5
278B
330
1F
100
AcDbEntity
  8
SOLBET_Tynki_Posadzki
100
AcDbLine
 10
89.24883247976884
 20
166.9503791304777
 30
0.0
 11
89.24883247976884
 21
171.2656383752677
 31
0.0
  0
LINE
  5
27B7
330
1F
100
AcDbEntity
  8
SOLBET_Bloczki
100
AcDbLine
 10
84.74883247976521
 20
169.6558810281811
 30
0.0
 11
88.74883247976521
 21
171.5799658986638
 31
0.0
  0
LINE
  5
27E4
330
1F
100
AcDbEntity
  8
SOLBET_Beton
100
AcDbLine
 10
135.4845046930369
 20
112.4503791304777
 30
0.0
 11
147.4845046930369
 21
112.4503791304777
 31
0.0
  0
LWPOLYLINE
  5
27E5
330
1F
100
AcDbEntity
  8
SOLBET_Beton
100
AcDbPolyline
 90
        4
 70
     1
 43
0.0
 10
135.4845046930369
 20
108.9503791304777
 10
147.4845046930369
 20
108.9503791304777
 10
147.4845046930369
 20
117.4503791304776
 10
135.4845046930369
 20
117.4503791304776
  0
LINE
  5
27E6
330
1F
100
AcDbEntity
  8
SOLBET_Zbrojenie_Konstrukcja
100
AcDbLine
 10
146.2488324797652
 20
115.4503791304778
 30
0.0
 11
149.2477539556704
 21
109.8274013631554
 31
0.0
  0
LINE
  5
27E7
330
1F
100
AcDbEntity
  8
SOLBET_Zbrojenie_Konstrukcja
100
AcDbLine
 10
142.7821658130984
 20
108.9503791304776
 30
0.0
 11
146.2488324797652
 21
115.4503791304778
 31
0.0
  0
LINE
  5
27E9
330
1F
100
AcDbEntity
  8
SOLBET_Zbrojenie_Konstrukcja
100
AcDbLine
 10
118.7821658130984
 20
108.9503791304776
 30
0.0
 11
122.2488324797652
 21
115.4503791304778
 31
0.0
  0
LINE
  5
27EA
330
1F
100
AcDbEntity
  8
SOLBET_Zbrojenie_Konstrukcja
100
AcDbLine
 10
126.7821658130984
 20
108.9503791304776
 30
0.0
 11
130.248832479765
 21
115.4503791304778
 31
0.0
  0
LINE
  5
27EB
330
1F
100
AcDbEntity
  8
SOLBET_Zbrojenie_Konstrukcja
100
AcDbLine
 10
134.7821658130984
 20
108.9503791304776
 30
0.0
 11
138.248832479765
 21
115.4503791304778
 31
0.0
  0
LINE
  5
27EC
330
1F
100
AcDbEntity
  8
SOLBET_Zbrojenie_Konstrukcja
100
AcDbLine
 10
110.7821658130984
 20
108.9503791304776
 30
0.0
 11
114.2488324797652
 21
115.4503791304778
 31
0.0
  0
LINE
  5
27ED
330
1F
100
AcDbEntity
  8
SOLBET_Zbrojenie_Konstrukcja
100
AcDbLine
 10
102.7821658130984
 20
108.9503791304776
 30
0.0
 11
106.2488324797652
 21
115.4503791304778
 31
0.0
  0
LINE
  5
27EE
330
1F
100
AcDbEntity
  8
SOLBET_Zbrojenie_Konstrukcja
100
AcDbLine
 10
94.7821658130984
 20
108.9503791304776
 30
0.0
 11
98.24883247976522
 21
115.4503791304778
 31
0.0
  0
LINE
  5
27EF
330
1F
100
AcDbEntity
  8
SOLBET_Zbrojenie_Konstrukcja
100
AcDbLine
 10
86.78216581309852
 20
108.9503791304776
 30
0.0
 11
90.24883247976521
 21
115.4503791304778
 31
0.0
  0
LINE
  5
27F0
330
1F
100
AcDbEntity
  8
SOLBET_Zbrojenie_Konstrukcja
100
AcDbLine
 10
90.24883247976521
 20
115.4503791304778
 30
0.0
 11
93.7154991464318
 21
108.9503791304776
 31
0.0
  0
LINE
  5
27F1
330
1F
100
AcDbEntity
  8
SOLBET_Zbrojenie_Konstrukcja
100
AcDbLine
 10
98.24883247976522
 20
115.4503791304778
 30
0.0
 11
101.7154991464318
 21
108.9503791304776
 31
0.0
  0
LINE
  5
27F2
330
1F
100
AcDbEntity
  8
SOLBET_Zbrojenie_Konstrukcja
100
AcDbLine
 10
106.2488324797652
 20
115.4503791304778
 30
0.0
 11
109.715499146432
 21
108.9503791304776
 31
0.0
  0
LINE
  5
27F3
330
1F
100
AcDbEntity
  8
SOLBET_Zbrojenie_Konstrukcja
100
AcDbLine
 10
114.2488324797652
 20
115.4503791304778
 30
0.0
 11
117.715499146432
 21
108.9503791304776
 31
0.0
  0
LINE
  5
27F4
330
1F
100
AcDbEntity
  8
SOLBET_Zbrojenie_Konstrukcja
  6
Continuous
100
AcDbLine
 10
149.2477539556704
 20
115.4503791304779
 30
0.0
 11
84.74883247976521
 21
115.4503791304776
 31
0.0
  0
LINE
  5
27F5
330
1F
100
AcDbEntity
  8
SOLBET_Zbrojenie_Konstrukcja
100
AcDbLine
 10
138.248832479765
 20
115.4503791304778
 30
0.0
 11
141.7154991464318
 21
108.9503791304776
 31
0.0
  0
LINE
  5
27F6
330
1F
100
AcDbEntity
  8
SOLBET_Zbrojenie_Konstrukcja
100
AcDbLine
 10
130.248832479765
 20
115.4503791304778
 30
0.0
 11
133.7154991464318
 21
108.9503791304776
 31
0.0
  0
LINE
  5
27F7
330
1F
100
AcDbEntity
  8
SOLBET_Zbrojenie_Konstrukcja
100
AcDbLine
 10
122.2488324797652
 20
115.4503791304778
 30
0.0
 11
125.7154991464318
 21
108.9503791304776
 31
0.0
  0
LWPOLYLINE
  5
27FA
330
1F
100
AcDbEntity
  8
SOLBET_Beton
100
AcDbPolyline
 90
        5
 70
     1
 43
0.0
 10
84.74883247976521
 20
106.9503791304777
 10
88.7488324797651
 20
106.9503791304777
 10
149.2477539556704
 20
106.9503791304777
 10
149.2477539556704
 20
108.9503791304776
 10
84.74883247976521
 20
108.9503791304776
1001
ASO_SCHRAFF
1005
0
1070
     1
1002
{
1070
     1
1005
0
1002
}
1002
{
1070
     2
1005
0
1002
}
1002
{
1070
     4
1000
NET
1040
0.1
1040
45.0
1070
     0
1000
T__SCHR
1070
   256
1000
VONLAYER
1040
50.0
1070
     1
1002
}
  0
INSERT
  5
27FB
330
1F
100
AcDbEntity
  8
SOLBET_Beton
100
AcDbBlockReference
  2
*X3
 10
-484.9520834011913
 20
-349.0709619239494
 30
0.0
 41
50.0
 42
50.0
 43
50.0
1001
ASO_SCHRAFF
1005
0
1070
     0
1005
0
1001
ACAD
1000
HATCH
1002
{
1070
    16
1000
NET
1040
0.25
1040
0.7853981633974483
1002
}
  0
LINE
  5
27FC
330
1F
100
AcDbEntity
  8
SOLBET_Beton
100
AcDbLine
 10
123.484504693037
 20
112.4503791304777
 30
0.0
 11
135.4845046930369
 21
112.4503791304777
 31
0.0
  0
LWPOLYLINE
  5
27FD
330
1F
100
AcDbEntity
  8
SOLBET_Beton
100
AcDbPolyline
 90
        4
 70
     1
 43
0.0
 10
123.484504693037
 20
108.9503791304777
 10
135.4845046930369
 20
108.9503791304777
 10
135.4845046930369
 20
117.4503791304776
 10
123.484504693037
 20
117.4503791304776
  0
LINE
  5
27FE
330
1F
100
AcDbEntity
  8
SOLBET_Beton
100
AcDbLine
 10
111.4845046930369
 20
112.4503791304777
 30
0.0
 11
123.484504693037
 21
112.4503791304777
 31
0.0
  0
LWPOLYLINE
  5
27FF
330
1F
100
AcDbEntity
  8
SOLBET_Beton
100
AcDbPolyline
 90
        4
 70
     1
 43
0.0
 10
111.4845046930369
 20
108.9503791304777
 10
123.484504693037
 20
108.9503791304777
 10
123.484504693037
 20
117.4503791304776
 10
111.4845046930369
 20
117.4503791304776
  0
LINE
  5
2800
330
1F
100
AcDbEntity
  8
SOLBET_Beton
100
AcDbLine
 10
99.48450469303697
 20
112.4503791304777
 30
0.0
 11
111.4845046930369
 21
112.4503791304777
 31
0.0
  0
LWPOLYLINE
  5
2801
330
1F
100
AcDbEntity
  8
SOLBET_Beton
100
AcDbPolyline
 90
        4
 70
     1
 43
0.0
 10
99.48450469303697
 20
108.9503791304777
 10
111.4845046930369
 20
108.9503791304777
 10
111.4845046930369
 20
117.4503791304776
 10
99.48450469303697
 20
117.4503791304776
  0
LINE
  5
2802
330
1F
100
AcDbEntity
  8
SOLBET_Beton
100
AcDbLine
 10
87.48450469303334
 20
112.4503791304777
 30
0.0
 11
99.48450469303333
 21
112.4503791304777
 31
0.0
  0
LWPOLYLINE
  5
2803
330
1F
100
AcDbEntity
  8
SOLBET_Beton
100
AcDbPolyline
 90
        4
 70
     1
 43
0.0
 10
87.48450469303334
 20
108.9503791304777
 10
99.48450469303333
 20
108.9503791304777
 10
99.48450469303333
 20
117.4503791304776
 10
87.48450469303334
 20
117.4503791304776
  0
LINE
  5
280E
330
1F
100
AcDbEntity
  8
SOLBET_Izolacja
  6
BATTING
 48
0.36
100
AcDbLine
 10
76.67927038677345
 20
176.038755890363
 30
0.0
 11
148.7362945749345
 21
210.6997134034714
 31
0.0
  0
LINE
  5
2824
330
1F
100
AcDbEntity
  8
SOLBET_Izolacja
100
AcDbLine
 10
82.16513529472706
 20
171.7420966555089
 30
0.0
 11
82.16513529472706
 21
171.7420966555089
 31
0.0
  0
LINE
  5
2825
330
1F
100
AcDbEntity
  8
SOLBET_Izolacja
  6
BATTING
 48
0.24
100
AcDbLine
 10
83.98199359578416
 20
172.6256452884878
 30
0.0
 11
148.7783574250332
 21
203.682623462137
 31
0.0
  0
LINE
  5
283B
330
1F
100
AcDbEntity
  8
SOLBET_Izolacja
100
AcDbLine
 10
67.74883255926801
 20
177.5688262008575
 30
0.0
 11
67.74883255926801
 21
166.9503803010542
 31
0.0
  0
LINE
  5
283E
330
1F
100
AcDbEntity
  8
SOLBET_Izolacja
100
AcDbLine
 10
76.24883247976521
 20
174.1503791304702
 30
0.0
 11
76.24883247976521
 21
167.1903791304779
 31
0.0
  0
LINE
  5
283F
330
1F
100
AcDbEntity
  8
SOLBET_Izolacja
100
AcDbLine
 10
76.24883247976516
 20
166.9503791304777
 30
0.0
 11
71.74883247976885
 21
166.9503791304781
 31
0.0
  0
LINE
  5
2841
330
1F
100
AcDbEntity
  8
SOLBET_Izolacja
  6
BATTING
 48
0.4200000000000001
100
AcDbLine
 10
72.00135154669597
 20
166.9490660278015
 30
0.0
 11
72.00135154669597
 21
179.416806770013
 31
0.0
  0
LINE
  5
2843
330
1F
100
AcDbEntity
  8
SOLBET_Izolacja
100
AcDbLine
 10
75.05372460921202
 20
179.4181198726892
 30
0.0
 11
71.59334836041967
 21
179.4181198726892
 31
0.0
  0
LINE
  5
2844
330
1F
100
AcDbEntity
  8
SOLBET_Izolacja
100
AcDbLine
 10
74.74883247976885
 20
166.9503791304781
 30
0.0
 11
71.74883247976885
 21
166.9503791304781
 31
0.0
  0
LINE
  5
2845
330
1F
100
AcDbEntity
  8
SOLBET_Izolacja
100
AcDbLine
 10
71.74883247976885
 20
166.9503791304781
 30
0.0
 11
73.24883247976885
 21
166.9503791304781
 31
0.0
  0
LINE
  5
2846
330
1F
100
AcDbEntity
  8
SOLBET_Izolacja
  6
BATTING
 48
0.14
100
AcDbLine
 10
73.24883247976885
 20
166.9503791304781
 30
0.0
 11
73.24883247976885
 21
158.9503791304781
 31
0.0
  0
LINE
  5
2847
330
1F
100
AcDbEntity
  8
SOLBET_Izolacja
100
AcDbLine
 10
71.74883247976885
 20
118.9503791304777
 30
0.0
 11
74.74883247976885
 21
118.9503791304777
 31
0.0
  0
LINE
  5
2848
330
1F
100
AcDbEntity
  8
SOLBET_Izolacja
100
AcDbLine
 10
74.74883247976885
 20
118.9503791304777
 30
0.0
 11
74.74883247976885
 21
106.9503791451888
 31
0.0
  0
LINE
  5
2849
330
1F
100
AcDbEntity
  8
SOLBET_Izolacja
100
AcDbLine
 10
74.74883247976885
 20
106.9503791451888
 30
0.0
 11
71.74883247976885
 21
106.9503791451888
 31
0.0
  0
LINE
  5
284A
330
1F
100
AcDbEntity
  8
SOLBET_Izolacja
100
AcDbLine
 10
71.74883247976885
 20
106.9503791451888
 30
0.0
 11
71.74883247976885
 21
118.9503791304777
 31
0.0
  0
LINE
  5
284B
330
1F
100
AcDbEntity
  8
SOLBET_Izolacja
100
AcDbLine
 10
71.74883247976885
 20
118.9503791304777
 30
0.0
 11
73.24883247976885
 21
118.9503791304777
 31
0.0
  0
LINE
  5
284C
330
1F
100
AcDbEntity
  8
SOLBET_Izolacja
  6
BATTING
 48
0.14
100
AcDbLine
 10
73.24883247976885
 20
118.9503791304777
 30
0.0
 11
73.24883247976885
 21
106.9503791451888
 31
0.0
  0
LINE
  5
2855
330
1F
100
AcDbEntity
  8
SOLBET_Izolacja
100
AcDbLine
 10
88.74883247976521
 20
124.3236859640327
 30
0.0
 11
89.7488324797688
 21
124.3236859640327
 31
0.0
  0
LINE
  5
2856
330
1F
100
AcDbEntity
  8
SOLBET_Izolacja
100
AcDbLine
 10
89.7488324797688
 20
124.3236859640327
 30
0.0
 11
89.74883247870769
 21
118.9503791569382
 31
0.0
  0
LINE
  5
2859
330
1F
100
AcDbEntity
  8
SOLBET_Izolacja
100
AcDbLine
 10
89.74883247870769
 20
118.9503791569382
 30
0.0
 11
88.74883247976885
 21
118.9503791304777
 31
0.0
  0
LINE
  5
285A
330
1F
100
AcDbEntity
  8
SOLBET_Izolacja
100
AcDbLine
 10
88.74883247976885
 20
118.9503791304777
 30
0.0
 11
88.74883247976885
 21
124.3236859640327
 31
0.0
  0
LINE
  5
285B
330
1F
100
AcDbEntity
  8
SOLBET_Izolacja
  6
BATTING
 48
0.048
100
AcDbLine
 10
89.24883247976703
 20
119.0036201912679
 30
0.0
 11
89.24883247976703
 21
124.3236859640327
 31
0.0
  0
LINE
  5
285C
330
1F
100
AcDbEntity
  8
SOLBET_Izolacja
100
AcDbLine
 10
89.74883247976885
 20
121.4503791304777
 30
0.0
 11
89.7488325459202
 21
118.9503791569382
 31
0.0
  0
LINE
  5
285D
330
1F
100
AcDbEntity
  8
SOLBET_Izolacja
100
AcDbLine
 10
89.7488325459202
 20
118.9503791569382
 30
0.0
 11
149.2477539678313
 21
118.9503790845987
 31
0.0
  0
LINE
  5
285E
330
1F
100
AcDbEntity
  8
SOLBET_Izolacja
100
AcDbLine
 10
149.2477539556732
 20
121.4503791304777
 30
0.0
 11
89.7488324797689
 21
121.4503775561039
 31
0.0
  0
LINE
  5
285F
330
1F
100
AcDbEntity
  8
SOLBET_Izolacja
  6
BATTING
 48
0.12
100
AcDbLine
 10
89.74883251284456
 20
120.2003791437079
 30
0.0
 11
149.2477539556732
 21
120.2003791437079
 31
0.0
  0
LINE
  5
2877
330
1F
100
AcDbEntity
  8
SOLBET_Stolarka_Okna
100
AcDbLine
 10
76.24883247976516
 20
167.1903791304779
 30
0.0
 11
76.24883247976521
 21
174.1503791304702
 31
0.0
  0
LINE
  5
2878
330
1F
100
AcDbEntity
  8
SOLBET_Izolacja
100
AcDbLine
 10
83.98199359578416
 20
172.6256452884878
 30
0.0
 11
83.24883247976885
 21
172.2742402491887
 31
0.0
  0
LEADER
  5
287A
330
1F
100
AcDbEntity
  8
SOLBET_Wymiary_Opisy
100
AcDbLeader
  3
Solbet$7
 73
     0
 75
     1
 40
3.25
 41
33.25
 76
     3
 10
75.77163681381467
 20
167.1903791304779
 30
0.0
 10
49.44750093246125
 20
182.2571119461369
 30
0.0
 10
46.94750093246125
 20
182.2571119461369
 30
0.0
340
287B
213
0.1101187331678943
223
0.625
233
0.0
1001
ACAD
1000
DSTYLE
1002
{
1070
   147
1040
0.625
1070
    77
1070
     1
1002
}
  0
MTEXT
  5
287B
102
{ACAD_REACTORS
330
287A
102
}
330
1F
100
AcDbEntity
  8
SOLBET_Wymiary_Opisy
100
AcDbMText
 10
46.21238219929336
 20
185.5071119461369
 30
0.0
 40
2.5
 41
0.0
 71
     3
 72
     1
  1
Warstwa hydroizolacji
  7
Solbet_2_5
 73
     1
 44
1.0
1001
ACAD
1000
MTEXTBEGIN
1070
    73
1070
     1
1070
    44
1040
1.0
1070
    74
1070
     0
1000
MTEXTEND
  0
LEADER
  5
2884
330
1F
100
AcDbEntity
  8
SOLBET_Wymiary_Opisy
100
AcDbLeader
  3
Solbet$7
 73
     0
 75
     1
 40
3.25
 41
27.25
 76
     3
 10
80.59211856005049
 20
119.3123249872016
 30
0.0
 10
62.96817311898053
 20
128.2753460111885
 30
0.0
 10
60.46817311898053
 20
128.2753460111885
 30
0.0
340
2885
213
-0.625
223
0.625
233
0.0
1001
ACAD
1000
DSTYLE
1002
{
1070
   147
1040
0.625
1070
    77
1070
     1
1002
}
  0
MTEXT
  5
2885
102
{ACAD_REACTORS
330
2884
102
}
330
1F
100
AcDbEntity
  8
SOLBET_Wymiary_Opisy
100
AcDbMText
 10
60.46817311898053
 20
131.5253460111885
 30
0.0
 40
2.5
 41
0.0
 71
     3
 72
     1
  1
Zbrojenie MURFOR
  7
Solbet_2_5
 73
     1
 44
1.0
1001
ACAD
1000
MTEXTBEGIN
1070
    73
1070
     1
1070
    44
1040
1.0
1070
    74
1070
     0
1000
MTEXTEND
  0
LEADER
  5
2886
330
1F
100
AcDbEntity
  8
SOLBET_Wymiary_Opisy
100
AcDbLeader
  3
Solbet$7
 73
     0
 75
     1
 40
3.25
 41
31.0
 76
     3
 10
72.54905664656758
 20
117.8371325447451
 30
0.0
 10
62.7149387472179
 20
122.7421959654879
 30
0.0
 10
60.2149387472179
 20
122.7421959654879
 30
0.0
340
2887
213
-0.625
223
0.625
233
0.0
1001
ACAD
1000
DSTYLE
1002
{
1070
   147
1040
0.625
1070
    77
1070
     1
1002
}
  0
MTEXT
  5
2887
102
{ACAD_REACTORS
330
2886
102
}
330
1F
100
AcDbEntity
  8
SOLBET_Wymiary_Opisy
100
AcDbMText
 10
60.2149387472179
 20
125.9921959654879
 30
0.0
 40
2.5
 41
0.0
 71
     3
 72
     1
  1
Warstwa docieplenia
  7
Solbet_2_5
 73
     1
 44
1.0
1001
ACAD
1000
MTEXTBEGIN
1070
    73
1070
     1
1070
    44
1040
1.0
1070
    74
1070
     0
1000
MTEXTEND
  0
LEADER
  5
2888
330
1F
100
AcDbEntity
  8
SOLBET_Wymiary_Opisy
100
AcDbLeader
  3
Solbet$7
 73
     0
 75
     1
 40
3.25
 41
23.25
 76
     3
 10
70.80043870093891
 20
112.5886245118039
 30
0.0
 10
62.8235558140629
 20
116.7774989913995
 30
0.0
 10
60.3235558140629
 20
116.7774989913995
 30
0.0
340
2889
213
-0.625
223
0.625
233
0.0
1001
ACAD
1000
DSTYLE
1002
{
1070
   147
1040
0.625
1070
    77
1070
     1
1002
}
  0
MTEXT
  5
2889
102
{ACAD_XDICTIONARY
360
2D82
102
}
102
{ACAD_REACTORS
330
2888
102
}
330
1F
100
AcDbEntity
  8
SOLBET_Wymiary_Opisy
100
AcDbMText
 10
60.3235558140629
 20
120.0274989913995
 30
0.0
 40
2.5
 41
0.0
 71
     3
 72
     1
  1
P\U+0142ytka SOLBET
  7
Solbet_2_5
 73
     1
 44
1.0
1001
ACAD
1000
MTEXTBEGIN
1070
    73
1070
     1
1070
    44
1040
1.0
1070
    74
1070
     0
1000
MTEXTEND
  0
LEADER
  5
288A
330
1F
100
AcDbEntity
  8
SOLBET_Wymiary_Opisy
100
AcDbLeader
  3
Solbet$7
 73
     0
 75
     1
 40
3.25
 41
27.75
 76
     3
 10
78.63460610450283
 20
108.5773508063879
 30
0.0
 10
62.8235558140629
 20
99.70631109642409
 30
0.0
 10
60.3235558140629
 20
99.70631109642409
 30
0.0
340
288B
213
-0.625
223
0.625
233
0.0
1001
ACAD
1000
DSTYLE
1002
{
1070
   147
1040
0.625
1070
    77
1070
     1
1002
}
  0
MTEXT
  5
288B
102
{ACAD_XDICTIONARY
360
2D84
102
}
102
{ACAD_REACTORS
330
288A
102
}
330
1F
100
AcDbEntity
  8
SOLBET_Wymiary_Opisy
100
AcDbMText
 10
60.3235558140629
 20
102.9563110964241
 30
0.0
 40
2.5
 41
0.0
 71
     3
 72
     1
  1
Wieniec \U+017Celbetowy
  7
Solbet_2_5
 73
     1
 44
1.0
1001
ACAD
1000
MTEXTBEGIN
1070
    73
1070
     1
1070
    44
1040
1.0
1070
    74
1070
     0
1000
MTEXTEND
  0
MTEXT
  5
288D
102
{ACAD_XDICTIONARY
360
2D86
102
}
330
1F
100
AcDbEntity
  8
SOLBET_Wymiary_Opisy
100
AcDbMText
 10
94.83597299358752
 20
160.1896868871042
 30
0.0
 40
2.5
 41
45.61266565198366
 71
     1
 72
     1
  1
Mur\U+0142ata przymocowana \P\U+015Brubami kotwionymi w wie\U+0144cu
  7
Solbet_2_5
 73
     1
 44
1.0
1001
ACAD
1000
MTEXTBEGIN
1070
    73
1070
     1
1070
    44
1040
1.0
1070
    74
1070
     0
1000
MTEXTEND
  0
INSERT
  5
288E
330
1F
100
AcDbEntity
  8
SOLBET_Wymiary_Opisy
100
AcDbBlockReference
  2
_DotSmall
 10
80.49954877681329
 20
168.908661393775
 30
0.0
 41
2.500000000000004
 42
2.5
 43
2.5
 50
144.3732643216744
1001
ACAD
1000
DSTYLE
1002
{
1070
   147
1040
0.625
1070
    77
1070
     1
1002
}
  0
LWPOLYLINE
  5
288F
330
1F
100
AcDbEntity
  8
SOLBET_Wymiary_Opisy
100
AcDbPolyline
 90
        3
 70
     0
 43
0.0
 10
80.49954877681329
 20
168.908661393775
 10
93.75939165236577
 20
152.5230202204375
 10
138.7233785854834
 20
152.5230202204375
1001
ACAD
1000
DSTYLE
1002
{
1070
   147
1040
0.625
1070
    77
1070
     1
1002
}
  0
INSERT
  5
2890
330
1F
100
AcDbEntity
  8
SOLBET_Wymiary_Opisy
100
AcDbBlockReference
  2
_DotSmall
 10
78.74678550229714
 20
159.721140370273
 30
0.0
 41
2.5
 42
2.5
 43
2.5
 50
144.3732643216745
1001
ACAD
1000
DSTYLE
1002
{
1070
   147
1040
0.625
1070
    77
1070
     1
1002
}
  0
LWPOLYLINE
  5
2891
330
1F
100
AcDbEntity
  8
SOLBET_Wymiary_Opisy
100
AcDbPolyline
 90
        3
 70
     0
 43
0.0
 10
78.74678550229714
 20
159.721140370273
 10
93.75939165236577
 20
142.1779008208352
 10
137.9974255400588
 20
142.1779008208352
1001
ACAD
1000
DSTYLE
1002
{
1070
   147
1040
0.625
1070
    77
1070
     1
1002
}
  0
MTEXT
  5
2892
102
{ACAD_XDICTIONARY
360
2D88
102
}
330
1F
100
AcDbEntity
  8
SOLBET_Wymiary_Opisy
100
AcDbMText
 10
94.11001994816292
 20
149.6877661949273
 30
0.0
 40
2.5
 41
45.61266565198366
 71
     1
 72
     1
  1
Wieniec pod mur\U+0142at\U+0119 \Pw kszta\U+0142tkach U SOLBET
  7
Solbet_2_5
 73
     1
 44
1.0
1001
ACAD
1000
MTEXTBEGIN
1070
    73
1070
     1
1070
    44
1040
1.0
1070
    74
1070
     0
1000
MTEXTEND
  0
LEADER
  5
289B
330
1F
100
AcDbEntity
  8
SOLBET_Wymiary_Opisy
100
AcDbLeader
  3
Solbet$7
 73
     0
 74
     0
 75
     1
 40
3.25
 41
32.5
 76
     3
 10
86.09976741590765
 20
117.8805183822639
 30
0.0
 10
94.19094948276887
 20
129.6711337239983
 30
0.0
 10
96.69094948276887
 20
129.6711337239983
 30
0.0
213
0.0
223
-0.2322806831707567
233
0.0
1001
ACAD
1000
DSTYLE
1002
{
1070
   147
1040
0.625
1070
    77
1070
     1
1002
}
  0
MTEXT
  5
289C
102
{ACAD_XDICTIONARY
360
2D8A
102
}
102
{ACAD_REACTORS
330
289B
102
}
330
1F
100
AcDbEntity
  8
SOLBET_Wymiary_Opisy
100
AcDbMText
 10
94.41436933589391
 20
137.6237481614384
 30
0.0
 40
2.5
 41
37.73157436816473
 71
     1
 72
     1
  1
Zbrojenie g\U+00F3rne strefy przypodporowej
  7
Solbet_2_5
 73
     1
 44
1.0
1001
ACAD
1000
MTEXTBEGIN
1070
    73
1070
     1
1070
    44
1040
1.0
1070
    74
1070
     0
1000
MTEXTEND
1000
ACAD_MTEXT_DEFINED_HEIGHT_BEGIN
1070
    46
1040
8.726348223906139
1000
ACAD_MTEXT_DEFINED_HEIGHT_END
  0
MTEXT
  5
28A6
102
{ACAD_XDICTIONARY
360
28A7
102
}
330
1F
100
AcDbEntity
  8
SOLBET_Wymiary_Opisy @ 1
100
AcDbMText
 10
10.36686329877307
 20
290.7299988460193
 30
0.0
 40
5.0
 41
124.2624847080697
 71
     1
 72
     5
  1
{\LDETAL 90\P}Wieniec pod mur\U+0142at\U+0119 w \U+015Bcianie jednowarstwowej w kszta\U+0142tkach U
  7
Solbet_5
 73
     1
 44
1.0
1001
AcadAnnotative
1000
AnnotativeData
1002
{
1070
     1
1070
     0
1002
}
1001
ACAD
1000
MTEXTBEGIN
1070
    73
1070
     1
1070
    44
1040
1.0
1070
    74
1070
     0
1000
MTEXTEND
  0
LWPOLYLINE
  5
28B3
330
1F
100
AcDbEntity
  8
SOLBET_Ramka_05
100
AcDbPolyline
 90
        4
 70
     1
 43
0.0
 10
0.0
 20
0.0
 10
210.0
 20
0.0
 10
210.0
 20
297.0
 10
0.0
 20
297.0
  0
LINE
  5
291B
330
1F
100
AcDbEntity
  8
SOLBET_Bloczki
100
AcDbLine
 10
84.74883247976521
 20
169.6558810281811
 30
0.0
 11
84.74883247976885
 21
166.9503791304781
 31
0.0
  0
LINE
  5
291C
330
1F
100
AcDbEntity
  8
SOLBET_Bloczki
100
AcDbLine
 10
88.74883247976521
 20
171.5799658986638
 30
0.0
 11
88.74883247976521
 21
166.9503791304781
 31
0.0
  0
POINT
  5
2A13
330
1F
100
AcDbEntity
  8
SOLBET_Bloczki
100
AcDbPoint
 10
0.0
 20
0.0
 30
0.0
  0
HATCH
  5
2A58
330
1F
100
AcDbEntity
  8
SOLBET_Zbrojenie_Konstrukcja
100
AcDbHatch
 10
0.0
 20
0.0
 30
0.0
210
0.0
220
0.0
230
1.0
  2
SOLID
 70
     1
 71
     1
 91
        2
 92
        1
 93
       16
 72
     2
 10
75.67266511904271
 20
119.1276903729565
 40
0.1527030440025546
 50
232.4805170870749
 51
252.3561576040716
 73
     1
 72
     2
 10
75.72585709449487
 20
119.2949286114709
 40
0.3281966754365049
 50
252.3561576032582
 51
262.4947782688142
 73
     1
 72
     2
 10
75.76112508033268
 20
119.5626270316095
 40
0.5982082955008822
 50
262.4947782689663
 51
270.0000000000613
 73
     1
 72
     2
 10
75.7611250803357
 20
119.5626270316386
 40
0.5982082955299859
 50
269.9999999997727
 51
277.5052217308505
 73
     1
 72
     2
 10
75.79639306617396
 20
119.2949286114487
 40
0.3281966754147731
 50
277.5052217319433
 51
287.6438423975501
 73
     1
 72
     2
 10
75.84958504162286
 20
119.1276903729586
 40
0.1527030440048919
 50
287.6438423960804
 51
307.51948291277
 73
     1
 72
     2
 10
75.92841651796497
 20
119.0250274938037
 40
0.0232655362311873
 50
307.5194829128068
 51
359.9999999994401
 73
     1
 72
     2
 10
75.92841651796532
 20
119.0250274938029
 40
0.023265536230852
 50
0.0000000012948859
 51
52.48051708762496
 73
     1
 72
     2
 10
75.84958504162287
 20
118.9223646146506
 40
0.1527030440026826
 50
52.48051708660089
 51
72.3561576036612
 73
     1
 72
     2
 10
75.7963930661751
 20
118.7551263761515
 40
0.3281966754207808
 50
72.35615760299172
 51
82.49477826839507
 73
     1
 72
     2
 10
75.76112508033263
 20
118.4874279559742
 40
0.5982082955240744
 50
82.49477826877841
 51
89.99999999993331
 73
     1
 72
     2
 10
75.76112508033325
 20
118.4874279559888
 40
0.5982082955094655
 50
89.99999999999319
 51
97.50522173098033
 73
     1
 72
     2
 10
75.72585709449412
 20
118.7551263761394
 40
0.3281966754330671
 50
97.50522173113218
 51
107.6438423967946
 73
     1
 72
     2
 10
75.67266511904563
 20
118.9223646146586
 40
0.1527030439955751
 50
107.6438423979141
 51
127.5194829146003
 73
     1
 72
     2
 10
75.59383364270475
 20
119.0250274938021
 40
0.0232655362317541
 50
127.51948290997
 51
174.8627062164613
 73
     1
 72
     2
 10
75.59383364270316
 20
119.0250274938013
 40
0.0232655362302315
 50
174.8627062142977
 51
232.4805170807896
 73
     1
 97
        1
330
2709
 92
        1
 93
       16
 72
     2
 10
85.00909578737092
 20
119.1276903729565
 40
0.1527030440025546
 50
52.48051708707492
 51
72.35615760407163
 73
     0
 72
     2
 10
84.95590381191874
 20
119.2949286114709
 40
0.3281966754365049
 50
72.35615760325822
 51
82.49477826881424
 73
     0
 72
     2
 10
84.9206358260791
 20
119.5626270316372
 40
0.5982082955286077
 50
82.4947782691404
 51
90.00000000023545
 73
     0
 72
     2
 10
84.9206358260761
 20
119.5626270316109
 40
0.5982082955022606
 50
89.99999999994692
 51
97.5052217310246
 73
     0
 72
     2
 10
84.88536784023965
 20
119.2949286114487
 40
0.3281966754147731
 50
97.50522173194333
 51
107.6438423975501
 73
     0
 72
     2
 10
84.83217586479076
 20
119.1276903729586
 40
0.1527030440048919
 50
107.6438423960804
 51
127.51948291277
 73
     0
 72
     2
 10
84.75334438844864
 20
119.0250274938037
 40
0.0232655362311873
 50
127.5194829128067
 51
179.99999999944
 73
     0
 72
     2
 10
84.7533443884483
 20
119.0250274938029
 40
0.023265536230852
 50
180.0000000012949
 51
232.4805170876249
 73
     0
 72
     2
 10
84.83217586479074
 20
118.9223646146506
 40
0.1527030440026826
 50
232.4805170866009
 51
252.3561576036612
 73
     0
 72
     2
 10
84.88536784023851
 20
118.7551263761515
 40
0.3281966754207808
 50
252.3561576029917
 51
262.4947782683951
 73
     0
 72
     2
 10
84.92063582607917
 20
118.4874279560019
 40
0.598208295496349
 50
262.4947782686042
 51
269.9999999997591
 73
     0
 72
     2
 10
84.92063582607853
 20
118.487427955961
 40
0.598208295537205
 50
269.999999999819
 51
277.505221730806
 73
     0
 72
     2
 10
84.9559038119195
 20
118.7551263761394
 40
0.3281966754330671
 50
277.5052217311322
 51
287.6438423967946
 73
     0
 72
     2
 10
85.0090957873698
 20
118.9223646146482
 40
0.1527030440049097
 50
287.6438423960839
 51
307.5194829127711
 73
     0
 72
     2
 10
85.08792726371067
 20
119.0250274938062
 40
0.0232655362295707
 50
307.5194829197467
 51
354.8627062262383
 73
     0
 72
     2
 10
85.08792726371046
 20
119.0250274938013
 40
0.0232655362302315
 50
354.8627062142978
 51
412.4805170807896
 73
     0
 97
        1
330
2707
 75
     0
 76
     1
 98
        1
 10
-0.0076394676505061
 20
-0.1221425084835346
1001
ACAD
1010
0.0
1020
0.0
1030
0.0
  0
LINE
  5
2A59
330
1F
100
AcDbEntity
  8
SOLBET_Zbrojenie_Konstrukcja
100
AcDbLine
 10
75.95168205419617
 20
119.0250274938029
 30
0.0
 11
84.73007885221745
 21
119.0250274938037
 31
0.0
  0
LINE
  5
2A79
330
1F
100
AcDbEntity
  8
SOLBET_Izolacja
100
AcDbLine
 10
76.24883247976521
 20
167.1903791304779
 30
0.0
 11
76.24883247976517
 21
176.9335977211197
 31
0.0
  0
LINE
  5
2A82
330
1F
100
AcDbEntity
  8
SOLBET_Wymiary_Opisy
100
AcDbLine
 10
35.53254027908098
 20
162.0721060610208
 30
0.0
 11
35.53254027908098
 21
152.6948236750854
 31
0.0
  0
LINE
  5
2A83
330
1F
100
AcDbEntity
  8
SOLBET_Wymiary_Opisy
100
AcDbLine
 10
35.53254027908098
 20
153.8448236750854
 30
0.0
 11
66.24883247976885
 21
153.8448236750854
 31
0.0
  0
LINE
  5
2A85
330
1F
100
AcDbEntity
  8
SOLBET_Wymiary_Opisy
100
AcDbLine
 10
44.53254027908098
 20
153.8448236750854
 30
0.0
 11
44.53254027908098
 21
152.6948236750854
 31
0.0
  0
LINE
  5
2A86
330
1F
100
AcDbEntity
  8
SOLBET_Wymiary_Opisy
100
AcDbLine
 10
53.53254027908098
 20
153.8448236750854
 30
0.0
 11
53.53254027908098
 21
152.6948236750854
 31
0.0
  0
LINE
  5
2A87
330
1F
100
AcDbEntity
  8
SOLBET_Wymiary_Opisy
100
AcDbLine
 10
60.53254027908098
 20
153.8448236750854
 30
0.0
 11
60.53254027908098
 21
152.6948236750854
 31
0.0
  0
LINE
  5
2A8C
330
1F
100
AcDbEntity
  8
SOLBET_Zbrojenie_Konstrukcja
100
AcDbLine
 10
53.53254027908098
 20
153.8448236750854
 30
0.0
 11
53.53254027908098
 21
152.6948236750854
 31
0.0
  0
LINE
  5
2A8D
330
1F
100
AcDbEntity
  8
SOLBET_Zbrojenie_Konstrukcja
100
AcDbLine
 10
53.53254027908098
 20
152.6948236750854
 30
0.0
 11
60.53254027908099
 21
152.6948236750854
 31
0.0
  0
LINE
  5
2A8E
330
1F
100
AcDbEntity
  8
SOLBET_Zbrojenie_Konstrukcja
100
AcDbLine
 10
60.53254027908099
 20
152.6948236750854
 30
0.0
 11
60.53254027908099
 21
153.8448236750854
 31
0.0
  0
LINE
  5
2A8F
330
1F
100
AcDbEntity
  8
SOLBET_Zbrojenie_Konstrukcja
100
AcDbLine
 10
60.53254027908096
 20
153.8448236750854
 30
0.0
 11
53.53254027908096
 21
153.8448236750854
 31
0.0
  0
LINE
  5
2A90
330
1F
100
AcDbEntity
  8
SOLBET_Zbrojenie_Konstrukcja
100
AcDbLine
 10
53.53254027908099
 20
153.8448236750854
 30
0.0
 11
60.53254027908098
 21
152.6948236750854
 31
0.0
  0
LINE
  5
2A91
330
1F
100
AcDbEntity
  8
SOLBET_Zbrojenie_Konstrukcja
100
AcDbLine
 10
60.53254027908099
 20
153.8448236750854
 30
0.0
 11
53.53254027908098
 21
152.6948236750854
 31
0.0
  0
LWPOLYLINE
  5
2A9E
330
1F
100
AcDbEntity
  8
SOLBET_Emulsje_Folie
100
AcDbPolyline
 90
        4
 70
     1
 43
0.0
 10
75.22596189030281
 20
167.1903791304779
 10
84.27170306922761
 20
167.1903791304779
 10
84.27170306922761
 20
166.9503791304781
 10
75.22596189030281
 20
166.9503791304781
  0
LINE
  5
2A9F
330
1F
100
AcDbEntity
  8
SOLBET_Emulsje_Folie
  6
DASHED2
 48
0.3
370
    30
100
AcDbLine
 10
75.22596189030281
 20
167.0703791304789
 30
0.0
 11
84.27170306922761
 21
167.0703791304789
 31
0.0
  0
ARC
  5
2AAB
330
1F
100
AcDbEntity
  8
SOLBET_Stolarka_Okna
  6
ByBlock
100
AcDbCircle
 10
83.24883247976917
 20
176.4837124638034
 30
0.0
 40
3.033333333333342
100
AcDbArc
 50
230.2848627681367
 51
270.0
  0
ARC
  5
2AAC
330
1F
100
AcDbEntity
  8
SOLBET_Stolarka_Okna
  6
ByBlock
100
AcDbCircle
 10
83.24883247976917
 20
176.4837124638034
 30
0.0
 40
4.433333333333342
100
AcDbArc
 50
211.7568638592842
 51
270.0
  0
ARC
  5
2AAD
330
1F
100
AcDbEntity
  8
SOLBET_Stolarka_Okna
  6
ByBlock
100
AcDbCircle
 10
83.24883247976917
 20
176.4837124638034
 30
0.0
 40
5.833333333333342
100
AcDbArc
 50
203.5781784781894
 51
270.0
  0
ARC
  5
2AAE
330
1F
100
AcDbEntity
  8
SOLBET_Stolarka_Okna
  6
ByBlock
100
AcDbCircle
 10
83.24883247976917
 20
176.4837124638034
 30
0.0
 40
7.233333333333343
100
AcDbArc
 50
198.8190633689819
 51
270.0
  0
ARC
  5
2AAF
330
1F
100
AcDbEntity
  8
SOLBET_Stolarka_Okna
  6
ByBlock
100
AcDbCircle
 10
83.24883247976917
 20
176.4837124638034
 30
0.0
 40
8.633333333333343
100
AcDbArc
 50
215.8247743686515
 51
270.0
  0
ARC
  5
2AB0
330
1F
100
AcDbEntity
  8
SOLBET_Stolarka_Okna
  6
ByBlock
100
AcDbCircle
 10
83.24883247976917
 20
176.4837124638034
 30
0.0
 40
10.03333333333334
100
AcDbArc
 50
225.7592812097981
 51
247.8569742107826
  0
ARC
  5
2AB1
330
1F
100
AcDbEntity
  8
SOLBET_Stolarka_Okna
  6
ByBlock
100
AcDbCircle
 10
83.24883247976917
 20
176.4837124638034
 30
0.0
 40
11.43333333333334
100
AcDbArc
 50
232.2479986938277
 51
234.3731609725678
  0
LINE
  5
2AC3
330
1F
100
AcDbEntity
  8
SOLBET_Wymiary_Opisy
100
AcDbLine
 10
61.24883247976885
 20
153.8448236750854
 30
0.0
 11
61.24883247976885
 21
164.4551018683666
 31
0.0
  0
LINE
  5
2AC4
330
1F
100
AcDbEntity
  8
SOLBET_Wymiary_Opisy
100
AcDbLine
 10
66.24883247976885
 20
152.6948236750867
 30
0.0
 11
66.24883247976885
 21
166.8602079564699
 31
0.0
  0
LINE
  5
2AC5
330
1F
100
AcDbEntity
  8
SOLBET_Wymiary_Opisy
100
AcDbLine
 10
34.38254027908096
 20
152.6948236750853
 30
0.0
 11
34.38254027908096
 21
161.518931660756
 31
0.0
  0
LINE
  5
2AC6
330
1F
100
AcDbEntity
  8
SOLBET_Wymiary_Opisy
100
AcDbLine
 10
49.27373037975364
 20
158.6948236750857
 30
0.0
 11
66.24883247976885
 21
158.6948236750862
 31
0.0
  0
LINE
  5
2AC7
330
1F
100
AcDbEntity
  8
SOLBET_Wymiary_Opisy
100
AcDbLine
 10
34.38254027908096
 20
152.6948236750853
 30
0.0
 11
66.24883247976885
 21
152.6948236750867
 31
0.0
  0
LINE
  5
2AC8
330
1F
100
AcDbEntity
  8
SOLBET_Wymiary_Opisy
100
AcDbLine
 10
39.19101506006221
 20
153.8448236750854
 30
0.0
 11
76.24883247976885
 21
171.6704201326764
 31
0.0
  0
MTEXT
  5
2AD1
330
1F
100
AcDbEntity
  8
SOLBET_Wymiary_Opisy
100
AcDbMText
 10
39.03310431213345
 20
146.87916189185
 30
0.0
 40
2.5
 41
0.0
 71
     3
 72
     1
  1
Podbitka
  7
Solbet_2_5
 73
     1
 44
1.0
1001
ACAD
1000
MTEXTBEGIN
1070
    73
1070
     1
1070
    44
1040
1.0
1070
    74
1070
     0
1000
MTEXTEND
  0
INSERT
  5
2AD2
330
1F
100
AcDbEntity
  8
SOLBET_Wymiary_Opisy
100
AcDbBlockReference
  2
_DotSmall
 10
50.83041748758228
 20
153.112949391903
 30
0.0
 41
2.5
 42
2.5
 43
2.5
 50
42.11788924056437
1001
ACAD
1000
DSTYLE
1002
{
1070
   147
1040
0.625
1070
    77
1070
     1
1002
}
  0
LWPOLYLINE
  5
2AD4
330
1F
100
AcDbEntity
  8
SOLBET_Wymiary_Opisy
100
AcDbPolyline
 90
        3
 70
     0
 43
0.0
 10
58.20978145460264
 20
153.4632275824925
 10
41.53308699600876
 20
138.830527642861
 10
8.275682384927222
 20
138.8091174152116
1001
ACAD
1000
DSTYLE
1002
{
1070
   147
1040
0.625
1070
    77
1070
     1
1002
}
  0
MTEXT
  5
2AD5
330
1F
100
AcDbEntity
  8
SOLBET_Wymiary_Opisy
100
AcDbMText
 10
39.30739248240661
 20
141.9943102894825
 30
0.0
 40
2.5
 41
0.0
 71
     3
 72
     1
  1
Kratka wentylacyjna
  7
Solbet_2_5
 73
     1
 44
1.0
1001
ACAD
1000
MTEXTBEGIN
1070
    73
1070
     1
1070
    44
1040
1.0
1070
    74
1070
     0
1000
MTEXTEND
  0
INSERT
  5
2AD6
330
1F
100
AcDbEntity
  8
SOLBET_Wymiary_Opisy
100
AcDbBlockReference
  2
_DotSmall
 10
58.20978145460264
 20
153.4632275824925
 30
0.0
 41
2.5
 42
2.5
 43
2.5
 50
42.11788924056437
1001
ACAD
1000
DSTYLE
1002
{
1070
   147
1040
0.625
1070
    77
1070
     1
1002
}
  0
LINE
  5
2AD7
330
1F
100
AcDbEntity
  8
SOLBET_Wymiary_Opisy
100
AcDbLine
 10
50.83041748758228
 20
153.112949391903
 30
0.0
 11
40.61843298287982
 21
143.7648513627129
 31
0.0
1001
ACAD
1000
DSTYLE
1002
{
1070
   147
1040
0.625
1070
    77
1070
     1
1002
}
  0
LINE
  5
2AD9
330
1F
100
AcDbEntity
  8
SOLBET_Wymiary_Opisy
100
AcDbLine
 10
40.61843298287982
 20
143.7648513627129
 30
0.0
 11
25.74405306734707
 21
143.7648513627129
 31
0.0
  0
LINE
  5
2B44
330
1F
100
AcDbEntity
  8
SOLBET_Wymiary_Opisy
  6
Continuous
100
AcDbLine
 10
33.71064802435483
 20
162.915735440118
 30
0.0
 11
33.212147319233
 21
163.9520737280317
 31
0.0
  0
LINE
  5
2B91
330
1F
100
AcDbEntity
  8
SOLBET_Zbrojenie_Konstrukcja
100
AcDbLine
 10
53.53254027908098
 20
152.6948236750854
 30
0.0
 11
60.53254027908099
 21
152.6948236750854
 31
0.0
  0
INSERT
  5
2CA9
330
1F
100
AcDbEntity
  8
SOLBET_Bloczki
100
AcDbBlockReference
  2
SOLBET_Ksztaltka_U_420x240x500_KG400_PRA
 10
67.74883255926437
 20
166.9503803010542
 30
0.0
 50
270.0
  0
INSERT
  5
2CB8
330
1F
100
AcDbEntity
  8
SOLBET_Bloczki
100
AcDbBlockReference
  2
SOLBET_Plytka_80x240x590_KG600_PRA
 10
67.74883247976885
 20
106.9503791304777
 30
0.0
  0
INSERT
  5
2CC9
330
1F
100
AcDbEntity
  8
SOLBET_Bloczki
100
AcDbBlockReference
  2
SOLBET_Bloczek_Ideal_420x240x590_P+W_KG400_PRA
 10
67.74883247976885
 20
118.9503793351128
 30
0.0
  0
INSERT
  5
2CCA
330
1F
100
AcDbEntity
  8
SOLBET_Bloczki
100
AcDbBlockReference
  2
SOLBET_Bloczek_Ideal_420x240x590_P+W_KG400_PRA
 10
67.74883247976885
 20
130.9503795392613
 30
0.0
  0
INSERT
  5
2CCB
330
1F
100
AcDbEntity
  8
SOLBET_Bloczki
100
AcDbBlockReference
  2
SOLBET_Bloczek_Ideal_420x240x590_P+W_KG400_PRA
 10
67.74883262051815
 20
142.9503797434098
 30
0.0
  0
MTEXT
  5
2D40
102
{ACAD_XDICTIONARY
360
2D41
102
}
330
1F
100
AcDbEntity
  8
SOLBET_Wymiary_Opisy
100
AcDbMText
 10
176.9024892334916
 20
7.273150535415538
 30
0.0
 40
5.0
 41
0.0
 71
     1
 72
     5
  1
Skala 1:20
  7
Solbet_5
 73
     1
 44
1.0
1001
ACAD
1000
MTEXTBEGIN
1070
    73
1070
     1
1070
    44
1040
1.0
1070
    74
1070
     0
1000
MTEXTEND
1000
ACAD_MTEXT_DEFINED_HEIGHT_BEGIN
1070
    46
1040
5.395147572682731
1000
ACAD_MTEXT_DEFINED_HEIGHT_END
  0
LWPOLYLINE
  5
2D43
330
1F
100
AcDbEntity
  8
SOLBET_Ramka_05
100
AcDbPolyline
 90
        4
 70
     1
 43
0.0
 10
173.8838231125778
 20
9.804221198935465
 10
210.0
 20
9.804221198935465
 10
210.0
 20
0.0
 10
173.8838231125779
 20
0.0
  0
ENDSEC
  0
SECTION
  2
OBJECTS
  0
DICTIONARY
  5
C
330
0
100
AcDbDictionary
281
     1
  3
ACAD_COLOR
350
6B
  3
ACAD_GROUP
350
D
  3
ACAD_LAYOUT
350
1A
  3
ACAD_MATERIAL
350
6A
  3
ACAD_MLEADERSTYLE
350
12D
  3
ACAD_MLINESTYLE
350
17
  3
ACAD_PLOTSETTINGS
350
19
  3
ACAD_PLOTSTYLENAME
350
E
  3
ACAD_SCALELIST
350
10C
  3
ACAD_TABLESTYLE
350
7E
  3
ACAD_VISUALSTYLE
350
EF
  3
ACDB_RECOMPOSE_DATA
350
15D
  3
AcDbVariableDictionary
350
5E
  3
DWGPROPS
350
2D75
  0
DICTIONARY
  5
443
330
8
100
AcDbDictionary
280
     1
281
     1
  0
DICTIONARY
  5
3E5
330
2
100
AcDbDictionary
280
     1
281
     1
  3
ACAD_LAYERFILTERS
360
1883
  3
ACLYDICTIONARY
360
1882
  0
DICTIONARY
  5
13C
330
10
100
AcDbDictionary
280
     1
281
     1
  3
ADSK_XREC_LAYER_RECONCILED
360
3F4
  0
DICTIONARY
  5
403
330
3DD
100
AcDbDictionary
280
     1
281
     1
  3
ADSK_XREC_LAYER_RECONCILED
360
404
  0
DICTIONARY
  5
405
330
3DF
100
AcDbDictionary
280
     1
281
     1
  3
ADSK_XREC_LAYER_RECONCILED
360
406
  0
DICTIONARY
  5
409
330
3E1
100
AcDbDictionary
280
     1
281
     1
  3
ADSK_XREC_LAYER_RECONCILED
360
40A
  0
DICTIONARY
  5
40B
330
3E2
100
AcDbDictionary
280
     1
281
     1
  3
ADSK_XREC_LAYER_RECONCILED
360
40C
  0
DICTIONARY
  5
40F
330
3E4
100
AcDbDictionary
280
     1
281
     1
  3
ADSK_XREC_LAYER_RECONCILED
360
410
  0
DICTIONARY
  5
411
330
3E8
100
AcDbDictionary
280
     1
281
     1
  3
ADSK_XREC_LAYER_RECONCILED
360
412
  0
DICTIONARY
  5
2C60
330
2C5F
100
AcDbDictionary
280
     1
281
     1
  3
ASDK_XREC_ANNO_SCALE_INFO
360
2C61
  0
DICTIONARY
  5
4A3
330
1F
100
AcDbDictionary
280
     1
281
     1
  3
ACAD_SORTENTS
360
4A4
  0
DICTIONARY
  5
28E0
330
28D2
100
AcDbDictionary
280
     1
281
     1
  3
ACAD_SORTENTS
360
28E1
  0
DICTIONARY
  5
28F5
330
28E9
100
AcDbDictionary
280
     1
281
     1
  3
ACAD_SORTENTS
360
28F6
  0
DICTIONARY
  5
290C
330
2902
100
AcDbDictionary
280
     1
281
     1
  3
ACAD_SORTENTS
360
290D
  0
DICTIONARY
  5
298E
330
2982
100
AcDbDictionary
280
     1
281
     1
  3
ACAD_SORTENTS
360
298F
  0
DICTIONARY
  5
2CA5
330
2C97
100
AcDbDictionary
280
     1
281
     1
  3
ACAD_SORTENTS
360
2CA6
  0
DICTIONARY
  5
2CB4
330
2CAA
100
AcDbDictionary
280
     1
281
     1
  3
ACAD_SORTENTS
360
2CB5
  0
DICTIONARY
  5
2CC5
330
2CB9
100
AcDbDictionary
280
     1
281
     1
  3
ACAD_SORTENTS
360
2CC6
  0
DICTIONARY
  5
2D82
330
2889
100
AcDbDictionary
280
     1
281
     1
  3
ACAD_MTEXT_RT
360
2D83
  0
DICTIONARY
  5
2D84
330
288B
100
AcDbDictionary
280
     1
281
     1
  3
ACAD_MTEXT_RT
360
2D85
  0
DICTIONARY
  5
2D86
330
288D
100
AcDbDictionary
280
     1
281
     1
  3
ACAD_MTEXT_RT
360
2D87
  0
DICTIONARY
  5
2D88
330
2892
100
AcDbDictionary
280
     1
281
     1
  3
ACAD_MTEXT_RT
360
2D89
  0
DICTIONARY
  5
2D8A
330
289C
100
AcDbDictionary
280
     1
281
     1
  3
ACAD_MTEXT_RT
360
2D8B
  0
DICTIONARY
  5
28A7
330
28A6
100
AcDbDictionary
280
     1
281
     1
  3
ACAD_MTEXT_RT
360
2D8C
  3
AcDbContextDataManager
360
28A8
  0
DICTIONARY
  5
2D41
330
2D40
100
AcDbDictionary
280
     1
281
     1
  3
ACAD_MTEXT_2008_RT
360
2D42
  0
DICTIONARY
  5
6B
102
{ACAD_REACTORS
330
C
102
}
330
C
100
AcDbDictionary
281
     1
  0
DICTIONARY
  5
D
102
{ACAD_REACTORS
330
C
102
}
330
C
100
AcDbDictionary
281
     1
  0
DICTIONARY
  5
1A
102
{ACAD_REACTORS
330
C
102
}
330
C
100
AcDbDictionary
281
     1
  3
Arkusz1
350
D3
  3
Arkusz2
350
D7
  3
Model
350
22
  0
DICTIONARY
  5
6A
102
{ACAD_REACTORS
330
C
102
}
330
C
100
AcDbDictionary
281
     1
  3
ByBlock
350
ED
  3
ByLayer
350
EC
  3
Global
350
EE
  0
DICTIONARY
  5
12D
102
{ACAD_REACTORS
330
C
102
}
330
C
100
AcDbDictionary
281
     1
  3
Standard
350
12E
  0
DICTIONARY
  5
17
102
{ACAD_REACTORS
330
C
102
}
330
C
100
AcDbDictionary
281
     1
  3
SOLBET_IZOLACJA
350
7E9
  3
Standard
350
18
  0
DICTIONARY
  5
19
102
{ACAD_REACTORS
330
C
102
}
330
C
100
AcDbDictionary
281
     1
  0
ACDBDICTIONARYWDFLT
  5
E
102
{ACAD_REACTORS
330
C
102
}
330
C
100
AcDbDictionary
281
     1
  3
Normal
350
F
100
AcDbDictionaryWithDefault
340
F
  0
DICTIONARY
  5
10C
102
{ACAD_REACTORS
330
C
102
}
330
C
100
AcDbDictionary
281
     1
  3
A0
350
10D
  3
A1
350
188
  3
A2
350
189
  3
A3
350
18A
  3
A4
350
18B
  3
A5
350
18C
  3
A6
350
18D
  3
A7
350
18E
  3
A8
350
18F
  3
A9
350
190
  3
B0
350
191
  3
B1
350
192
  3
B2
350
193
  3
B3
350
194
  3
B4
350
195
  3
B5
350
196
  3
B6
350
197
  3
B7
350
198
  3
B8
350
199
  3
B9
350
19A
  3
C0
350
19B
  3
C1
350
19C
  3
C2
350
19D
  3
C3
350
19E
  3
C4
350
19F
  3
C5
350
1A0
  3
C6
350
1A1
  3
C7
350
1A2
  3
C8
350
1A3
  3
C9
350
1A4
  3
D0
350
1A5
  3
D1
350
1A6
  3
D2
350
1A7
  0
DICTIONARY
  5
7E
102
{ACAD_REACTORS
330
C
102
}
330
C
100
AcDbDictionary
281
     1
  3
Standard
350
7F
  0
DICTIONARY
  5
EF
102
{ACAD_REACTORS
330
C
102
}
330
C
100
AcDbDictionary
281
     1
  3
2dWireframe
350
F5
  3
3D Hidden
350
F7
  3
3dWireframe
350
F6
  3
Basic
350
F4
  3
Brighten
350
FB
  3
ColorChange
350
FF
  3
Conceptual
350
F8
  3
Dim
350
FA
  3
Facepattern
350
FE
  3
Flat
350
F0
  3
FlatWithEdges
350
F1
  3
Gouraud
350
F2
  3
GouraudWithEdges
350
F3
  3
Linepattern
350
FD
  3
Realistic
350
F9
  3
Thicken
350
FC
  0
XRECORD
  5
15D
102
{ACAD_REACTORS
330
C
102
}
330
C
100
AcDbXrecord
280
     1
 90
        1
330
7F
330
28A6
  0
DICTIONARY
  5
5E
102
{ACAD_REACTORS
330
C
102
}
330
C
100
AcDbDictionary
281
     1
  3
CANNOSCALE
350
146
  3
CMLEADERSTYLE
350
145
  3
CTABLESTYLE
350
84
  3
DIMASSOC
350
5F
  3
HIDETEXT
350
63
  3
INDEXCTL
350
466
  3
LIGHTINGUNITS
350
464
  3
MSLTSCALE
350
463
  3
PSOLHEIGHT
350
2D74
  3
PSOLWIDTH
350
2D73
  3
SORTENTS
350
465
  0
XRECORD
  5
2D75
102
{ACAD_REACTORS
330
C
102
}
330
C
100
AcDbXrecord
280
     1
  1
DWGPROPS COOKIE
  2

  3

  4

  6

  7

  8
Olus
  9

300
=
301
=
302
=
303
=
304
=
305
=
306
=
307
=
308
=
309
=
 40
0.6424886805555556
 41
2454690.075573148
 42
2454848.887222315
  1

 90
        0
  0
DICTIONARY
  5
1883
102
{ACAD_REACTORS
330
3E5
102
}
330
3E5
100
AcDbDictionary
281
     1
  0
DICTIONARY
  5
1882
102
{ACAD_REACTORS
330
3E5
102
}
330
3E5
100
AcDbDictionary
281
     1
1001
ACAD
1000
<All
  0
XRECORD
  5
3F4
102
{ACAD_REACTORS
330
13C
102
}
330
13C
100
AcDbXrecord
280
     1
290
     1
  0
XRECORD
  5
404
102
{ACAD_REACTORS
330
403
102
}
330
403
100
AcDbXrecord
280
     1
290
     1
  0
XRECORD
  5
406
102
{ACAD_REACTORS
330
405
102
}
330
405
100
AcDbXrecord
280
     1
290
     1
  0
XRECORD
  5
40A
102
{ACAD_REACTORS
330
409
102
}
330
409
100
AcDbXrecord
280
     1
290
     1
  0
XRECORD
  5
40C
102
{ACAD_REACTORS
330
40B
102
}
330
40B
100
AcDbXrecord
280
     1
290
     1
  0
XRECORD
  5
410
102
{ACAD_REACTORS
330
40F
102
}
330
40F
100
AcDbXrecord
280
     1
290
     1
  0
XRECORD
  5
412
102
{ACAD_REACTORS
330
411
102
}
330
411
100
AcDbXrecord
280
     1
290
     1
  0
XRECORD
  5
2C61
102
{ACAD_REACTORS
330
2C60
102
}
330
2C60
100
AcDbXrecord
280
     1
 70
     1
340
10D
340
3DF
 70
    -1
  0
SORTENTSTABLE
  5
4A4
102
{ACAD_REACTORS
330
4A3
102
}
330
4A3
100
AcDbSortentsTable
330
1F
331
26F7
  5
270E
331
26FF
  5
271F
331
2707
  5
2728
331
2AAB
  5
2752
331
278B
  5
2844
331
274C
  5
2779
331
2754
  5
277F
331
2715
  5
273E
331
2AC3
  5
2AC4
331
2889
  5
289C
331
275C
  5
2787
331
2891
  5
2992
331
284A
  5
285E
331
2764
  5
27E6
331
2725
  5
2746
331
27EB
  5
26D8
331
2A86
  5
2A90
331
26D8
  5
26EE
331
26E8
  5
26FF
331
276C
  5
27F7
331
272D
  5
274E
331
27F3
  5
26E0
331
285A
  5
2884
331
2774
  5
2825
331
2735
  5
275E
331
27FB
  5
26E8
331
2A8E
  5
2AAA
331
273D
  5
2766
331
2803
  5
271D
331
2A9E
  5
2AB0
331
2745
  5
2776
331
26F0
  5
2707
331
26F8
  5
270F
331
2AAC
  5
2753
331
287A
  5
288D
331
283B
  5
2849
331
2AC4
  5
2AC5
331
288A
  5
28A6
331
2843
  5
2855
331
275D
  5
2788
331
271E
  5
273F
331
27E4
  5
2719
331
2892
  5
2995
331
284B
  5
285F
331
2765
  5
27E7
331
2726
  5
2747
331
27EC
  5
26D9
331
2A87
  5
2A92
331
26D9
  5
26EF
331
2AD4
  5
2AD7
331
276D
  5
27F8
331
272E
  5
274F
331
27F4
  5
26E1
331
285B
  5
2885
331
2736
  5
275F
331
27FC
  5
2715
331
2A8F
  5
2AAB
331
2B44
  5
277A
331
273E
  5
2769
331
2746
  5
2777
331
2A9F
  5
2AC3
331
26F1
  5
2708
331
2AAD
  5
2754
331
287B
  5
288E
331
2824
  5
2847
331
274E
  5
277B
331
2A58
  5
2727
331
2756
  5
2780
331
2AC5
  5
2AC6
331
288B
  5
28B3
331
2844
  5
2856
331
275E
  5
2789
331
271F
  5
2740
331
27E5
  5
271A
331
284C
  5
2877
331
27ED
  5
26DA
331
26DA
  5
26F0
331
2AD5
  5
2AD8
331
289B
  5
2998
331
276E
  5
27FE
331
27F5
  5
26E2
331
285C
  5
2886
331
2737
  5
2760
331
27FD
  5
2716
331
2A90
  5
2AAC
331
2786
  5
283F
331
273F
  5
276C
331
28B3
  5
2A2C
331
26F2
  5
2709
331
2708
  5
2729
331
2AAE
  5
2755
331
2825
  5
2848
331
2A59
  5
2A87
331
2884
  5
288F
331
2757
  5
2781
331
2AC6
  5
2AC7
331
2845
  5
2859
331
275F
  5
278A
331
2720
  5
2741
331
27E6
  5
26D3
331
2A79
  5
2A8D
331
2767
  5
27E8
331
27EE
  5
26DB
331
26DB
  5
26F1
331
26E3
  5
26F9
331
2AD6
  5
2AD9
331
289C
  5
2A13
331
2855
  5
2878
331
276F
  5
27FF
331
27F6
  5
26E3
331
285D
  5
2887
331
2777
  5
283B
331
2738
  5
2761
331
27FE
  5
2717
331
2A91
  5
2AAF
331
2787
  5
2841
331
2740
  5
276D
331
280E
  5
2846
331
26F3
  5
270A
331
2AAF
  5
2756
331
2709
  5
2731
331
2711
  5
2732
331
2885
  5
2890
331
283E
  5
284A
331
2AC7
  5
2AC8
331
2758
  5
2782
331
27B7
  5
2845
331
291B
  5
2A59
331
288D
  5
291B
331
2846
  5
285A
331
2760
  5
278B
331
2721
  5
2742
331
27E7
  5
26D4
331
27EF
  5
26DC
331
2A82
  5
2A8E
331
26D4
  5
26EA
331
2AD7
  5
2AD5
331
2768
  5
27E9
331
2856
  5
287A
331
2770
  5
2802
331
2731
  5
2759
331
27F7
  5
26E4
331
285E
  5
2888
331
2780
  5
283E
331
2739
  5
2762
331
27FF
  5
2718
331
2741
  5
276E
331
2A13
  5
2A86
331
2788
  5
2843
331
2AB0
  5
2757
331
2749
  5
2778
331
2751
  5
277C
331
2712
  5
2733
331
2886
  5
2891
331
2AC8
  5
2AD1
331
2759
  5
2783
331
283F
  5
284B
331
291C
  5
2A79
331
288E
  5
28E4
331
2847
  5
285B
331
2761
  5
27B7
331
2722
  5
2743
331
2A83
  5
2A94
331
26D5
  5
26EB
331
26ED
  5
2704
331
2769
  5
27EA
331
27F0
  5
26DD
331
2771
  5
2803
331
2732
  5
275B
331
285F
  5
2889
331
273A
  5
2763
331
2800
  5
2712
331
28A6
  5
2A2B
331
2877
  5
288A
331
2742
  5
2772
331
26F5
  5
270C
331
2AB1
  5
2758
331
2752
  5
277D
331
2713
  5
2734
331
275A
  5
2784
331
2887
  5
2892
331
288F
  5
2910
331
2848
  5
285C
331
2762
  5
27E4
331
2723
  5
2744
331
27E9
  5
26D6
331
26D6
  5
26EC
331
2AD1
  5
2AD6
331
2AD9
  5
2B44
331
276A
  5
27EB
331
27F1
  5
26DE
331
2772
  5
280E
331
2733
  5
275C
331
2A8C
  5
2A9E
331
273B
  5
2764
331
2801
  5
2713
331
2743
  5
2773
331
26F6
  5
270D
331
26FE
  5
271E
331
2706
  5
2726
331
2878
  5
288B
331
2753
  5
277E
331
2714
  5
2735
331
2888
  5
289B
331
2841
  5
284C
331
275B
  5
2785
331
2890
  5
291C
331
2849
  5
285D
331
2763
  5
27E5
331
2724
  5
2745
331
27EA
  5
26D7
331
2A85
  5
2A8F
331
26D7
  5
26ED
331
26EF
  5
2706
331
2AD2
  5
2AD3
331
276B
  5
27EE
331
272C
  5
274D
331
27F2
  5
26DF
331
2859
  5
287B
331
2773
  5
2824
331
2734
  5
275D
331
27FA
  5
26E7
331
2A8D
  5
2A9F
331
273C
  5
2765
331
2802
  5
271C
331
2744
  5
2774
  0
SORTENTSTABLE
  5
28E1
102
{ACAD_REACTORS
330
28E0
102
}
330
28E0
100
AcDbSortentsTable
330
28D2
  0
SORTENTSTABLE
  5
28F6
102
{ACAD_REACTORS
330
28F5
102
}
330
28F5
100
AcDbSortentsTable
330
28E9
  0
SORTENTSTABLE
  5
290D
102
{ACAD_REACTORS
330
290C
102
}
330
290C
100
AcDbSortentsTable
330
2902
  0
SORTENTSTABLE
  5
298F
102
{ACAD_REACTORS
330
298E
102
}
330
298E
100
AcDbSortentsTable
330
2982
  0
SORTENTSTABLE
  5
2CA6
102
{ACAD_REACTORS
330
2CA5
102
}
330
2CA5
100
AcDbSortentsTable
330
2C97
  0
SORTENTSTABLE
  5
2CB5
102
{ACAD_REACTORS
330
2CB4
102
}
330
2CB4
100
AcDbSortentsTable
330
2CAA
  0
SORTENTSTABLE
  5
2CC6
102
{ACAD_REACTORS
330
2CC5
102
}
330
2CC5
100
AcDbSortentsTable
330
2CB9
  0
XRECORD
  5
2D83
102
{ACAD_REACTORS
330
2D82
102
}
330
2D82
100
AcDbXrecord
280
     1
 40
14518.0
  1
Płytka SOLBET
  0
XRECORD
  5
2D85
102
{ACAD_REACTORS
330
2D84
102
}
330
2D84
100
AcDbXrecord
280
     1
 40
25446.0
  1
Wieniec żelbetowy
  0
XRECORD
  5
2D87
102
{ACAD_REACTORS
330
2D86
102
}
330
2D86
100
AcDbXrecord
280
     1
 40
204950.0
  1
Murłata przymocowana \Pśrubami kotwionymi w wieńcu
  0
XRECORD
  5
2D89
102
{ACAD_REACTORS
330
2D88
102
}
330
2D88
100
AcDbXrecord
280
     1
 40
150430.0
  1
Wieniec pod murłatę \Pw kształtkach U SOLBET
  0
XRECORD
  5
2D8B
102
{ACAD_REACTORS
330
2D8A
102
}
330
2D8A
100
AcDbXrecord
280
     1
 40
94764.0
  1
Zbrojenie górne strefy przypodporowej
  0
XRECORD
  5
2D8C
102
{ACAD_REACTORS
330
28A7
102
}
330
28A7
100
AcDbXrecord
280
     1
 40
422299.0
  1
{\LDETAL 90\P}Wieniec pod murłatę w ścianie jednowarstwowej w kształtkach U
  0
DICTIONARY
  5
28A8
102
{ACAD_REACTORS
330
28A7
102
}
330
28A7
100
AcDbDictionary
281
     1
  3
ACDB_ANNOTATIONSCALES
350
28A9
  0
XRECORD
  5
2D42
102
{ACAD_REACTORS
330
2D41
102
}
330
2D41
100
AcDbXrecord
280
     1
 40
24748.0
  1
\pxqc;C\P(5 : 1)
  0
LAYOUT
  5
D3
102
{ACAD_XDICTIONARY
360
2D79
102
}
102
{ACAD_REACTORS
330
1A
102
}
330
1A
100
AcDbPlotSettings
  1

  2
C:\Documents and Settings\basas\Application Data\Autodesk\AutoCAD 2005\R16.1\enu\plotters\Default Windows System Printer.pc3
  4

  6

 40
0.0
 41
0.0
 42
0.0
 43
0.0
 44
0.0
 45
0.0
 46
0.0
 47
0.0
 48
0.0
 49
0.0
140
0.0
141
0.0
142
1.0
143
1.0
 70
   688
 72
     0
 73
     0
 74
     5
  7

 75
    16
147
1.0
148
0.0
149
0.0
100
AcDbLayout
  1
Arkusz1
 70
     1
 71
     1
 10
0.0
 20
0.0
 11
12.0
 21
9.0
 12
0.0
 22
0.0
 32
0.0
 14
0.0
 24
0.0
 34
0.0
 15
0.0
 25
0.0
 35
0.0
146
0.0
 13
0.0
 23
0.0
 33
0.0
 16
1.0
 26
0.0
 36
0.0
 17
0.0
 27
1.0
 37
0.0
 76
     0
330
D2
  0
LAYOUT
  5
D7
102
{ACAD_XDICTIONARY
360
2D7B
102
}
102
{ACAD_REACTORS
330
1A
102
}
330
1A
100
AcDbPlotSettings
  1

  2
C:\Documents and Settings\basas\Application Data\Autodesk\AutoCAD 2005\R16.1\enu\plotters\Default Windows System Printer.pc3
  4

  6

 40
0.0
 41
0.0
 42
0.0
 43
0.0
 44
0.0
 45
0.0
 46
0.0
 47
0.0
 48
0.0
 49
0.0
140
0.0
141
0.0
142
1.0
143
1.0
 70
   688
 72
     0
 73
     0
 74
     5
  7

 75
    16
147
1.0
148
0.0
149
0.0
100
AcDbLayout
  1
Arkusz2
 70
     1
 71
     2
 10
0.0
 20
0.0
 11
12.0
 21
9.0
 12
0.0
 22
0.0
 32
0.0
 14
0.0
 24
0.0
 34
0.0
 15
0.0
 25
0.0
 35
0.0
146
0.0
 13
0.0
 23
0.0
 33
0.0
 16
1.0
 26
0.0
 36
0.0
 17
0.0
 27
1.0
 37
0.0
 76
     0
330
D6
  0
LAYOUT
  5
22
102
{ACAD_XDICTIONARY
360
2D76
102
}
102
{ACAD_REACTORS
330
1A
102
}
330
1A
100
AcDbPlotSettings
  1

  2
none_device
  4
Letter_(8.50_x_11.00_Inches)
  6

 40
6.349999904632568
 41
6.349999904632568
 42
6.350006103515625
 43
6.350006103515625
 44
215.8999938964844
 45
279.3999938964844
 46
11.54999923706054
 47
-13.65000009536743
 48
0.0
 49
0.0
140
210.0
141
297.0
142
1.0
143
1.0
 70
 11936
 72
     1
 73
     0
 74
     4
  7

 75
     0
147
0.9999999999999998
148
0.0
149
0.0
100
AcDbLayout
  1
Model
 70
     1
 71
     0
 10
0.0
 20
0.0
 11
12.0
 21
9.0
 12
0.0
 22
0.0
 32
0.0
 14
0.0
 24
0.0
 34
0.0
 15
0.0
 25
0.0
 35
0.0
146
0.0
 13
0.0
 23
0.0
 33
0.0
 16
1.0
 26
0.0
 36
0.0
 17
0.0
 27
1.0
 37
0.0
 76
     0
330
1F
331
EA
1001
ACAD_PSEXT
1000
Brak
1000
Brak
1000
Nie można zastosować.
1000
Arkusz nie zostanie wydrukowany dopóki nie wybrano konfiguracji plotera.
1070
     0
  0
MATERIAL
  5
ED
102
{ACAD_XDICTIONARY
360
2D7F
102
}
102
{ACAD_REACTORS
330
6A
102
}
330
6A
100
AcDbMaterial
  1
ByBlock
 73
     2
 78
     2
172
     2
176
     2
270
     2
274
     2
  0
MATERIAL
  5
EC
102
{ACAD_XDICTIONARY
360
2D7D
102
}
102
{ACAD_REACTORS
330
6A
102
}
330
6A
100
AcDbMaterial
  1
ByLayer
 73
     2
 78
     2
172
     2
176
     2
270
     2
274
     2
  0
MATERIAL
  5
EE
102
{ACAD_XDICTIONARY
360
173
102
}
102
{ACAD_REACTORS
330
6A
102
}
330
6A
100
AcDbMaterial
  1
Global
 73
     2
 43
0.0007999999797903
 43
0.0
 43
0.0
 43
0.0
 43
0.0
 43
0.0007999999797903
 43
0.0
 43
0.0
 43
0.0
 43
0.0
 43
1.0
 43
0.0
 43
0.0
 43
0.0
 43
0.0
 43
1.0
 78
     2
172
     2
 49
0.0007999999797903
 49
0.0
 49
0.0
 49
0.0
 49
0.0
 49
0.0007999999797903
 49
0.0
 49
0.0
 49
0.0
 49
0.0
 49
1.0
 49
0.0
 49
0.0
 49
0.0
 49
0.0
 49
1.0
176
     2
142
0.0007999999797903
142
0.0
142
0.0
142
0.0
142
0.0
142
0.0007999999797903
142
0.0
142
0.0
142
0.0
142
0.0
142
1.0
142
0.0
142
0.0
142
0.0
142
0.0
142
1.0
270
     2
144
0.0007999999797903
144
0.0
144
0.0
144
0.0
144
0.0
144
0.0007999999797903
144
0.0
144
0.0
144
0.0
144
0.0
144
1.0
144
0.0
144
0.0
144
0.0
144
0.0
144
1.0
274
     2
1001
ACAD
1070
    -1
1070
     3
1070
     0
1000

1071
        0
1070
     0
  0
ACAD_PROXY_OBJECT
  5
12E
102
{ACAD_REACTORS
330
12D
102
}
330
12D
100
AcDbProxyObject
 90
      499
 91
      508
 95
       23
 70
     0
 93
      618
310
40901902A4063FBFFFFFE0000000000000020400000000000020404254DD185B99185C99000000000000000104090140501A0000000000000410000000000000004102576400000000000003903F
340
14
340
0
340
11
340
0
 94
        0
1001
ACAD_MLEADERVER
1070
     2
1001
ACAD
1000
AcRTDxfName
1000
MLEADERSTYLE
1000
AcRTDxfName
1000
MLEADERSTYLE
1000
AcRTDxfName
1000
MLEADERSTYLE
  0
MLINESTYLE
  5
7E9
102
{ACAD_REACTORS
330
17
102
}
330
17
100
AcDbMlineStyle
  2
SOLBET_IZOLACJA
 70
   272
  3

 62
   256
 51
90.0
 52
90.0
 71
     2
 49
0.008
 62
   256
  6
BYLAYER
 49
-0.008
 62
   256
  6
BYLAYER
  0
MLINESTYLE
  5
18
102
{ACAD_REACTORS
330
17
102
}
330
17
100
AcDbMlineStyle
  2
STANDARD
 70
     0
  3

 62
   256
 51
90.0
 52
90.0
 71
     2
 49
0.5
 62
   256
  6
BYLAYER
 49
-0.5
 62
   256
  6
BYLAYER
  0
ACDBPLACEHOLDER
  5
F
102
{ACAD_REACTORS
330
E
102
}
330
E
  0
ACAD_PROXY_OBJECT
  5
10D
102
{ACAD_REACTORS
330
10C
102
}
330
10C
100
AcDbProxyObject
 90
      499
 91
      507
 95
       23
 70
     0
 93
       49
310
904313A31005FF
 94
        0
1001
ACAD
1000
AcRTDxfName
1000
SCALE
1000
AcRTDxfName
1000
SCALE
1000
AcRTDxfName
1000
SCALE
  0
ACAD_PROXY_OBJECT
  5
188
102
{ACAD_REACTORS
330
10C
102
}
330
10C
100
AcDbProxyObject
 90
      499
 91
      507
 95
       23
 70
     0
 93
      113
310
904313A3200400000000000000407F
 94
        0
1001
ACAD
1000
AcRTDxfName
1000
SCALE
1000
AcRTDxfName
1000
SCALE
1000
AcRTDxfName
1000
SCALE
  0
ACAD_PROXY_OBJECT
  5
189
102
{ACAD_REACTORS
330
10C
102
}
330
10C
100
AcDbProxyObject
 90
      499
 91
      507
 95
       23
 70
     0
 93
      113
310
904313A3400400000000000010407F
 94
        0
1001
ACAD
1000
AcRTDxfName
1000
SCALE
1000
AcRTDxfName
1000
SCALE
1000
AcRTDxfName
1000
SCALE
  0
ACAD_PROXY_OBJECT
  5
18A
102
{ACAD_REACTORS
330
10C
102
}
330
10C
100
AcDbProxyObject
 90
      499
 91
      507
 95
       23
 70
     0
 93
      113
310
904313A3500400000000000014407F
 94
        0
1001
ACAD
1000
AcRTDxfName
1000
SCALE
1000
AcRTDxfName
1000
SCALE
1000
AcRTDxfName
1000
SCALE
  0
ACAD_PROXY_OBJECT
  5
18B
102
{ACAD_REACTORS
330
10C
102
}
330
10C
100
AcDbProxyObject
 90
      499
 91
      507
 95
       23
 70
     0
 93
      113
310
904313A3800400000000000020407F
 94
        0
1001
ACAD
1000
AcRTDxfName
1000
SCALE
1000
AcRTDxfName
1000
SCALE
1000
AcRTDxfName
1000
SCALE
  0
ACAD_PROXY_OBJECT
  5
18C
102
{ACAD_REACTORS
330
10C
102
}
330
10C
100
AcDbProxyObject
 90
      499
 91
      507
 95
       23
 70
     0
 93
      121
310
905313A313000400000000000024407F
 94
        0
1001
ACAD
1000
AcRTDxfName
1000
SCALE
1000
AcRTDxfName
1000
SCALE
1000
AcRTDxfName
1000
SCALE
  0
ACAD_PROXY_OBJECT
  5
18D
102
{ACAD_REACTORS
330
10C
102
}
330
10C
100
AcDbProxyObject
 90
      499
 91
      507
 95
       23
 70
     0
 93
      121
310
905313A313600400000000000030407F
 94
        0
1001
ACAD
1000
AcRTDxfName
1000
SCALE
1000
AcRTDxfName
1000
SCALE
1000
AcRTDxfName
1000
SCALE
  0
ACAD_PROXY_OBJECT
  5
18E
102
{ACAD_REACTORS
330
10C
102
}
330
10C
100
AcDbProxyObject
 90
      499
 91
      507
 95
       23
 70
     0
 93
      121
310
905313A323000400000000000034407F
 94
        0
1001
ACAD
1000
AcRTDxfName
1000
SCALE
1000
AcRTDxfName
1000
SCALE
1000
AcRTDxfName
1000
SCALE
  0
ACAD_PROXY_OBJECT
  5
18F
102
{ACAD_REACTORS
330
10C
102
}
330
10C
100
AcDbProxyObject
 90
      499
 91
      507
 95
       23
 70
     0
 93
      121
310
905313A33300040000000000003E407F
 94
        0
1001
ACAD
1000
AcRTDxfName
1000
SCALE
1000
AcRTDxfName
1000
SCALE
1000
AcRTDxfName
1000
SCALE
  0
ACAD_PROXY_OBJECT
  5
190
102
{ACAD_REACTORS
330
10C
102
}
330
10C
100
AcDbProxyObject
 90
      499
 91
      507
 95
       23
 70
     0
 93
      121
310
905313A343000400000000000044407F
 94
        0
1001
ACAD
1000
AcRTDxfName
1000
SCALE
1000
AcRTDxfName
1000
SCALE
1000
AcRTDxfName
1000
SCALE
  0
ACAD_PROXY_OBJECT
  5
191
102
{ACAD_REACTORS
330
10C
102
}
330
10C
100
AcDbProxyObject
 90
      499
 91
      507
 95
       23
 70
     0
 93
      121
310
905313A353000400000000000049407F
 94
        0
1001
ACAD
1000
AcRTDxfName
1000
SCALE
1000
AcRTDxfName
1000
SCALE
1000
AcRTDxfName
1000
SCALE
  0
ACAD_PROXY_OBJECT
  5
192
102
{ACAD_REACTORS
330
10C
102
}
330
10C
100
AcDbProxyObject
 90
      499
 91
      507
 95
       23
 70
     0
 93
      129
310
906313A31303000400000000000059407F
 94
        0
1001
ACAD
1000
AcRTDxfName
1000
SCALE
1000
AcRTDxfName
1000
SCALE
1000
AcRTDxfName
1000
SCALE
  0
ACAD_PROXY_OBJECT
  5
193
102
{ACAD_REACTORS
330
10C
102
}
330
10C
100
AcDbProxyObject
 90
      499
 91
      507
 95
       23
 70
     0
 93
      113
310
904323A3100000000000000001017F
 94
        0
1001
ACAD
1000
AcRTDxfName
1000
SCALE
1000
AcRTDxfName
1000
SCALE
1000
AcRTDxfName
1000
SCALE
  0
ACAD_PROXY_OBJECT
  5
194
102
{ACAD_REACTORS
330
10C
102
}
330
10C
100
AcDbProxyObject
 90
      499
 91
      507
 95
       23
 70
     0
 93
      113
310
904343A3100000000000000041017F
 94
        0
1001
ACAD
1000
AcRTDxfName
1000
SCALE
1000
AcRTDxfName
1000
SCALE
1000
AcRTDxfName
1000
SCALE
  0
ACAD_PROXY_OBJECT
  5
195
102
{ACAD_REACTORS
330
10C
102
}
330
10C
100
AcDbProxyObject
 90
      499
 91
      507
 95
       23
 70
     0
 93
      113
310
904383A3100000000000000081017F
 94
        0
1001
ACAD
1000
AcRTDxfName
1000
SCALE
1000
AcRTDxfName
1000
SCALE
1000
AcRTDxfName
1000
SCALE
  0
ACAD_PROXY_OBJECT
  5
196
102
{ACAD_REACTORS
330
10C
102
}
330
10C
100
AcDbProxyObject
 90
      499
 91
      507
 95
       23
 70
     0
 93
      121
310
90531303A3100000000000000091017F
 94
        0
1001
ACAD
1000
AcRTDxfName
1000
SCALE
1000
AcRTDxfName
1000
SCALE
1000
AcRTDxfName
1000
SCALE
  0
ACAD_PROXY_OBJECT
  5
197
102
{ACAD_REACTORS
330
10C
102
}
330
10C
100
AcDbProxyObject
 90
      499
 91
      507
 95
       23
 70
     0
 93
      129
310
9063130303A3100000000000000165017F
 94
        0
1001
ACAD
1000
AcRTDxfName
1000
SCALE
1000
AcRTDxfName
1000
SCALE
1000
AcRTDxfName
1000
SCALE
  0
ACAD_PROXY_OBJECT
  5
198
102
{ACAD_REACTORS
330
10C
102
}
330
10C
100
AcDbProxyObject
 90
      499
 91
      507
 95
       23
 70
     0
 93
      265
310
90F312F31323822203D2031272D302200000000000000200FC00000000000028407F
 94
        0
1001
ACAD
1000
AcRTDxfName
1000
SCALE
1000
AcRTDxfName
1000
SCALE
1000
AcRTDxfName
1000
SCALE
  0
ACAD_PROXY_OBJECT
  5
199
102
{ACAD_REACTORS
330
10C
102
}
330
10C
100
AcDbProxyObject
 90
      499
 91
      507
 95
       23
 70
     0
 93
      257
310
90E312F363422203D2031272D302200000000000000240FC00000000000028407F
 94
        0
1001
ACAD
1000
AcRTDxfName
1000
SCALE
1000
AcRTDxfName
1000
SCALE
1000
AcRTDxfName
1000
SCALE
  0
ACAD_PROXY_OBJECT
  5
19A
102
{ACAD_REACTORS
330
10C
102
}
330
10C
100
AcDbProxyObject
 90
      499
 91
      507
 95
       23
 70
     0
 93
      257
310
90E312F333222203D2031272D302200000000000000280FC00000000000028407F
 94
        0
1001
ACAD
1000
AcRTDxfName
1000
SCALE
1000
AcRTDxfName
1000
SCALE
1000
AcRTDxfName
1000
SCALE
  0
ACAD_PROXY_OBJECT
  5
19B
102
{ACAD_REACTORS
330
10C
102
}
330
10C
100
AcDbProxyObject
 90
      499
 91
      507
 95
       23
 70
     0
 93
      257
310
90E312F313622203D2031272D3022000000000000002C0FC00000000000028407F
 94
        0
1001
ACAD
1000
AcRTDxfName
1000
SCALE
1000
AcRTDxfName
1000
SCALE
1000
AcRTDxfName
1000
SCALE
  0
ACAD_PROXY_OBJECT
  5
19C
102
{ACAD_REACTORS
330
10C
102
}
330
10C
100
AcDbProxyObject
 90
      499
 91
      507
 95
       23
 70
     0
 93
      257
310
90E332F333222203D2031272D3022000000000000002E0FC00000000000028407F
 94
        0
1001
ACAD
1000
AcRTDxfName
1000
SCALE
1000
AcRTDxfName
1000
SCALE
1000
AcRTDxfName
1000
SCALE
  0
ACAD_PROXY_OBJECT
  5
19D
102
{ACAD_REACTORS
330
10C
102
}
330
10C
100
AcDbProxyObject
 90
      499
 91
      507
 95
       23
 70
     0
 93
      249
310
90D312F3822203D2031272D302200000000000000300FC00000000000028407F
 94
        0
1001
ACAD
1000
AcRTDxfName
1000
SCALE
1000
AcRTDxfName
1000
SCALE
1000
AcRTDxfName
1000
SCALE
  0
ACAD_PROXY_OBJECT
  5
19E
102
{ACAD_REACTORS
330
10C
102
}
330
10C
100
AcDbProxyObject
 90
      499
 91
      507
 95
       23
 70
     0
 93
      257
310
90E332F313622203D2031272D302200000000000000320FC00000000000028407F
 94
        0
1001
ACAD
1000
AcRTDxfName
1000
SCALE
1000
AcRTDxfName
1000
SCALE
1000
AcRTDxfName
1000
SCALE
  0
ACAD_PROXY_OBJECT
  5
19F
102
{ACAD_REACTORS
330
10C
102
}
330
10C
100
AcDbProxyObject
 90
      499
 91
      507
 95
       23
 70
     0
 93
      249
310
90D312F3422203D2031272D302200000000000000340FC00000000000028407F
 94
        0
1001
ACAD
1000
AcRTDxfName
1000
SCALE
1000
AcRTDxfName
1000
SCALE
1000
AcRTDxfName
1000
SCALE
  0
ACAD_PROXY_OBJECT
  5
1A0
102
{ACAD_REACTORS
330
10C
102
}
330
10C
100
AcDbProxyObject
 90
      499
 91
      507
 95
       23
 70
     0
 93
      249
310
90D332F3822203D2031272D302200000000000000360FC00000000000028407F
 94
        0
1001
ACAD
1000
AcRTDxfName
1000
SCALE
1000
AcRTDxfName
1000
SCALE
1000
AcRTDxfName
1000
SCALE
  0
ACAD_PROXY_OBJECT
  5
1A1
102
{ACAD_REACTORS
330
10C
102
}
330
10C
100
AcDbProxyObject
 90
      499
 91
      507
 95
       23
 70
     0
 93
      249
310
90D312F3222203D2031272D302200000000000000380FC00000000000028407F
 94
        0
1001
ACAD
1000
AcRTDxfName
1000
SCALE
1000
AcRTDxfName
1000
SCALE
1000
AcRTDxfName
1000
SCALE
  0
ACAD_PROXY_OBJECT
  5
1A2
102
{ACAD_REACTORS
330
10C
102
}
330
10C
100
AcDbProxyObject
 90
      499
 91
      507
 95
       23
 70
     0
 93
      249
310
90D332F3422203D2031272D3022000000000000003A0FC00000000000028407F
 94
        0
1001
ACAD
1000
AcRTDxfName
1000
SCALE
1000
AcRTDxfName
1000
SCALE
1000
AcRTDxfName
1000
SCALE
  0
ACAD_PROXY_OBJECT
  5
1A3
102
{ACAD_REACTORS
330
10C
102
}
330
10C
100
AcDbProxyObject
 90
      499
 91
      507
 95
       23
 70
     0
 93
      169
310
90B3122203D2031272D302200400000000000028407F
 94
        0
1001
ACAD
1000
AcRTDxfName
1000
SCALE
1000
AcRTDxfName
1000
SCALE
1000
AcRTDxfName
1000
SCALE
  0
ACAD_PROXY_OBJECT
  5
1A4
102
{ACAD_REACTORS
330
10C
102
}
330
10C
100
AcDbProxyObject
 90
      499
 91
      507
 95
       23
 70
     0
 93
      265
310
90F312D312F3222203D2031272D3022000000000000003E0FC00000000000028407F
 94
        0
1001
ACAD
1000
AcRTDxfName
1000
SCALE
1000
AcRTDxfName
1000
SCALE
1000
AcRTDxfName
1000
SCALE
  0
ACAD_PROXY_OBJECT
  5
1A5
102
{ACAD_REACTORS
330
10C
102
}
330
10C
100
AcDbProxyObject
 90
      499
 91
      507
 95
       23
 70
     0
 93
      233
310
90B3322203D2031272D3022000000000000000210000000000000028407F
 94
        0
1001
ACAD
1000
AcRTDxfName
1000
SCALE
1000
AcRTDxfName
1000
SCALE
1000
AcRTDxfName
1000
SCALE
  0
ACAD_PROXY_OBJECT
  5
1A6
102
{ACAD_REACTORS
330
10C
102
}
330
10C
100
AcDbProxyObject
 90
      499
 91
      507
 95
       23
 70
     0
 93
      233
310
90B3622203D2031272D3022000000000000000610000000000000028407F
 94
        0
1001
ACAD
1000
AcRTDxfName
1000
SCALE
1000
AcRTDxfName
1000
SCALE
1000
AcRTDxfName
1000
SCALE
  0
ACAD_PROXY_OBJECT
  5
1A7
102
{ACAD_REACTORS
330
10C
102
}
330
10C
100
AcDbProxyObject
 90
      499
 91
      507
 95
       23
 70
     0
 93
      257
310
90E31272D3022203D2031272D3022000000000000000A10000000000000028407F
 94
        0
1001
ACAD
1000
AcRTDxfName
1000
SCALE
1000
AcRTDxfName
1000
SCALE
1000
AcRTDxfName
1000
SCALE
  0
TABLESTYLE
  5
7F
102
{ACAD_XDICTIONARY
360
162
102
}
102
{ACAD_REACTORS
330
7E
102
}
330
7E
100
AcDbTableStyle
  3
Standard
 70
     0
 71
     0
 40
1.5
 41
1.5
280
     0
281
     0
  7
Standard
140
4.5
170
     2
 62
     0
 63
     7
283
     0
274
    -2
284
     1
 64
     0
275
    -2
285
     1
 65
     0
276
    -2
286
     1
 66
     0
277
    -2
287
     1
 67
     0
278
    -2
288
     1
 68
     0
279
    -2
289
     1
 69
     0
  7
Standard
140
6.0
170
     5
 62
     0
 63
     7
283
     0
274
    -2
284
     1
 64
     0
275
    -2
285
     1
 65
     0
276
    -2
286
     1
 66
     0
277
    -2
287
     1
 67
     0
278
    -2
288
     1
 68
     0
279
    -2
289
     1
 69
     0
  7
Standard
140
4.5
170
     5
 62
     0
 63
     7
283
     0
274
    -2
284
     1
 64
     0
275
    -2
285
     1
 65
     0
276
    -2
286
     1
 66
     0
277
    -2
287
     1
 67
     0
278
    -2
288
     1
 68
     0
279
    -2
289
     1
 69
     0
  0
VISUALSTYLE
  5
F5
102
{ACAD_REACTORS
330
EF
102
}
330
EF
100
AcDbVisualStyle
  2
2dWireframe
 70
     4
 71
     0
 72
     2
 73
     1
 90
        0
 40
-0.6
 41
-30.0
 62
     5
 63
     7
 74
     1
 91
        4
 64
     7
 65
   257
 75
     1
175
     1
 42
1.0
 92
        0
 66
   257
 43
1.0
 76
     1
 77
     6
 78
     2
 67
     7
 79
     5
170
     0
171
     0
290
     0
174
     0
 93
        1
 44
0.0
173
     0
291
     0
 45
0.0
1001
ACAD
1000
AcDbSavedByObjectVersion
1070
     0
  0
VISUALSTYLE
  5
F7
102
{ACAD_REACTORS
330
EF
102
}
330
EF
100
AcDbVisualStyle
  2
3D Hidden
 70
     6
 71
     1
 72
     2
 73
     2
 90
        0
 40
-0.6
 41
-30.0
 62
     5
 63
     7
 74
     2
 91
        2
 64
     7
 65
   257
 75
     2
175
     1
 42
40.0
 92
        0
 66
   257
 43
1.0
 76
     1
 77
     6
 78
     2
 67
     7
 79
     3
170
     0
171
     0
290
     0
174
     0
 93
        1
 44
0.0
173
     0
291
     0
 45
0.0
1001
ACAD
1000
AcDbSavedByObjectVersion
1070
     0
  0
VISUALSTYLE
  5
F6
102
{ACAD_REACTORS
330
EF
102
}
330
EF
100
AcDbVisualStyle
  2
3dWireframe
 70
     5
 71
     0
 72
     2
 73
     1
 90
        0
 40
-0.6
 41
-30.0
 62
     5
 63
     7
 74
     1
 91
        4
 64
     7
 65
   257
 75
     1
175
     1
 42
1.0
 92
        0
 66
   257
 43
1.0
 76
     1
 77
     6
 78
     2
 67
     7
 79
     5
170
     0
171
     0
290
     0
174
     0
 93
        1
 44
0.0
173
     0
291
     0
 45
0.0
1001
ACAD
1000
AcDbSavedByObjectVersion
1070
     0
  0
VISUALSTYLE
  5
F4
102
{ACAD_REACTORS
330
EF
102
}
330
EF
100
AcDbVisualStyle
  2
Basic
 70
     7
 71
     1
 72
     0
 73
     1
 90
        0
 40
-0.6
 41
-30.0
 62
     5
 63
     7
 74
     0
 91
        4
 64
     7
 65
   257
 75
     1
175
     1
 42
1.0
 92
        8
 66
     7
 43
1.0
 76
     1
 77
     6
 78
     2
 67
     7
 79
     5
170
     0
171
     0
290
     0
174
     0
 93
        1
 44
0.0
173
     0
291
     1
 45
0.0
1001
ACAD
1000
AcDbSavedByObjectVersion
1070
     0
  0
VISUALSTYLE
  5
FB
102
{ACAD_REACTORS
330
EF
102
}
330
EF
100
AcDbVisualStyle
  2
Brighten
 70
    12
 71
     2
 72
     2
 73
     1
 90
        0
 40
-0.6
 41
-30.0
 62
     5
 63
     7
 74
     1
 91
        4
 64
     7
 65
   257
 75
     1
175
     1
 42
1.0
 92
        8
 66
     7
 43
1.0
 76
     1
 77
     6
 78
     2
 67
     7
 79
     5
170
     0
171
     0
290
     0
174
     0
 93
        1
 44
50.0
173
     0
291
     1
 45
0.0
1001
ACAD
1000
AcDbSavedByObjectVersion
1070
     0
  0
VISUALSTYLE
  5
FF
102
{ACAD_REACTORS
330
EF
102
}
330
EF
100
AcDbVisualStyle
  2
ColorChange
 70
    16
 71
     2
 72
     2
 73
     3
 90
        0
 40
-0.6
 41
-30.0
 62
     5
 63
     8
 74
     1
 91
        4
 64
     7
 65
   257
 75
     1
175
     1
 42
1.0
 92
        8
 66
     8
 43
1.0
 76
     1
 77
     6
 78
     2
 67
     7
 79
     5
170
     0
171
     0
290
     0
174
     0
 93
        1
 44
0.0
173
     0
291
     1
 45
0.0
1001
ACAD
1000
AcDbSavedByObjectVersion
1070
     0
  0
VISUALSTYLE
  5
F8
102
{ACAD_REACTORS
330
EF
102
}
330
EF
100
AcDbVisualStyle
  2
Conceptual
 70
     9
 71
     3
 72
     2
 73
     1
 90
        0
 40
-0.6
 41
-30.0
 62
     5
 63
     7
 74
     2
 91
        2
 64
     7
 65
   257
 75
     1
175
     1
 42
40.0
 92
        8
 66
     7
 43
1.0
 76
     1
 77
     6
 78
     2
 67
     7
 79
     3
170
     0
171
     0
290
     0
174
     0
 93
        1
 44
0.0
173
     0
291
     0
 45
0.0
1001
ACAD
1000
AcDbSavedByObjectVersion
1070
     0
  0
VISUALSTYLE
  5
FA
102
{ACAD_REACTORS
330
EF
102
}
330
EF
100
AcDbVisualStyle
  2
Dim
 70
    11
 71
     2
 72
     2
 73
     1
 90
        0
 40
-0.6
 41
-30.0
 62
     5
 63
     7
 74
     1
 91
        4
 64
     7
 65
   257
 75
     1
175
     1
 42
1.0
 92
        8
 66
     7
 43
1.0
 76
     1
 77
     6
 78
     2
 67
     7
 79
     5
170
     0
171
     0
290
     0
174
     0
 93
        1
 44
-50.0
173
     0
291
     1
 45
0.0
1001
ACAD
1000
AcDbSavedByObjectVersion
1070
     0
  0
VISUALSTYLE
  5
FE
102
{ACAD_REACTORS
330
EF
102
}
330
EF
100
AcDbVisualStyle
  2
Facepattern
 70
    15
 71
     2
 72
     2
 73
     1
 90
        0
 40
-0.6
 41
-30.0
 62
     5
 63
     7
 74
     1
 91
        4
 64
     7
 65
   257
 75
     1
175
     1
 42
1.0
 92
        8
 66
     7
 43
1.0
 76
     1
 77
     6
 78
     2
 67
     7
 79
     5
170
     0
171
     0
290
     0
174
     0
 93
        1
 44
0.0
173
     0
291
     1
 45
0.0
1001
ACAD
1000
AcDbSavedByObjectVersion
1070
     0
  0
VISUALSTYLE
  5
F0
102
{ACAD_REACTORS
330
EF
102
}
330
EF
100
AcDbVisualStyle
  2
Flat
 70
     0
 71
     2
 72
     1
 73
     1
 90
        2
 40
-0.6
 41
30.0
 62
     5
 63
     7
 74
     0
 91
        4
 64
     7
 65
   257
 75
     1
175
     1
 42
1.0
 92
        8
 66
     7
 43
1.0
 76
     1
 77
     6
 78
     2
 67
     7
 79
     5
170
     0
171
     0
290
     0
174
     0
 93
        1
 44
0.0
173
     0
291
     1
 45
0.0
1001
ACAD
1000
AcDbSavedByObjectVersion
1070
     0
  0
VISUALSTYLE
  5
F1
102
{ACAD_REACTORS
330
EF
102
}
330
EF
100
AcDbVisualStyle
  2
FlatWithEdges
 70
     1
 71
     2
 72
     1
 73
     1
 90
        2
 40
-0.6
 41
30.0
 62
     5
 63
     7
 74
     1
 91
        4
 64
     7
 65
   257
 75
     1
175
     1
 42
1.0
 92
        0
 66
   257
 43
1.0
 76
     1
 77
     6
 78
     2
 67
     7
 79
     5
170
     0
171
     0
290
     0
174
     0
 93
        1
 44
0.0
173
     0
291
     1
 45
0.0
1001
ACAD
1000
AcDbSavedByObjectVersion
1070
     0
  0
VISUALSTYLE
  5
F2
102
{ACAD_REACTORS
330
EF
102
}
330
EF
100
AcDbVisualStyle
  2
Gouraud
 70
     2
 71
     2
 72
     2
 73
     1
 90
        2
 40
-0.6
 41
30.0
 62
     5
 63
     7
 74
     0
 91
        4
 64
     7
 65
   257
 75
     1
175
     1
 42
1.0
 92
        0
 66
     7
 43
1.0
 76
     1
 77
     6
 78
     2
 67
     7
 79
     5
170
     0
171
     0
290
     0
174
     0
 93
        1
 44
0.0
173
     0
291
     1
 45
0.0
1001
ACAD
1000
AcDbSavedByObjectVersion
1070
     0
  0
VISUALSTYLE
  5
F3
102
{ACAD_REACTORS
330
EF
102
}
330
EF
100
AcDbVisualStyle
  2
GouraudWithEdges
 70
     3
 71
     2
 72
     2
 73
     1
 90
        2
 40
-0.6
 41
30.0
 62
     5
 63
     7
 74
     1
 91
        4
 64
     7
 65
   257
 75
     1
175
     1
 42
1.0
 92
        0
 66
   257
 43
1.0
 76
     1
 77
     6
 78
     2
 67
     7
 79
     5
170
     0
171
     0
290
     0
174
     0
 93
        1
 44
0.0
173
     0
291
     1
 45
0.0
1001
ACAD
1000
AcDbSavedByObjectVersion
1070
     0
  0
VISUALSTYLE
  5
FD
102
{ACAD_REACTORS
330
EF
102
}
330
EF
100
AcDbVisualStyle
  2
Linepattern
 70
    14
 71
     2
 72
     2
 73
     1
 90
        0
 40
-0.6
 41
-30.0
 62
     5
 63
     7
 74
     1
 91
        4
 64
     7
 65
   257
 75
     7
175
     7
 42
1.0
 92
        8
 66
     7
 43
1.0
 76
     1
 77
     6
 78
     2
 67
     7
 79
     5
170
     0
171
     0
290
     0
174
     0
 93
        1
 44
0.0
173
     0
291
     1
 45
0.0
1001
ACAD
1000
AcDbSavedByObjectVersion
1070
     0
  0
VISUALSTYLE
  5
F9
102
{ACAD_REACTORS
330
EF
102
}
330
EF
100
AcDbVisualStyle
  2
Realistic
 70
     8
 71
     2
 72
     2
 73
     1
 90
        0
 40
-0.6
 41
-30.0
 62
     5
 63
     7
 74
     1
 91
        0
 64
     7
 65
   257
 75
     1
175
     1
 42
1.0
 92
        8
 66
     8
 43
1.0
 76
     1
 77
     6
 78
     2
 67
     7
 79
     5
170
     0
171
     0
290
     0
174
     0
 93
       13
 44
0.0
173
     0
291
     0
 45
0.0
1001
ACAD
1000
AcDbSavedByObjectVersion
1070
     0
  0
VISUALSTYLE
  5
FC
102
{ACAD_REACTORS
330
EF
102
}
330
EF
100
AcDbVisualStyle
  2
Thicken
 70
    13
 71
     2
 72
     2
 73
     1
 90
        0
 40
-0.6
 41
-30.0
 62
     5
 63
     7
 74
     1
 91
        4
 64
     7
 65
   257
 75
     1
175
     1
 42
1.0
 92
       12
 66
     7
 43
1.0
 76
     1
 77
     6
 78
     2
 67
     7
 79
     5
170
     0
171
     0
290
     0
174
     0
 93
        1
 44
0.0
173
     0
291
     1
 45
0.0
1001
ACAD
1000
AcDbSavedByObjectVersion
1070
     0
  0
DICTIONARYVAR
  5
146
102
{ACAD_REACTORS
330
5E
102
}
330
5E
100
DictionaryVariables
280
     0
  1
1:1
  0
DICTIONARYVAR
  5
145
102
{ACAD_REACTORS
330
5E
102
}
330
5E
100
DictionaryVariables
280
     0
  1
STANDARD
  0
DICTIONARYVAR
  5
84
102
{ACAD_REACTORS
330
5E
102
}
330
5E
100
DictionaryVariables
280
     0
  1
STANDARD
  0
DICTIONARYVAR
  5
5F
102
{ACAD_REACTORS
330
5E
102
}
330
5E
100
DictionaryVariables
280
     0
  1
2
  0
DICTIONARYVAR
  5
63
102
{ACAD_REACTORS
330
5E
102
}
330
5E
100
DictionaryVariables
280
     0
  1
1
  0
DICTIONARYVAR
  5
466
102
{ACAD_REACTORS
330
5E
102
}
330
5E
100
DictionaryVariables
280
     0
  1
0
  0
DICTIONARYVAR
  5
464
102
{ACAD_REACTORS
330
5E
102
}
330
5E
100
DictionaryVariables
280
     0
  1
2
  0
DICTIONARYVAR
  5
463
102
{ACAD_REACTORS
330
5E
102
}
330
5E
100
DictionaryVariables
280
     0
  1
1
  0
DICTIONARYVAR
  5
2D74
102
{ACAD_REACTORS
330
5E
102
}
330
5E
100
DictionaryVariables
280
     0
  1
80.000000
  0
DICTIONARYVAR
  5
2D73
102
{ACAD_REACTORS
330
5E
102
}
330
5E
100
DictionaryVariables
280
     0
  1
5.000000
  0
DICTIONARYVAR
  5
465
102
{ACAD_REACTORS
330
5E
102
}
330
5E
100
DictionaryVariables
280
     0
  1
127
  0
DICTIONARY
  5
28A9
102
{ACAD_REACTORS
330
28A8
102
}
330
28A8
100
AcDbDictionary
281
     1
  0
DICTIONARY
  5
2D79
330
D3
100
AcDbDictionary
280
     1
281
     1
  3
ACAD_XREC_ROUNDTRIP
360
2D7A
  0
DICTIONARY
  5
2D7B
330
D7
100
AcDbDictionary
280
     1
281
     1
  3
ACAD_XREC_ROUNDTRIP
360
2D7C
  0
DICTIONARY
  5
2D76
330
22
100
AcDbDictionary
280
     1
281
     1
  3
ACAD_XREC_ROUNDTRIP
360
2D77
  0
DICTIONARY
  5
2D7F
330
ED
100
AcDbDictionary
280
     1
281
     1
  3
ACAD_XREC_ROUNDTRIP
360
2D80
  0
DICTIONARY
  5
2D7D
330
EC
100
AcDbDictionary
280
     1
281
     1
  3
ACAD_XREC_ROUNDTRIP
360
2D7E
  0
DICTIONARY
  5
173
330
EE
100
AcDbDictionary
280
     1
281
     1
  3
ACAD_XREC_ROUNDTRIP
360
2D81
  3
BUMPTILE
360
175
  3
DIFFUSETILE
360
174
  3
OPACITYTILE
360
176
  3
REFLECTIONTILE
360
177
  0
DICTIONARY
  5
162
330
7F
100
AcDbDictionary
280
     1
281
     1
  3
ACAD_ROUNDTRIP_2008_TABLESTYLE_CELLSTYLEMAP
360
2C5E
  3
ACAD_XREC_ROUNDTRIP
360
2D78
  0
XRECORD
  5
2D7A
102
{ACAD_REACTORS
330
2D79
102
}
330
2D79
100
AcDbXrecord
280
     1
102
SHADEPLOT
 70
     0
102
SHADEPLOTRESLEVEL
 70
     2
102
SHADEPLOTCUSTOMDPI
 70
   300
  0
XRECORD
  5
2D7C
102
{ACAD_REACTORS
330
2D7B
102
}
330
2D7B
100
AcDbXrecord
280
     1
102
SHADEPLOT
 70
     0
102
SHADEPLOTRESLEVEL
 70
     2
102
SHADEPLOTCUSTOMDPI
 70
   300
  0
XRECORD
  5
2D77
102
{ACAD_REACTORS
330
2D76
102
}
330
2D76
100
AcDbXrecord
280
     1
102
SHADEPLOT
 70
     0
102
SHADEPLOTRESLEVEL
 70
     2
102
SHADEPLOTCUSTOMDPI
 70
   300
  0
XRECORD
  5
2D80
102
{ACAD_REACTORS
330
2D7F
102
}
330
2D7F
100
AcDbXrecord
280
     1
102
MATERIAL
148
0.0
149
0.0
149
0.0
 93
        0
 94
       63
282
     0
 72
     1
 77
     1
171
     1
175
     1
179
     1
273
     0
  0
XRECORD
  5
2D7E
102
{ACAD_REACTORS
330
2D7D
102
}
330
2D7D
100
AcDbXrecord
280
     1
102
MATERIAL
148
0.0
149
0.0
149
0.0
 93
        0
 94
       63
282
     0
 72
     1
 77
     1
171
     1
175
     1
179
     1
273
     0
  0
XRECORD
  5
2D81
102
{ACAD_REACTORS
330
173
102
}
330
173
100
AcDbXrecord
280
     1
102
MATERIAL
148
0.0
149
0.0
149
0.0
 93
        0
 94
       63
282
     0
 72
     1
 77
     1
171
     1
175
     1
179
     1
273
     0
  0
XRECORD
  5
175
102
{ACAD_REACTORS
330
173
102
}
330
173
100
AcDbXrecord
280
     1
270
     1
271
     1
  0
XRECORD
  5
174
102
{ACAD_REACTORS
330
173
102
}
330
173
100
AcDbXrecord
280
     1
270
     1
271
     1
  0
XRECORD
  5
176
102
{ACAD_REACTORS
330
173
102
}
330
173
100
AcDbXrecord
280
     1
270
     1
271
     1
  0
XRECORD
  5
177
102
{ACAD_REACTORS
330
173
102
}
330
173
100
AcDbXrecord
280
     1
270
     1
271
     1
  0
ACAD_PROXY_OBJECT
  5
2C5E
102
{ACAD_REACTORS
330
162
102
}
330
162
100
AcDbProxyObject
 90
      499
 91
      509
 95
       23
 70
     0
 93
     5304
310
40D054060020000020000003200101A000080002A5058000000C10000000000000006101010000000000003E0FC000000000000F83F0000000000003E0FC000000000000F83F02B5E8DC0F42B1CFC0AD7A3703D0AC73F419019018000000C1003FBFFFFFE0000000000003C8FD029018000000C1003FBFFFFFE00000000000
310
03C8FD049018000000C1003FBFFFFFE0000000000003C8FD089018000000C1003FBFFFFFE0000000000003C8FD109018000000C1003FBFFFFFE0000000000003C8FD209018000000C1003FBFFFFFE0000000000003C8FD01405075F5449544C450041501A8000000C800406800020000A94160000003040000000000000012
310
40404000000000000F83F0000000000003E0FC000000000000F83F0000000000003E0FC0AD7A3703D0AC73F02B5E8DC0F42B1CFD0640640600000030400FEFFFFFF8000000000000F23F40A40600000030400FEFFFFFF8000000000000F23F41240600000030400FEFFFFFF8000000000000F23F42240600000030400FEFFF
310
FFF8000000000000F23F44240600000030400FEFFFFFF8000000000000F23F48240600000030400FEFFFFFF8000000000000F23F409014217D2115051115480105406A0000003200101A000080002A5028000000C10000000000000004901010000000000003E0FC000000000000F83F0000000000003E0FC000000000000F
310
83F02B5E8DC0F42B1CFC0AD7A3703D0AC73F419019018000000C1003FBFFFFFE0000000000003C8FD029018000000C1003FBFFFFFE0000000000003C8FD049018000000C1003FBFFFFFE0000000000003C8FD089018000000C1003FBFFFFFE0000000000003C8FD109018000000C1003FBFFFFFE0000000000003C8FD20901
310
8000000C1003FBFFFFFE0000000000003C8FD03409065F444154410000
340
11
340
14
340
14
340
14
340
14
340
14
340
14
340
11
340
14
340
14
340
14
340
14
340
14
340
14
340
11
340
14
340
14
340
14
340
14
340
14
340
14
 94
        0
1001
ACAD
1000
AcRTDxfName
1000
CELLSTYLEMAP
1000
AcRTDxfName
1000
CELLSTYLEMAP
1000
AcRTDxfName
1000
CELLSTYLEMAP
  0
XRECORD
  5
2D78
102
{ACAD_REACTORS
330
162
102
}
330
162
100
AcDbXrecord
280
     1
102
ACAD_ROUNDTRIP_PRE2007_TABLESTYLE
 90
      512
 91
        0
  1

 92
      512
 93
        0
  2

 94
      512
 95
        0
  3

  0
ENDSEC
  0
EOF
