  0
SECTION
  2
HEADER
  9
$ACADVER
  1
AC1015
  9
$ACADMAINTVER
 70
    20
  9
$DWGCODEPAGE
  3
ANSI_1250
  9
$INSBASE
 10
0.0
 20
0.0
 30
0.0
  9
$EXTMIN
 10
-0.0160192835437556
 20
-0.0226558438690745
 30
-0.000000000000013
  9
$EXTMAX
 10
210.0000009780083
 20
297.000001383183
 30
0.0000000000000023
  9
$LIMMIN
 10
0.0
 20
0.0
  9
$LIMMAX
 10
210.0
 20
297.0
  9
$ORTHOMODE
 70
     1
  9
$REGENMODE
 70
     1
  9
$FILLMODE
 70
     1
  9
$QTEXTMODE
 70
     0
  9
$MIRRTEXT
 70
     0
  9
$LTSCALE
 40
1.0
  9
$ATTMODE
 70
     2
  9
$TEXTSIZE
 40
5.0
  9
$TRACEWID
 40
1.0
  9
$TEXTSTYLE
  7
Solbet_5
  9
$CLAYER
  8
SOLBET_Zbrojenie_Konstrukcja
  9
$CELTYPE
  6
ByLayer
  9
$CECOLOR
 62
   256
  9
$CELTSCALE
 40
1.0
  9
$DISPSILH
 70
     0
  9
$DIMSCALE
 40
1.0
  9
$DIMASZ
 40
2.5
  9
$DIMEXO
 40
0.0
  9
$DIMDLI
 40
3.75
  9
$DIMRND
 40
0.0
  9
$DIMDLE
 40
0.0
  9
$DIMEXE
 40
1.25
  9
$DIMTP
 40
0.0
  9
$DIMTM
 40
0.0
  9
$DIMTXT
 40
2.5
  9
$DIMCEN
 40
2.5
  9
$DIMTSZ
 40
0.0
  9
$DIMTOL
 70
     0
  9
$DIMLIM
 70
     0
  9
$DIMTIH
 70
     0
  9
$DIMTOH
 70
     0
  9
$DIMSE1
 70
     0
  9
$DIMSE2
 70
     0
  9
$DIMTAD
 70
     1
  9
$DIMZIN
 70
     8
  9
$DIMBLK
  1

  9
$DIMASO
 70
     1
  9
$DIMSHO
 70
     1
  9
$DIMPOST
  1

  9
$DIMAPOST
  1

  9
$DIMALT
 70
     0
  9
$DIMALTD
 70
     3
  9
$DIMALTF
 40
0.03937007874016
  9
$DIMLFAC
 40
1.0
  9
$DIMTOFL
 70
     1
  9
$DIMTVP
 40
0.0
  9
$DIMTIX
 70
     0
  9
$DIMSOXD
 70
     0
  9
$DIMSAH
 70
     0
  9
$DIMBLK1
  1

  9
$DIMBLK2
  1

  9
$DIMSTYLE
  2
Solbet
  9
$DIMCLRD
 70
     0
  9
$DIMCLRE
 70
     0
  9
$DIMCLRT
 70
     0
  9
$DIMTFAC
 40
1.0
  9
$DIMGAP
 40
0.625
  9
$DIMJUST
 70
     0
  9
$DIMSD1
 70
     0
  9
$DIMSD2
 70
     0
  9
$DIMTOLJ
 70
     0
  9
$DIMTZIN
 70
     8
  9
$DIMALTZ
 70
     0
  9
$DIMALTTZ
 70
     0
  9
$DIMUPT
 70
     0
  9
$DIMDEC
 70
     2
  9
$DIMTDEC
 70
     2
  9
$DIMALTU
 70
     2
  9
$DIMALTTD
 70
     3
  9
$DIMTXSTY
  7
Solbet_2_5
  9
$DIMAUNIT
 70
     0
  9
$DIMADEC
 70
     0
  9
$DIMALTRND
 40
0.0
  9
$DIMAZIN
 70
     0
  9
$DIMDSEP
 70
    44
  9
$DIMATFIT
 70
     3
  9
$DIMFRAC
 70
     0
  9
$DIMLDRBLK
  1

  9
$DIMLUNIT
 70
     2
  9
$DIMLWD
 70
    -2
  9
$DIMLWE
 70
    -2
  9
$DIMTMOVE
 70
     0
  9
$LUNITS
 70
     2
  9
$LUPREC
 70
     4
  9
$SKETCHINC
 40
1.0
  9
$FILLETRAD
 40
0.0
  9
$AUNITS
 70
     0
  9
$AUPREC
 70
     0
  9
$MENU
  1
.
  9
$ELEVATION
 40
0.0
  9
$PELEVATION
 40
0.0
  9
$THICKNESS
 40
0.0
  9
$LIMCHECK
 70
     0
  9
$CHAMFERA
 40
0.0
  9
$CHAMFERB
 40
0.0
  9
$CHAMFERC
 40
0.0
  9
$CHAMFERD
 40
0.0
  9
$SKPOLY
 70
     0
  9
$TDCREATE
 40
2454690.075573148
  9
$TDUCREATE
 40
2454690.033906482
  9
$TDUPDATE
 40
2454848.887579838
  9
$TDUUPDATE
 40
2454848.845913172
  9
$TDINDWG
 40
0.7004697106
  9
$TDUSRTIMER
 40
0.7004651852
  9
$USRTIMER
 70
     1
  9
$ANGBASE
 50
0.0
  9
$ANGDIR
 70
     0
  9
$PDMODE
 70
     0
  9
$PDSIZE
 40
0.0
  9
$PLINEWID
 40
0.0
  9
$SPLFRAME
 70
     0
  9
$SPLINETYPE
 70
     6
  9
$SPLINESEGS
 70
     8
  9
$HANDSEED
  5
33CD
  9
$SURFTAB1
 70
     6
  9
$SURFTAB2
 70
     6
  9
$SURFTYPE
 70
     6
  9
$SURFU
 70
     6
  9
$SURFV
 70
     6
  9
$UCSBASE
  2

  9
$UCSNAME
  2

  9
$UCSORG
 10
0.0
 20
0.0
 30
0.0
  9
$UCSXDIR
 10
1.0
 20
0.0
 30
0.0
  9
$UCSYDIR
 10
0.0
 20
1.0
 30
0.0
  9
$UCSORTHOREF
  2

  9
$UCSORTHOVIEW
 70
     0
  9
$UCSORGTOP
 10
0.0
 20
0.0
 30
0.0
  9
$UCSORGBOTTOM
 10
0.0
 20
0.0
 30
0.0
  9
$UCSORGLEFT
 10
0.0
 20
0.0
 30
0.0
  9
$UCSORGRIGHT
 10
0.0
 20
0.0
 30
0.0
  9
$UCSORGFRONT
 10
0.0
 20
0.0
 30
0.0
  9
$UCSORGBACK
 10
0.0
 20
0.0
 30
0.0
  9
$PUCSBASE
  2

  9
$PUCSNAME
  2

  9
$PUCSORG
 10
0.0
 20
0.0
 30
0.0
  9
$PUCSXDIR
 10
1.0
 20
0.0
 30
0.0
  9
$PUCSYDIR
 10
0.0
 20
1.0
 30
0.0
  9
$PUCSORTHOREF
  2

  9
$PUCSORTHOVIEW
 70
     0
  9
$PUCSORGTOP
 10
0.0
 20
0.0
 30
0.0
  9
$PUCSORGBOTTOM
 10
0.0
 20
0.0
 30
0.0
  9
$PUCSORGLEFT
 10
0.0
 20
0.0
 30
0.0
  9
$PUCSORGRIGHT
 10
0.0
 20
0.0
 30
0.0
  9
$PUCSORGFRONT
 10
0.0
 20
0.0
 30
0.0
  9
$PUCSORGBACK
 10
0.0
 20
0.0
 30
0.0
  9
$USERI1
 70
     0
  9
$USERI2
 70
     0
  9
$USERI3
 70
     0
  9
$USERI4
 70
     0
  9
$USERI5
 70
     0
  9
$USERR1
 40
0.0
  9
$USERR2
 40
0.0
  9
$USERR3
 40
0.0
  9
$USERR4
 40
0.0
  9
$USERR5
 40
0.0
  9
$WORLDVIEW
 70
     1
  9
$SHADEDGE
 70
     3
  9
$SHADEDIF
 70
    70
  9
$TILEMODE
 70
     1
  9
$MAXACTVP
 70
    64
  9
$PINSBASE
 10
0.0
 20
0.0
 30
0.0
  9
$PLIMCHECK
 70
     0
  9
$PEXTMIN
 10
0.0
 20
0.0
 30
0.0
  9
$PEXTMAX
 10
0.0
 20
0.0
 30
0.0
  9
$PLIMMIN
 10
0.0
 20
0.0
  9
$PLIMMAX
 10
12.0
 20
9.0
  9
$UNITMODE
 70
     0
  9
$VISRETAIN
 70
     1
  9
$PLINEGEN
 70
     0
  9
$PSLTSCALE
 70
     1
  9
$TREEDEPTH
 70
  3020
  9
$CMLSTYLE
  2
SOLBET_IZOLACJA
  9
$CMLJUST
 70
     0
  9
$CMLSCALE
 40
20.0
  9
$PROXYGRAPHICS
 70
     1
  9
$MEASUREMENT
 70
     1
  9
$CELWEIGHT
370
    -1
  9
$ENDCAPS
280
     0
  9
$JOINSTYLE
280
     0
  9
$LWDISPLAY
290
     1
  9
$INSUNITS
 70
     4
  9
$HYPERLINKBASE
  1

  9
$STYLESHEET
  1

  9
$XEDIT
290
     1
  9
$CEPSNTYPE
380
     0
  9
$PSTYLEMODE
290
     1
  9
$FINGERPRINTGUID
  2
{6B12AB33-8E39-428E-8E85-461C8D99A3CB}
  9
$VERSIONGUID
  2
{500A2151-DDB2-48E3-9D0F-735A1ACEFE9D}
  9
$EXTNAMES
290
     1
  9
$PSVPSCALE
 40
0.0
  9
$OLESTARTUP
290
     0
  0
ENDSEC
  0
SECTION
  2
CLASSES
  0
CLASS
  1
ACDBDICTIONARYWDFLT
  2
AcDbDictionaryWithDefault
  3
ObjectDBX Classes
 90
        0
280
     0
281
     0
  0
CLASS
  1
ACDBPLACEHOLDER
  2
AcDbPlaceHolder
  3
ObjectDBX Classes
 90
        0
280
     0
281
     0
  0
CLASS
  1
LAYOUT
  2
AcDbLayout
  3
ObjectDBX Classes
 90
        0
280
     0
281
     0
  0
CLASS
  1
DICTIONARYVAR
  2
AcDbDictionaryVar
  3
ObjectDBX Classes
 90
        0
280
     0
281
     0
  0
CLASS
  1
TABLESTYLE
  2
AcDbTableStyle
  3
ObjectDBX Classes
 90
     4095
280
     0
281
     0
  0
CLASS
  1
MATERIAL
  2
AcDbMaterial
  3
ObjectDBX Classes
 90
     1024
280
     0
281
     0
  0
CLASS
  1
VISUALSTYLE
  2
AcDbVisualStyle
  3
ObjectDBX Classes
 90
     4095
280
     0
281
     0
  0
CLASS
  1
SCALE
  2
AcDbScale
  3
ObjectDBX Classes
 90
     1153
280
     0
281
     0
  0
CLASS
  1
MLEADERSTYLE
  2
AcDbMLeaderStyle
  3
ACDB_MLEADERSTYLE_CLASS
 90
     4095
280
     0
281
     0
  0
CLASS
  1
CELLSTYLEMAP
  2
AcDbCellStyleMap
  3
ObjectDBX Classes
 90
     1152
280
     0
281
     0
  0
CLASS
  1
DIMASSOC
  2
AcDbDimAssoc
  3
"AcDbDimAssoc|Product Desc:     AcDim ARX App For Dimension|Company:          Autodesk, Inc.|WEB Address:      www.autodesk.com"
 90
    32768
280
     0
281
     0
  0
CLASS
  1
SORTENTSTABLE
  2
AcDbSortentsTable
  3
ObjectDBX Classes
 90
        0
280
     0
281
     0
  0
CLASS
  1
MULTILEADER
  2
AcDbMLeader
  3
ACDB_MLEADER_CLASS
 90
    33793
280
     0
281
     1
  0
CLASS
  1
ACDB_MTEXTOBJECTCONTEXTDATA_CLASS
  2
AcDbMTextObjectContextData
  3
ObjectDBX Classes
 90
    33921
280
     0
281
     0
  0
ENDSEC
  0
SECTION
  2
TABLES
  0
TABLE
  2
VPORT
  5
8
102
{ACAD_XDICTIONARY
360
443
102
}
330
0
100
AcDbSymbolTable
 70
     1
  0
VPORT
  5
EA
330
8
100
AcDbSymbolTableRecord
100
AcDbViewportTableRecord
  2
*Active
 70
     0
 10
0.0
 20
0.0
 11
1.0
 21
1.0
 12
104.9919908472322
 22
148.4886727696569
 13
0.0
 23
0.0
 14
10.0
 24
10.0
 15
10.0
 25
10.0
 16
0.0
 26
0.0
 36
1.0
 17
0.0
 27
0.0
 37
0.0
 40
300.3229089740192
 41
1.74582560296846
 42
50.0
 43
0.0
 44
0.0
 50
0.0
 51
0.0
 71
     0
 72
  1000
 73
     1
 74
     3
 75
     0
 76
     0
 77
     0
 78
     0
281
     0
 65
     1
110
0.0
120
0.0
130
0.0
111
1.0
121
0.0
131
0.0
112
0.0
122
1.0
132
0.0
 79
     0
146
0.0
  0
ENDTAB
  0
TABLE
  2
LTYPE
  5
5
330
0
100
AcDbSymbolTable
 70
     5
  0
LTYPE
  5
14
330
5
100
AcDbSymbolTableRecord
100
AcDbLinetypeTableRecord
  2
ByBlock
 70
     0
  3

 72
    65
 73
     0
 40
0.0
  0
LTYPE
  5
15
330
5
100
AcDbSymbolTableRecord
100
AcDbLinetypeTableRecord
  2
ByLayer
 70
     0
  3

 72
    65
 73
     0
 40
0.0
  0
LTYPE
  5
16
330
5
100
AcDbSymbolTableRecord
100
AcDbLinetypeTableRecord
  2
Continuous
 70
     0
  3
Solid line
 72
    65
 73
     0
 40
0.0
  0
LTYPE
  5
982
330
5
100
AcDbSymbolTableRecord
100
AcDbLinetypeTableRecord
  2
BATTING
 70
     0
  3
Batting SSSSSSSSSSSSSSSSSSSSSSSSSSSSSSSSSSSSSSSSSSSSSSS
 72
    65
 73
     4
 40
10.16254
 49
0.00254
 74
     0
 49
-2.54
 74
     4
 75
   134
340
7E7
 46
2.54
 50
0.0
 44
-2.54
 45
0.0
 49
-5.08
 74
     4
 75
   134
340
7E7
 46
2.54
 50
180.0
 44
2.54
 45
0.0
 49
-2.54
 74
     0
  0
LTYPE
  5
2EF4
330
5
100
AcDbSymbolTableRecord
100
AcDbLinetypeTableRecord
  2
CENTER2
 70
     0
  3
Center (.5x) ___ _ ___ _ ___ _ ___ _ ___ _ ___
 72
    65
 73
     4
 40
28.575
 49
19.05
 74
     0
 49
-3.174999999999999
 74
     0
 49
3.174999999999999
 74
     0
 49
-3.174999999999999
 74
     0
  0
LTYPE
  5
2EF5
330
5
100
AcDbSymbolTableRecord
100
AcDbLinetypeTableRecord
  2
ACAD_ISO04W100
 70
     0
  3
 linia długa kreska kropka ____ . ____ . ____ . ____ . _
 72
    65
 73
     4
 40
30.0
 49
24.0
 74
     0
 49
-3.0
 74
     0
 49
0.0
 74
     0
 49
-3.0
 74
     0
  0
LTYPE
  5
306B
330
5
100
AcDbSymbolTableRecord
100
AcDbLinetypeTableRecord
  2
DASHED2
 70
     0
  3
Dashed (.5x) _ _ _ _ _ _ _ _ _ _ _ _ _ _ _ _ _
 72
    65
 73
     2
 40
9.524999999999998
 49
6.349999999999999
 74
     0
 49
-3.174999999999999
 74
     0
  0
ENDTAB
  0
TABLE
  2
LAYER
  5
2
102
{ACAD_XDICTIONARY
360
3E5
102
}
330
0
100
AcDbSymbolTable
 70
    13
  0
LAYER
  5
10
102
{ACAD_XDICTIONARY
360
13C
102
}
330
2
100
AcDbSymbolTableRecord
100
AcDbLayerTableRecord
  2
0
 70
     0
 62
     7
  6
Continuous
370
    -3
390
F
  0
LAYER
  5
2BB
330
2
100
AcDbSymbolTableRecord
100
AcDbLayerTableRecord
  2
DEFPOINTS
 70
     0
 62
     7
  6
Continuous
290
     0
370
    -3
390
F
  0
LAYER
  5
3DD
102
{ACAD_XDICTIONARY
360
403
102
}
330
2
100
AcDbSymbolTableRecord
100
AcDbLayerTableRecord
  2
SOLBET_Bloczki
 70
     0
 62
   140
  6
Continuous
370
    -3
390
F
1001
AcAecLayerStandard
1000

1000

  0
LAYER
  5
3DF
102
{ACAD_XDICTIONARY
360
405
102
}
330
2
100
AcDbSymbolTableRecord
100
AcDbLayerTableRecord
  2
SOLBET_Wymiary_Opisy
 70
     0
 62
     1
  6
Continuous
370
    -3
390
F
1001
AcAecLayerStandard
1000

1000

  0
LAYER
  5
3E1
102
{ACAD_XDICTIONARY
360
409
102
}
330
2
100
AcDbSymbolTableRecord
100
AcDbLayerTableRecord
  2
SOLBET_Izolacja
 70
     0
 62
    40
  6
Continuous
370
    -3
390
F
1001
AcAecLayerStandard
1000

1000

  0
LAYER
  5
3E2
102
{ACAD_XDICTIONARY
360
40B
102
}
330
2
100
AcDbSymbolTableRecord
100
AcDbLayerTableRecord
  2
SOLBET_Zbrojenie_Konstrukcja
 70
     0
 62
     7
  6
Continuous
370
    -3
390
F
1001
AcAecLayerStandard
1000

1000

  0
LAYER
  5
3E4
102
{ACAD_XDICTIONARY
360
40F
102
}
330
2
100
AcDbSymbolTableRecord
100
AcDbLayerTableRecord
  2
SOLBET_Tynki_Posadzki
 70
     0
 62
     3
  6
Continuous
370
    -3
390
F
1001
AcAecLayerStandard
1000

1000

  0
LAYER
  5
3E8
102
{ACAD_XDICTIONARY
360
411
102
}
330
2
100
AcDbSymbolTableRecord
100
AcDbLayerTableRecord
  2
SOLBET_Ramka_05
 70
     0
 62
     2
  6
Continuous
370
    -3
390
F
1001
AcAecLayerStandard
1000

1000

  0
LAYER
  5
472
330
2
100
AcDbSymbolTableRecord
100
AcDbLayerTableRecord
  2
SOLBET_Zaprawy
 70
     0
 62
     4
  6
Continuous
370
    -3
390
F
1001
AcAecLayerStandard
1000

1000

  0
LAYER
  5
4E2
330
2
100
AcDbSymbolTableRecord
100
AcDbLayerTableRecord
  2
SOLBET_Emulsje_Folie
 70
     0
 62
     6
  6
Continuous
370
    -3
390
F
1001
AcAecLayerStandard
1000

1000

  0
LAYER
  5
2316
330
2
100
AcDbSymbolTableRecord
100
AcDbLayerTableRecord
  2
SOLBET_Stolarka_Okna
 70
     0
 62
     2
  6
Continuous
370
    -3
390
F
1001
AcAecLayerStandard
1000

1000

  0
LAYER
  5
2EAF
330
2
100
AcDbSymbolTableRecord
100
AcDbLayerTableRecord
  2
SOLBET_Beton
 70
     0
 62
     9
  6
Continuous
370
    -3
390
F
1001
AcAecLayerStandard
1000

1000

  0
LAYER
  5
32B7
102
{ACAD_XDICTIONARY
360
32B8
102
}
330
2
100
AcDbSymbolTableRecord
100
AcDbLayerTableRecord
  2
SOLBET_Wymiary_Opisy @ 1
 70
     0
 62
     1
  6
Continuous
370
    -3
390
F
1001
AcAecLayerStandard
1000

1000

1001
AcadAnnotativeDecomposition
1000
AnnotativeData
1002
{
1070
     1
1070
     1
1002
}
  0
ENDTAB
  0
TABLE
  2
STYLE
  5
3
330
0
100
AcDbSymbolTable
 70
     5
  0
STYLE
  5
11
330
3
100
AcDbSymbolTableRecord
100
AcDbTextStyleTableRecord
  2
Standard
 70
     0
 40
0.0
 41
1.0
 50
0.0
 71
     0
 42
2.5
  3
txt.shx
  4

  0
STYLE
  5
7D7
330
3
100
AcDbSymbolTableRecord
100
AcDbTextStyleTableRecord
  2
Solbet_5
 70
     0
 40
5.0
 41
1.0
 50
0.0
 71
     0
 42
5.0
  3
isocpeur.ttf
  4

1001
ACAD
1000
ISOCPEUR
1071
       34
  0
STYLE
  5
7D9
330
3
100
AcDbSymbolTableRecord
100
AcDbTextStyleTableRecord
  2
Solbet_2_5
 70
     0
 40
2.5
 41
1.0
 50
0.0
 71
     0
 42
2.5
  3
isocpeur.ttf
  4

1001
ACAD
1000
ISOCPEUR
1071
       34
  0
STYLE
  5
7E7
330
3
100
AcDbSymbolTableRecord
100
AcDbTextStyleTableRecord
  2

 70
     1
 40
0.0
 41
1.0
 50
0.0
 71
     0
 42
2.5
  3
ltypeshp.shx
  4

  0
STYLE
  5
28D1
330
3
100
AcDbSymbolTableRecord
100
AcDbTextStyleTableRecord
  2
Solbet_1
 70
     0
 40
1.0
 41
1.0
 50
0.0
 71
     0
 42
2.5
  3
isocpeur.ttf
  4

1001
ACAD
1000
ISOCPEUR
1071
       34
  0
ENDTAB
  0
TABLE
  2
VIEW
  5
6
330
0
100
AcDbSymbolTable
 70
     0
  0
ENDTAB
  0
TABLE
  2
UCS
  5
7
330
0
100
AcDbSymbolTable
 70
     0
  0
ENDTAB
  0
TABLE
  2
APPID
  5
9
330
0
100
AcDbSymbolTable
 70
    13
  0
APPID
  5
12
330
9
100
AcDbSymbolTableRecord
100
AcDbRegAppTableRecord
  2
ACAD
 70
     0
  0
APPID
  5
9E
330
9
100
AcDbSymbolTableRecord
100
AcDbRegAppTableRecord
  2
ACAD_PSEXT
 70
     0
  0
APPID
  5
133
330
9
100
AcDbSymbolTableRecord
100
AcDbRegAppTableRecord
  2
AcadAnnoPO
 70
     0
  0
APPID
  5
134
330
9
100
AcDbSymbolTableRecord
100
AcDbRegAppTableRecord
  2
AcadAnnotative
 70
     0
  0
APPID
  5
135
330
9
100
AcDbSymbolTableRecord
100
AcDbRegAppTableRecord
  2
ACAD_DSTYLE_DIMJAG
 70
     0
  0
APPID
  5
136
330
9
100
AcDbSymbolTableRecord
100
AcDbRegAppTableRecord
  2
ACAD_DSTYLE_DIMTALN
 70
     0
  0
APPID
  5
165
330
9
100
AcDbSymbolTableRecord
100
AcDbRegAppTableRecord
  2
ACAD_MLEADERVER
 70
     0
  0
APPID
  5
2C4
330
9
100
AcDbSymbolTableRecord
100
AcDbRegAppTableRecord
  2
ASO_SCHRAFF
 70
     0
  0
APPID
  5
3DE
330
9
100
AcDbSymbolTableRecord
100
AcDbRegAppTableRecord
  2
AcAecLayerStandard
 70
     0
  0
APPID
  5
7DE
330
9
100
AcDbSymbolTableRecord
100
AcDbRegAppTableRecord
  2
ACAD_EXEMPT_FROM_CAD_STANDARDS
 70
     0
  0
APPID
  5
948
330
9
100
AcDbSymbolTableRecord
100
AcDbRegAppTableRecord
  2
ACAD_DSTYLE_DIMBREAK
 70
     0
  0
APPID
  5
1D0A
330
9
100
AcDbSymbolTableRecord
100
AcDbRegAppTableRecord
  2
AcadAnnotativeDecomposition
 70
     0
  0
APPID
  5
2274
330
9
100
AcDbSymbolTableRecord
100
AcDbRegAppTableRecord
  2
AcDbAttr
 70
     0
  0
ENDTAB
  0
TABLE
  2
DIMSTYLE
  5
A
330
0
100
AcDbSymbolTable
 70
     2
100
AcDbDimStyleTable
 71
     1
340
949
  0
DIMSTYLE
105
949
330
A
100
AcDbSymbolTableRecord
100
AcDbDimStyleTableRecord
  2
Solbet
 70
     0
 41
2.5
 42
0.0
 43
3.75
 44
1.25
 73
     0
 74
     0
 77
     1
 78
     8
140
2.5
141
2.5
143
0.03937007874016
147
0.625
171
     3
172
     1
271
     2
272
     2
274
     3
278
    44
283
     0
284
     8
340
7D9
1001
ACAD_DSTYLE_DIMBREAK
1070
   391
1040
3.75
1001
ACAD_DSTYLE_DIMJAG
1070
   388
1040
1.5
1001
ACAD_DSTYLE_DIMTALN
1070
   392
1070
     0
  0
DIMSTYLE
105
954
330
A
100
AcDbSymbolTableRecord
100
AcDbDimStyleTableRecord
  2
Solbet$7
 70
     0
 41
2.5
 42
0.0
 43
3.75
 44
1.25
 73
     0
 74
     0
 77
     1
 78
     8
140
2.5
141
2.5
143
0.03937007874016
147
0.625
171
     3
172
     1
271
     2
272
     2
274
     3
278
    44
283
     0
284
     8
340
7D9
341
958
1001
ACAD_DSTYLE_DIMBREAK
1070
   391
1040
3.75
1001
ACAD_DSTYLE_DIMJAG
1070
   388
1040
1.5
1001
ACAD_DSTYLE_DIMTALN
1070
   392
1070
     0
  0
ENDTAB
  0
TABLE
  2
BLOCK_RECORD
  5
1
330
0
100
AcDbSymbolTable
 70
     9
  0
BLOCK_RECORD
  5
1F
102
{ACAD_XDICTIONARY
360
4A3
102
}
330
1
100
AcDbSymbolTableRecord
100
AcDbBlockTableRecord
  2
*Model_Space
340
22
  0
BLOCK_RECORD
  5
D2
330
1
100
AcDbSymbolTableRecord
100
AcDbBlockTableRecord
  2
*Paper_Space
340
D3
  0
BLOCK_RECORD
  5
D6
330
1
100
AcDbSymbolTableRecord
100
AcDbBlockTableRecord
  2
*Paper_Space0
340
D7
  0
BLOCK_RECORD
  5
958
330
1
100
AcDbSymbolTableRecord
100
AcDbBlockTableRecord
  2
_DotSmall
340
0
102
{BLKREFS
331
2D02
331
2D05
331
2E18
331
2E1A
331
2E1C
331
2E1E
331
2E22
331
3139
331
313E
102
}
  0
BLOCK_RECORD
  5
24E6
330
1
100
AcDbSymbolTableRecord
100
AcDbBlockTableRecord
  2
*X2
340
0
102
{BLKREFS
331
2C6F
102
}
  0
BLOCK_RECORD
  5
250E
330
1
100
AcDbSymbolTableRecord
100
AcDbBlockTableRecord
  2
*X3
340
0
102
{BLKREFS
331
2C5F
102
}
  0
BLOCK_RECORD
  5
2902
102
{ACAD_XDICTIONARY
360
290C
102
}
330
1
100
AcDbSymbolTableRecord
100
AcDbBlockTableRecord
  2
SOLBET_Plytka_80x240x590_brak_PRA
340
0
102
{BLKREFS
331
2D1A
102
}
1001
ACAD
1000
DesignCenter Data
1002
{
1070
     1
1070
     4
1002
}
  0
BLOCK_RECORD
  5
2D3C
102
{ACAD_XDICTIONARY
360
2D48
102
}
330
1
100
AcDbSymbolTableRecord
100
AcDbBlockTableRecord
  2
SOLBET_Ksztaltka_U_420x240x500_GOR
340
0
1001
ACAD
1000
DesignCenter Data
1002
{
1070
     1
1070
     4
1002
}
  0
BLOCK_RECORD
  5
2E50
102
{ACAD_XDICTIONARY
360
2E5E
102
}
330
1
100
AcDbSymbolTableRecord
100
AcDbBlockTableRecord
  2
SOLBET_Ksztaltka_U_420x240x500_PRA
340
0
1001
ACAD
1000
DesignCenter Data
1002
{
1070
     1
1070
     4
1002
}
  0
BLOCK_RECORD
  5
32F1
102
{ACAD_XDICTIONARY
360
32FD
102
}
330
1
100
AcDbSymbolTableRecord
100
AcDbBlockTableRecord
  2
SOLBET_Ksztaltka_U_420x240x500_KG400_GOR
340
0
102
{BLKREFS
331
3301
102
}
1001
ACAD
1000
DesignCenter Data
1002
{
1070
     1
1070
     4
1002
}
  0
ENDTAB
  0
ENDSEC
  0
SECTION
  2
BLOCKS
  0
BLOCK
  5
20
330
1F
100
AcDbEntity
  8
0
100
AcDbBlockBegin
  2
*Model_Space
 70
     0
 10
0.0
 20
0.0
 30
0.0
  3
*Model_Space
  1

  0
ENDBLK
  5
21
330
1F
100
AcDbEntity
  8
0
100
AcDbBlockEnd
  0
BLOCK
  5
D4
330
D2
100
AcDbEntity
 67
     1
  8
0
100
AcDbBlockBegin
  2
*Paper_Space
 70
     0
 10
0.0
 20
0.0
 30
0.0
  3
*Paper_Space
  1

  0
ENDBLK
  5
D5
330
D2
100
AcDbEntity
 67
     1
  8
0
100
AcDbBlockEnd
  0
BLOCK
  5
D8
330
D6
100
AcDbEntity
 67
     1
  8
0
100
AcDbBlockBegin
  2
*Paper_Space0
 70
     0
 10
0.0
 20
0.0
 30
0.0
  3
*Paper_Space0
  1

  0
ENDBLK
  5
D9
330
D6
100
AcDbEntity
 67
     1
  8
0
100
AcDbBlockEnd
  0
BLOCK
  5
95A
330
958
100
AcDbEntity
  8
0
100
AcDbBlockBegin
  2
_DotSmall
 70
     0
 10
0.0
 20
0.0
 30
0.0
  3
_DotSmall
  1

  0
LWPOLYLINE
  5
959
330
958
100
AcDbEntity
  8
0
  6
ByBlock
 62
     0
100
AcDbPolyline
 90
        2
 70
     1
 43
0.5
 10
-0.0625
 20
0.0
 42
1.0
 10
0.0625
 20
0.0
 42
1.0
  0
ENDBLK
  5
95B
330
958
100
AcDbEntity
  8
0
100
AcDbBlockEnd
  0
BLOCK
  5
24E7
330
24E6
100
AcDbEntity
  8
0
100
AcDbBlockBegin
  2
*X2
 70
     1
 10
0.0
 20
0.0
 30
0.0
  3
*X2
  1
ASOWDBLK
  0
LINE
  5
24E8
330
24E6
100
AcDbEntity
  8
0
 62
     0
100
AcDbLine
 10
12.3679971441842
 20
9.463695206850969
 30
0.0
 11
12.37947492774574
 21
9.477373896645453
 31
0.0
  0
LINE
  5
24E9
330
24E6
100
AcDbEntity
  8
0
 62
     0
100
AcDbLine
 10
12.54731218983439
 20
9.448007173105322
 30
0.0
 11
12.55936445751601
 21
9.462370506413803
 31
0.0
  0
LINE
  5
24EA
330
24E6
100
AcDbEntity
  8
0
 62
     0
100
AcDbLine
 10
12.36799714853588
 20
9.463695209658894
 30
0.0
 11
12.38294006900726
 21
9.462387873517679
 31
0.0
  0
LINE
  5
24EB
330
24E6
100
AcDbEntity
  8
0
 62
     0
100
AcDbLine
 10
12.54731219419239
 20
9.448007175964315
 30
0.0
 11
12.56225511466377
 21
9.4466998398231
 31
0.0
  0
LINE
  5
24EC
330
24E6
100
AcDbEntity
  8
0
 62
     0
100
AcDbLine
 10
12.38294734493005
 20
9.4623781245925
 30
0.0
 11
12.38018119759329
 21
9.477373896645453
 31
0.0
  0
LINE
  5
24ED
330
24E6
100
AcDbEntity
  8
0
 62
     0
100
AcDbLine
 10
12.56226237690854
 20
9.446689950037018
 30
0.0
 11
12.55937173644585
 21
9.462360621258849
 31
0.0
  0
LINE
  5
24EE
330
24E6
100
AcDbEntity
  8
0
 62
     0
100
AcDbLine
 10
11.75616891039773
 20
9.427373896645452
 30
0.0
 11
11.76738393501053
 21
9.439062362340582
 31
0.0
  0
LINE
  5
24EF
330
24E6
100
AcDbEntity
  8
0
 62
     0
100
AcDbLine
 10
11.7687499570032
 20
9.427373896645452
 30
0.0
 11
11.76739122001888
 21
9.43905355256455
 31
0.0
  0
LINE
  5
24F0
330
24E6
100
AcDbEntity
  8
0
 62
     0
100
AcDbLine
 10
12.14321939628071
 20
9.427373896645452
 30
0.0
 11
12.16009382309612
 21
9.433851382211726
 31
0.0
  0
LINE
  5
24F1
330
24E6
100
AcDbEntity
  8
0
 62
     0
100
AcDbLine
 10
11.78330683110781
 20
9.447153917176395
 30
0.0
 11
11.80081146410463
 21
9.453873316230369
 31
0.0
  0
LINE
  5
24F2
330
24E6
100
AcDbEntity
  8
0
 62
     0
100
AcDbLine
 10
11.78330683628649
 20
9.447153915051121
 30
0.0
 11
11.79574239987482
 21
9.438766021499059
 31
0.0
  0
LINE
  5
24F3
330
24E6
100
AcDbEntity
  8
0
 62
     0
100
AcDbLine
 10
12.15793081287172
 20
9.427373896645452
 30
0.0
 11
12.16010106960009
 21
9.433841872497813
 31
0.0
  0
LINE
  5
24F4
330
24E6
100
AcDbEntity
  8
0
 62
     0
100
AcDbLine
 10
11.79574964859947
 20
9.438756799333843
 30
0.0
 11
11.8008187296486
 21
9.453864087513544
 31
0.0
  0
LINE
  5
24F5
330
24E6
100
AcDbEntity
  8
0
 62
     0
100
AcDbLine
 10
12.20471516834098
 20
9.445898146433325
 30
0.0
 11
12.20471516834098
 21
9.445898146433325
 31
0.0
  0
LINE
  5
24F6
330
24E6
100
AcDbEntity
  8
0
 62
     0
100
AcDbLine
 10
12.07635598518457
 20
9.428295498211584
 30
0.0
 11
12.07635598518457
 21
9.428295498211584
 31
0.0
  0
LINE
  5
24F7
330
24E6
100
AcDbEntity
  8
0
 62
     0
100
AcDbLine
 10
11.82327259770628
 20
9.476770236297685
 30
0.0
 11
11.82327259770628
 21
9.476770236297685
 31
0.0
  0
LINE
  5
24F8
330
24E6
100
AcDbEntity
  8
0
 62
     0
100
AcDbLine
 10
11.69491341454987
 20
9.459167588075944
 30
0.0
 11
11.69491341454987
 21
9.459167588075944
 31
0.0
  0
LINE
  5
24F9
330
24E6
100
AcDbEntity
  8
0
 62
     0
100
AcDbLine
 10
11.56506669388041
 20
9.44042351217481
 30
0.0
 11
11.56506669388041
 21
9.44042351217481
 31
0.0
  0
LINE
  5
24FA
330
24E6
100
AcDbEntity
  8
0
 62
     0
100
AcDbLine
 10
12.33099179897913
 20
9.461902795903919
 30
0.0
 11
12.33099179897913
 21
9.461902795903919
 31
0.0
  0
LINE
  5
24FB
330
24E6
100
AcDbEntity
  8
0
 62
     0
100
AcDbLine
 10
12.27744372398571
 20
9.441526547948372
 30
0.0
 11
12.27744372398571
 21
9.441526547948372
 31
0.0
  0
LINE
  5
24FC
330
24E6
100
AcDbEntity
  8
0
 62
     0
100
AcDbLine
 10
12.34002868085993
 20
9.449766013832263
 30
0.0
 11
12.34002868085993
 21
9.449766013832263
 31
0.0
  0
LINE
  5
24FD
330
24E6
100
AcDbEntity
  8
0
 62
     0
100
AcDbLine
 10
12.43471166512113
 20
9.462231265189277
 30
0.0
 11
12.43471166512113
 21
9.462231265189277
 31
0.0
  0
LINE
  5
24FE
330
24E6
100
AcDbEntity
  8
0
 62
     0
100
AcDbLine
 10
11.55501244355407
 20
9.436361153104019
 30
0.0
 11
11.55501244355407
 21
9.436361153104019
 31
0.0
  0
LINE
  5
24FF
330
24E6
100
AcDbEntity
  8
0
 62
     0
100
AcDbLine
 10
11.71290003772785
 20
9.457147449215062
 30
0.0
 11
11.71290003772785
 21
9.457147449215062
 31
0.0
  0
LINE
  5
2500
330
24E6
100
AcDbEntity
  8
0
 62
     0
100
AcDbLine
 10
11.77548499460207
 20
9.465386915098953
 30
0.0
 11
11.77548499460207
 21
9.465386915098953
 31
0.0
  0
LINE
  5
2501
330
24E6
100
AcDbEntity
  8
0
 62
     0
100
AcDbLine
 10
12.00720232847171
 20
9.461538266747048
 30
0.0
 11
12.00720232847171
 21
9.461538266747048
 31
0.0
  0
LINE
  5
2502
330
24E6
100
AcDbEntity
  8
0
 62
     0
100
AcDbLine
 10
12.14065793751482
 20
9.455899548813453
 30
0.0
 11
12.14065793751482
 21
9.455899548813453
 31
0.0
  0
LINE
  5
2503
330
24E6
100
AcDbEntity
  8
0
 62
     0
100
AcDbLine
 10
12.27411354655792
 20
9.450260830879859
 30
0.0
 11
12.27411354655792
 21
9.450260830879859
 31
0.0
  0
LINE
  5
2504
330
24E6
100
AcDbEntity
  8
0
 62
     0
100
AcDbLine
 10
12.40756915560102
 20
9.444622112946266
 30
0.0
 11
12.40756915560102
 21
9.444622112946266
 31
0.0
  0
LINE
  5
2505
330
24E6
100
AcDbEntity
  8
0
 62
     0
100
AcDbLine
 10
12.54102476464413
 20
9.438983395012668
 30
0.0
 11
12.54102476464413
 21
9.438983395012668
 31
0.0
  0
LINE
  5
2506
330
24E6
100
AcDbEntity
  8
0
 62
     0
100
AcDbLine
 10
12.67448037368723
 20
9.433344677079073
 30
0.0
 11
12.67448037368723
 21
9.433344677079073
 31
0.0
  0
LINE
  5
2507
330
24E6
100
AcDbEntity
  8
0
 62
     0
100
AcDbLine
 10
11.87374671942861
 20
9.467176984680643
 30
0.0
 11
11.87374671942861
 21
9.467176984680643
 31
0.0
  0
LINE
  5
2508
330
24E6
100
AcDbEntity
  8
0
 62
     0
100
AcDbLine
 10
11.74029111038551
 20
9.472815702614237
 30
0.0
 11
11.74029111038551
 21
9.472815702614237
 31
0.0
  0
LINE
  5
2509
330
24E6
100
AcDbEntity
  8
0
 62
     0
100
AcDbLine
 10
12.47470767275208
 20
9.433432165767177
 30
0.0
 11
12.47470767275208
 21
9.433432165767177
 31
0.0
  0
LINE
  5
250A
330
24E6
100
AcDbEntity
  8
0
 62
     0
100
AcDbLine
 10
12.62050421508768
 20
9.458458411350253
 30
0.0
 11
12.62050421508768
 21
9.458458411350253
 31
0.0
  0
LINE
  5
250B
330
24E6
100
AcDbEntity
  8
0
 62
     0
100
AcDbLine
 10
11.75604679277084
 20
9.457466884084235
 30
0.0
 11
11.75604679277084
 21
9.457466884084235
 31
0.0
  0
LINE
  5
250C
330
24E6
100
AcDbEntity
  8
0
 62
     0
100
AcDbLine
 10
11.61025025043524
 20
9.432440638501157
 30
0.0
 11
11.61025025043524
 21
9.432440638501157
 31
0.0
  0
ENDBLK
  5
250D
330
24E6
100
AcDbEntity
  8
0
100
AcDbBlockEnd
  0
BLOCK
  5
250F
330
250E
100
AcDbEntity
  8
0
100
AcDbBlockBegin
  2
*X3
 70
     1
 10
0.0
 20
0.0
 30
0.0
  3
*X3
  1
ASOWDBLK
  0
LINE
  5
2510
330
250E
100
AcDbEntity
  8
0
 62
     0
100
AcDbLine
 10
11.99304811965889
 20
9.120426821088543
 30
0.0
 11
12.03304811965889
 21
9.16042682108854
 31
0.0
  0
LINE
  5
2511
330
250E
100
AcDbEntity
  8
0
 62
     0
100
AcDbLine
 10
11.94885394583473
 20
9.120426821088543
 30
0.0
 11
11.98885394583473
 21
9.16042682108854
 31
0.0
  0
LINE
  5
2512
330
250E
100
AcDbEntity
  8
0
 62
     0
100
AcDbLine
 10
11.90465977201057
 20
9.120426821088543
 30
0.0
 11
11.94465977201057
 21
9.16042682108854
 31
0.0
  0
LINE
  5
2513
330
250E
100
AcDbEntity
  8
0
 62
     0
100
AcDbLine
 10
11.86046559818641
 20
9.120426821088543
 30
0.0
 11
11.90046559818641
 21
9.16042682108854
 31
0.0
  0
LINE
  5
2514
330
250E
100
AcDbEntity
  8
0
 62
     0
100
AcDbLine
 10
11.81627142436225
 20
9.120426821088543
 30
0.0
 11
11.85627142436225
 21
9.16042682108854
 31
0.0
  0
LINE
  5
2515
330
250E
100
AcDbEntity
  8
0
 62
     0
100
AcDbLine
 10
11.77207725053809
 20
9.120426821088543
 30
0.0
 11
11.81207725053809
 21
9.16042682108854
 31
0.0
  0
LINE
  5
2516
330
250E
100
AcDbEntity
  8
0
 62
     0
100
AcDbLine
 10
11.72788307671393
 20
9.120426821088543
 30
0.0
 11
11.76788307671393
 21
9.16042682108854
 31
0.0
  0
LINE
  5
2517
330
250E
100
AcDbEntity
  8
0
 62
     0
100
AcDbLine
 10
11.68368890288977
 20
9.120426821088543
 30
0.0
 11
11.72368890288977
 21
9.16042682108854
 31
0.0
  0
LINE
  5
2518
330
250E
100
AcDbEntity
  8
0
 62
     0
100
AcDbLine
 10
11.63949472906562
 20
9.120426821088543
 30
0.0
 11
11.67949472906562
 21
9.16042682108854
 31
0.0
  0
LINE
  5
2519
330
250E
100
AcDbEntity
  8
0
 62
     0
100
AcDbLine
 10
11.59530055524146
 20
9.120426821088543
 30
0.0
 11
11.63530055524145
 21
9.16042682108854
 31
0.0
  0
LINE
  5
251A
330
250E
100
AcDbEntity
  8
0
 62
     0
100
AcDbLine
 10
11.5511063814173
 20
9.120426821088543
 30
0.0
 11
11.59110638141729
 21
9.16042682108854
 31
0.0
  0
LINE
  5
251B
330
250E
100
AcDbEntity
  8
0
 62
     0
100
AcDbLine
 10
11.50691220759314
 20
9.120426821088543
 30
0.0
 11
11.54691220759314
 21
9.16042682108854
 31
0.0
  0
LINE
  5
251C
330
250E
100
AcDbEntity
  8
0
 62
     0
100
AcDbLine
 10
11.46271803376898
 20
9.120426821088543
 30
0.0
 11
11.50271803376898
 21
9.16042682108854
 31
0.0
  0
LINE
  5
251D
330
250E
100
AcDbEntity
  8
0
 62
     0
100
AcDbLine
 10
11.41852385994482
 20
9.120426821088543
 30
0.0
 11
11.45852385994482
 21
9.16042682108854
 31
0.0
  0
LINE
  5
251E
330
250E
100
AcDbEntity
  8
0
 62
     0
100
AcDbLine
 10
11.39401831761913
 20
9.140115452587011
 30
0.0
 11
11.41432968612066
 21
9.16042682108854
 31
0.0
  0
LINE
  5
251F
330
250E
100
AcDbEntity
  8
0
 62
     0
100
AcDbLine
 10
12.03724229348305
 20
9.120426821088543
 30
0.0
 11
12.07724229348305
 21
9.16042682108854
 31
0.0
  0
LINE
  5
2520
330
250E
100
AcDbEntity
  8
0
 62
     0
100
AcDbLine
 10
12.08143646730721
 20
9.120426821088543
 30
0.0
 11
12.12143646730721
 21
9.16042682108854
 31
0.0
  0
LINE
  5
2521
330
250E
100
AcDbEntity
  8
0
 62
     0
100
AcDbLine
 10
12.12563064113137
 20
9.120426821088543
 30
0.0
 11
12.16563064113137
 21
9.16042682108854
 31
0.0
  0
LINE
  5
2522
330
250E
100
AcDbEntity
  8
0
 62
     0
100
AcDbLine
 10
12.16982481495553
 20
9.120426821088543
 30
0.0
 11
12.20982481495552
 21
9.16042682108854
 31
0.0
  0
LINE
  5
2523
330
250E
100
AcDbEntity
  8
0
 62
     0
100
AcDbLine
 10
12.21401898877969
 20
9.120426821088543
 30
0.0
 11
12.25401898877968
 21
9.16042682108854
 31
0.0
  0
LINE
  5
2524
330
250E
100
AcDbEntity
  8
0
 62
     0
100
AcDbLine
 10
12.25821316260385
 20
9.120426821088543
 30
0.0
 11
12.29821316260384
 21
9.16042682108854
 31
0.0
  0
LINE
  5
2525
330
250E
100
AcDbEntity
  8
0
 62
     0
100
AcDbLine
 10
12.302407336428
 20
9.120426821088543
 30
0.0
 11
12.342407336428
 21
9.16042682108854
 31
0.0
  0
LINE
  5
2526
330
250E
100
AcDbEntity
  8
0
 62
     0
100
AcDbLine
 10
12.34660151025216
 20
9.120426821088543
 30
0.0
 11
12.38660151025216
 21
9.16042682108854
 31
0.0
  0
LINE
  5
2527
330
250E
100
AcDbEntity
  8
0
 62
     0
100
AcDbLine
 10
12.39079568407632
 20
9.120426821088543
 30
0.0
 11
12.43079568407632
 21
9.16042682108854
 31
0.0
  0
LINE
  5
2528
330
250E
100
AcDbEntity
  8
0
 62
     0
100
AcDbLine
 10
12.43498985790048
 20
9.120426821088543
 30
0.0
 11
12.47498985790048
 21
9.16042682108854
 31
0.0
  0
LINE
  5
2529
330
250E
100
AcDbEntity
  8
0
 62
     0
100
AcDbLine
 10
12.47918403172464
 20
9.120426821088543
 30
0.0
 11
12.51918403172464
 21
9.16042682108854
 31
0.0
  0
LINE
  5
252A
330
250E
100
AcDbEntity
  8
0
 62
     0
100
AcDbLine
 10
12.5233782055488
 20
9.120426821088543
 30
0.0
 11
12.5633782055488
 21
9.16042682108854
 31
0.0
  0
LINE
  5
252B
330
250E
100
AcDbEntity
  8
0
 62
     0
100
AcDbLine
 10
12.56757237937296
 20
9.120426821088543
 30
0.0
 11
12.60757237937296
 21
9.16042682108854
 31
0.0
  0
LINE
  5
252C
330
250E
100
AcDbEntity
  8
0
 62
     0
100
AcDbLine
 10
12.61176655319712
 20
9.120426821088543
 30
0.0
 11
12.65176655319712
 21
9.16042682108854
 31
0.0
  0
LINE
  5
252D
330
250E
100
AcDbEntity
  8
0
 62
     0
100
AcDbLine
 10
12.65596072702128
 20
9.120426821088543
 30
0.0
 11
12.68399674713724
 21
9.1484628412045
 31
0.0
  0
LINE
  5
252E
330
250E
100
AcDbEntity
  8
0
 62
     0
100
AcDbLine
 10
12.04858244068372
 20
9.120426821088543
 30
0.0
 11
12.00858244068372
 21
9.16042682108854
 31
0.0
  0
LINE
  5
252F
330
250E
100
AcDbEntity
  8
0
 62
     0
100
AcDbLine
 10
12.00438826685956
 20
9.120426821088543
 30
0.0
 11
11.96438826685956
 21
9.16042682108854
 31
0.0
  0
LINE
  5
2530
330
250E
100
AcDbEntity
  8
0
 62
     0
100
AcDbLine
 10
11.9601940930354
 20
9.120426821088543
 30
0.0
 11
11.9201940930354
 21
9.16042682108854
 31
0.0
  0
LINE
  5
2531
330
250E
100
AcDbEntity
  8
0
 62
     0
100
AcDbLine
 10
11.91599991921124
 20
9.120426821088543
 30
0.0
 11
11.87599991921124
 21
9.16042682108854
 31
0.0
  0
LINE
  5
2532
330
250E
100
AcDbEntity
  8
0
 62
     0
100
AcDbLine
 10
11.87180574538708
 20
9.120426821088543
 30
0.0
 11
11.83180574538708
 21
9.16042682108854
 31
0.0
  0
LINE
  5
2533
330
250E
100
AcDbEntity
  8
0
 62
     0
100
AcDbLine
 10
11.82761157156292
 20
9.120426821088543
 30
0.0
 11
11.78761157156293
 21
9.16042682108854
 31
0.0
  0
LINE
  5
2534
330
250E
100
AcDbEntity
  8
0
 62
     0
100
AcDbLine
 10
11.78341739773876
 20
9.120426821088543
 30
0.0
 11
11.74341739773877
 21
9.16042682108854
 31
0.0
  0
LINE
  5
2535
330
250E
100
AcDbEntity
  8
0
 62
     0
100
AcDbLine
 10
11.7392232239146
 20
9.120426821088543
 30
0.0
 11
11.69922322391461
 21
9.16042682108854
 31
0.0
  0
LINE
  5
2536
330
250E
100
AcDbEntity
  8
0
 62
     0
100
AcDbLine
 10
11.69502905009045
 20
9.120426821088543
 30
0.0
 11
11.65502905009045
 21
9.16042682108854
 31
0.0
  0
LINE
  5
2537
330
250E
100
AcDbEntity
  8
0
 62
     0
100
AcDbLine
 10
11.65083487626629
 20
9.120426821088543
 30
0.0
 11
11.61083487626629
 21
9.16042682108854
 31
0.0
  0
LINE
  5
2538
330
250E
100
AcDbEntity
  8
0
 62
     0
100
AcDbLine
 10
11.60664070244213
 20
9.120426821088543
 30
0.0
 11
11.56664070244213
 21
9.16042682108854
 31
0.0
  0
LINE
  5
2539
330
250E
100
AcDbEntity
  8
0
 62
     0
100
AcDbLine
 10
11.56244652861797
 20
9.120426821088543
 30
0.0
 11
11.52244652861797
 21
9.16042682108854
 31
0.0
  0
LINE
  5
253A
330
250E
100
AcDbEntity
  8
0
 62
     0
100
AcDbLine
 10
11.51825235479381
 20
9.120426821088543
 30
0.0
 11
11.47825235479381
 21
9.16042682108854
 31
0.0
  0
LINE
  5
253B
330
250E
100
AcDbEntity
  8
0
 62
     0
100
AcDbLine
 10
11.47405818096965
 20
9.120426821088543
 30
0.0
 11
11.43405818096965
 21
9.16042682108854
 31
0.0
  0
LINE
  5
253C
330
250E
100
AcDbEntity
  8
0
 62
     0
100
AcDbLine
 10
11.42986400714549
 20
9.120426821088543
 30
0.0
 11
11.39401831761913
 21
9.156272510614906
 31
0.0
  0
LINE
  5
253D
330
250E
100
AcDbEntity
  8
0
 62
     0
100
AcDbLine
 10
12.09277661450788
 20
9.120426821088543
 30
0.0
 11
12.05277661450788
 21
9.16042682108854
 31
0.0
  0
LINE
  5
253E
330
250E
100
AcDbEntity
  8
0
 62
     0
100
AcDbLine
 10
12.13697078833203
 20
9.120426821088543
 30
0.0
 11
12.09697078833204
 21
9.16042682108854
 31
0.0
  0
LINE
  5
253F
330
250E
100
AcDbEntity
  8
0
 62
     0
100
AcDbLine
 10
12.1811649621562
 20
9.120426821088543
 30
0.0
 11
12.1411649621562
 21
9.16042682108854
 31
0.0
  0
LINE
  5
2540
330
250E
100
AcDbEntity
  8
0
 62
     0
100
AcDbLine
 10
12.22535913598036
 20
9.120426821088543
 30
0.0
 11
12.18535913598036
 21
9.16042682108854
 31
0.0
  0
LINE
  5
2541
330
250E
100
AcDbEntity
  8
0
 62
     0
100
AcDbLine
 10
12.26955330980451
 20
9.120426821088543
 30
0.0
 11
12.22955330980451
 21
9.16042682108854
 31
0.0
  0
LINE
  5
2542
330
250E
100
AcDbEntity
  8
0
 62
     0
100
AcDbLine
 10
12.31374748362867
 20
9.120426821088543
 30
0.0
 11
12.27374748362868
 21
9.16042682108854
 31
0.0
  0
LINE
  5
2543
330
250E
100
AcDbEntity
  8
0
 62
     0
100
AcDbLine
 10
12.35794165745283
 20
9.120426821088543
 30
0.0
 11
12.31794165745283
 21
9.16042682108854
 31
0.0
  0
LINE
  5
2544
330
250E
100
AcDbEntity
  8
0
 62
     0
100
AcDbLine
 10
12.40213583127699
 20
9.120426821088543
 30
0.0
 11
12.36213583127699
 21
9.16042682108854
 31
0.0
  0
LINE
  5
2545
330
250E
100
AcDbEntity
  8
0
 62
     0
100
AcDbLine
 10
12.44633000510115
 20
9.120426821088543
 30
0.0
 11
12.40633000510115
 21
9.16042682108854
 31
0.0
  0
LINE
  5
2546
330
250E
100
AcDbEntity
  8
0
 62
     0
100
AcDbLine
 10
12.49052417892531
 20
9.120426821088543
 30
0.0
 11
12.45052417892531
 21
9.16042682108854
 31
0.0
  0
LINE
  5
2547
330
250E
100
AcDbEntity
  8
0
 62
     0
100
AcDbLine
 10
12.53471835274947
 20
9.120426821088543
 30
0.0
 11
12.49471835274947
 21
9.16042682108854
 31
0.0
  0
LINE
  5
2548
330
250E
100
AcDbEntity
  8
0
 62
     0
100
AcDbLine
 10
12.57891252657363
 20
9.120426821088543
 30
0.0
 11
12.53891252657363
 21
9.16042682108854
 31
0.0
  0
LINE
  5
2549
330
250E
100
AcDbEntity
  8
0
 62
     0
100
AcDbLine
 10
12.62310670039779
 20
9.120426821088543
 30
0.0
 11
12.58310670039779
 21
9.16042682108854
 31
0.0
  0
LINE
  5
254A
330
250E
100
AcDbEntity
  8
0
 62
     0
100
AcDbLine
 10
12.66730087422195
 20
9.120426821088543
 30
0.0
 11
12.62730087422195
 21
9.16042682108854
 31
0.0
  0
LINE
  5
254B
330
250E
100
AcDbEntity
  8
0
 62
     0
100
AcDbLine
 10
12.68399674713724
 20
9.147925121997415
 30
0.0
 11
12.67149504804611
 21
9.16042682108854
 31
0.0
  0
ENDBLK
  5
254C
330
250E
100
AcDbEntity
  8
0
100
AcDbBlockEnd
  0
BLOCK
  5
290E
330
2902
100
AcDbEntity
  8
0
100
AcDbBlockBegin
  2
SOLBET_Plytka_80x240x590_brak_PRA
 70
     2
 10
0.0
 20
0.0
 30
0.0
  3
SOLBET_Plytka_80x240x590_brak_PRA
  1

  0
ATTDEF
  5
2903
330
2902
100
AcDbEntity
  8
SOLBET_Wymiary_Opisy
100
AcDbText
 10
0.0000000947117284
 20
4.975188798271157
 30
0.0
 40
1.029483505648801
  1
80x240x590
  7
Solbet_1
100
AcDbAttributeDefinition
  3

  2
WYMIARY
 70
     3
1001
AcDbAttr
1070
     0
1070
     1
  0
ATTDEF
  5
2904
330
2902
100
AcDbEntity
  8
SOLBET_Wymiary_Opisy
100
AcDbText
 10
0.0000000947117284
 20
3.40442846021831
 30
0.0
 40
1.029483505648801
  1
600
  7
Solbet_1
100
AcDbAttributeDefinition
  3

  2
KLASA_GĘSTOŚCI
 70
     3
1001
AcDbAttr
1070
     0
1070
     1
  0
ATTDEF
  5
2905
330
2902
100
AcDbEntity
  8
SOLBET_Wymiary_Opisy
100
AcDbText
 10
0.0000000947117284
 20
0.2542933553923256
 30
0.0
 40
1.029483505648801
  1
SOLBET
  7
Solbet_1
100
AcDbAttributeDefinition
  3

  2
FIRMA
 70
     3
1001
AcDbAttr
1070
     0
1070
     1
  0
ATTDEF
  5
2906
330
2902
100
AcDbEntity
  8
SOLBET_Wymiary_Opisy
100
AcDbText
 10
-0.0000001564046322
 20
6.512920961642439
 30
0.0
 40
1.029483505648801
  1
Płytka
  7
Solbet_1
100
AcDbAttributeDefinition
  3
Nazwa
  2
NAZWA
 70
     3
1001
AcDbAttr
1070
     0
1070
     1
  0
ATTDEF
  5
2907
330
2902
100
AcDbEntity
  8
SOLBET_Wymiary_Opisy
100
AcDbText
 10
0.0000000947117284
 20
1.811342665324326
 30
0.0
 40
1.029483505648801
  1
Prawo
  7
Solbet_1
100
AcDbAttributeDefinition
  3

  2
WIDOK
 70
    11
1001
AcDbAttr
1070
     0
1070
     1
  0
LINE
  5
2908
330
2902
100
AcDbEntity
  8
SOLBET_Bloczki
100
AcDbLine
 10
3.999999830192336
 20
12.00000020463494
 30
0.0
 11
3.999999830192336
 21
0.0000002046349437
 31
0.0
  0
LINE
  5
2909
330
2902
100
AcDbEntity
  8
SOLBET_Bloczki
100
AcDbLine
 10
3.999999830192336
 20
0.0000002046349437
 30
0.0
 11
-0.000000169807663
 21
0.0000002046349437
 31
0.0
  0
LINE
  5
290A
330
2902
100
AcDbEntity
  8
SOLBET_Bloczki
100
AcDbLine
 10
-0.000000169807663
 20
0.0000002046349437
 30
0.0
 11
-0.000000169807663
 21
12.00000020463517
 31
0.0
  0
LINE
  5
290B
330
2902
100
AcDbEntity
  8
SOLBET_Bloczki
100
AcDbLine
 10
-0.000000169807663
 20
12.00000020463517
 30
0.0
 11
3.999999830192336
 21
12.00000020463517
 31
0.0
  0
ENDBLK
  5
290F
330
2902
100
AcDbEntity
  8
0
100
AcDbBlockEnd
  0
BLOCK
  5
2D4A
330
2D3C
100
AcDbEntity
  8
0
100
AcDbBlockBegin
  2
SOLBET_Ksztaltka_U_420x240x500_GOR
 70
     2
 10
0.0
 20
0.0
 30
0.0
  3
SOLBET_Ksztaltka_U_420x240x500_GOR
  1

  0
ATTDEF
  5
2DD7
330
2D3C
100
AcDbEntity
  8
SOLBET_Wymiary_Opisy
100
AcDbText
 10
-0.0000000476806008
 20
4.790718044940628
 30
0.0
 40
0.9913121336814832
  1
420x240x500
  7
Solbet_1
100
AcDbAttributeDefinition
  3

  2
WYMIARY
 70
     3
1001
AcDbAttr
1070
     0
1070
     1
  0
ATTDEF
  5
2DD8
330
2D3C
100
AcDbEntity
  8
SOLBET_Wymiary_Opisy
100
AcDbText
 10
-0.0000000476806008
 20
3.27819863722453
 30
0.0
 40
0.9913121336814832
  1
400
  7
Solbet_1
100
AcDbAttributeDefinition
  3

  2
KLASA_GĘSTOŚCI
 70
     3
1001
AcDbAttr
1070
     0
1070
     1
  0
ATTDEF
  5
2DD9
330
2D3C
100
AcDbEntity
  8
SOLBET_Wymiary_Opisy
100
AcDbText
 10
-0.0000000476806008
 20
0.2448648003876223
 30
0.0
 40
0.9913121336814832
  1
SOLBET
  7
Solbet_1
100
AcDbAttributeDefinition
  3

  2
FIRMA
 70
     3
1001
AcDbAttr
1070
     0
1070
     1
  0
ATTDEF
  5
2DDA
330
2D3C
100
AcDbEntity
  8
SOLBET_Wymiary_Opisy
100
AcDbText
 10
-0.0000000476806008
 20
6.347422594011662
 30
0.0
 40
0.9913121336814832
  1
Kształtka U
  7
Solbet_1
100
AcDbAttributeDefinition
  3
Nazwa
  2
NAZWA
 70
     3
1001
AcDbAttr
1070
     0
1070
     1
  0
ATTDEF
  5
2DDB
330
2D3C
100
AcDbEntity
  8
SOLBET_Wymiary_Opisy
100
AcDbText
 10
-0.0000000476806008
 20
1.744181559914735
 30
0.0
 40
0.9913121336814832
  1
Góra
  7
Solbet_1
100
AcDbAttributeDefinition
  3

  2
WIDOK
 70
    11
1001
AcDbAttr
1070
     0
1070
     1
  0
LINE
  5
2DDC
330
2D3C
100
AcDbEntity
  8
SOLBET_Bloczki
100
AcDbLine
 10
0.0000011383863239
 20
-0.0000001243429309
 30
0.0
 11
25.00000113838633
 21
-0.0000001243429324
 31
0.0
  0
LINE
  5
2DDD
330
2D3C
100
AcDbEntity
  8
SOLBET_Bloczki
100
AcDbLine
 10
25.00000113838633
 20
-0.0000001243429324
 30
0.0
 11
25.0000011383861
 21
20.9999998756573
 31
0.0
  0
LINE
  5
2DDE
330
2D3C
100
AcDbEntity
  8
SOLBET_Bloczki
100
AcDbLine
 10
25.0000011383861
 20
20.9999998756573
 30
0.0
 11
0.0000011383863239
 21
20.9999998756573
 31
0.0
  0
LINE
  5
2DDF
330
2D3C
100
AcDbEntity
  8
SOLBET_Bloczki
100
AcDbLine
 10
0.0000011383863239
 20
20.9999998756573
 30
0.0
 11
0.0000011383863239
 21
-0.0000001243429309
 31
0.0
  0
LINE
  5
2DE0
330
2D3C
100
AcDbEntity
  8
SOLBET_Bloczki
100
AcDbLine
 10
0.0000011383863239
 20
3.999999875657069
 30
0.0
 11
25.00000113838633
 21
3.999999875657294
 31
0.0
  0
LINE
  5
2DE1
330
2D3C
100
AcDbEntity
  8
SOLBET_Bloczki
100
AcDbLine
 10
0.0000011383863239
 20
16.99999987565707
 30
0.0
 11
25.0000011383861
 21
16.99999987565729
 31
0.0
  0
ENDBLK
  5
2D4B
330
2D3C
100
AcDbEntity
  8
0
100
AcDbBlockEnd
  0
BLOCK
  5
2E60
330
2E50
100
AcDbEntity
  8
0
100
AcDbBlockBegin
  2
SOLBET_Ksztaltka_U_420x240x500_PRA
 70
     2
 10
0.0
 20
0.0
 30
0.0
  3
SOLBET_Ksztaltka_U_420x240x500_PRA
  1

  0
ATTDEF
  5
2E51
330
2E50
100
AcDbEntity
  8
SOLBET_Wymiary_Opisy
100
AcDbText
 10
-0.0000000476806008
 20
4.790718044940628
 30
0.0
 40
0.9913121336814832
  1
420x240x500
  7
Solbet_1
100
AcDbAttributeDefinition
  3

  2
WYMIARY
 70
     3
1001
AcDbAttr
1070
     0
1070
     1
  0
ATTDEF
  5
2E52
330
2E50
100
AcDbEntity
  8
SOLBET_Wymiary_Opisy
100
AcDbText
 10
-0.0000000476806008
 20
3.27819863722453
 30
0.0
 40
0.9913121336814832
  1
400
  7
Solbet_1
100
AcDbAttributeDefinition
  3

  2
KLASA_GĘSTOŚCI
 70
     3
1001
AcDbAttr
1070
     0
1070
     1
  0
ATTDEF
  5
2E53
330
2E50
100
AcDbEntity
  8
SOLBET_Wymiary_Opisy
100
AcDbText
 10
-0.0000000476806008
 20
0.2448648003876223
 30
0.0
 40
0.9913121336814832
  1
SOLBET
  7
Solbet_1
100
AcDbAttributeDefinition
  3

  2
FIRMA
 70
     3
1001
AcDbAttr
1070
     0
1070
     1
  0
ATTDEF
  5
2E54
330
2E50
100
AcDbEntity
  8
SOLBET_Wymiary_Opisy
100
AcDbText
 10
-0.0000000476806008
 20
6.347422594011662
 30
0.0
 40
0.9913121336814832
  1
Kształtka U
  7
Solbet_1
100
AcDbAttributeDefinition
  3
Nazwa
  2
NAZWA
 70
     3
1001
AcDbAttr
1070
     0
1070
     1
  0
ATTDEF
  5
2E55
330
2E50
100
AcDbEntity
  8
SOLBET_Wymiary_Opisy
100
AcDbText
 10
-0.0000000476806008
 20
1.744181559914735
 30
0.0
 40
0.9913121336814832
  1
Prawo
  7
Solbet_1
100
AcDbAttributeDefinition
  3

  2
WIDOK
 70
    11
1001
AcDbAttr
1070
     0
1070
     1
  0
LINE
  5
2E56
330
2E50
100
AcDbEntity
  8
SOLBET_Bloczki
100
AcDbLine
 10
0.0000011705760737
 20
20.99999992050084
 30
0.0
 11
12.00000117057607
 21
20.99999992050084
 31
0.0
  0
LINE
  5
2E57
330
2E50
100
AcDbEntity
  8
SOLBET_Bloczki
100
AcDbLine
 10
12.00000117057607
 20
20.99999992050084
 30
0.0
 11
12.00000117057607
 21
-0.0000000794991628
 31
0.0
  0
LINE
  5
2E58
330
2E50
100
AcDbEntity
  8
SOLBET_Bloczki
100
AcDbLine
 10
12.00000117057607
 20
-0.0000000794991628
 30
0.0
 11
0.0000011705760699
 21
-0.0000000794991593
 31
0.0
  0
LINE
  5
2E59
330
2E50
100
AcDbEntity
  8
SOLBET_Bloczki
100
AcDbLine
 10
0.0000011705760699
 20
-0.0000000794991593
 30
0.0
 11
0.0000011705760706
 21
3.99999992050084
 31
0.0
  0
LINE
  5
2E5A
330
2E50
100
AcDbEntity
  8
SOLBET_Bloczki
100
AcDbLine
 10
0.0000011705760737
 20
20.99999992050084
 30
0.0
 11
0.000001170576073
 21
16.99999992050084
 31
0.0
  0
LINE
  5
2E5B
330
2E50
100
AcDbEntity
  8
SOLBET_Bloczki
100
AcDbLine
 10
8.000001170576073
 20
16.99999992050084
 30
0.0
 11
8.000001170576069
 21
3.99999992050084
 31
0.0
  0
LINE
  5
2E5C
330
2E50
100
AcDbEntity
  8
SOLBET_Bloczki
100
AcDbLine
 10
0.000001170576073
 20
16.99999992050084
 30
0.0
 11
8.000001170576073
 21
16.99999992050084
 31
0.0
  0
LINE
  5
2E5D
330
2E50
100
AcDbEntity
  8
SOLBET_Bloczki
100
AcDbLine
 10
0.0000011705760706
 20
3.99999992050084
 30
0.0
 11
8.000001170576069
 21
3.99999992050084
 31
0.0
  0
ENDBLK
  5
2E61
330
2E50
100
AcDbEntity
  8
0
100
AcDbBlockEnd
  0
BLOCK
  5
32FF
330
32F1
100
AcDbEntity
  8
0
100
AcDbBlockBegin
  2
SOLBET_Ksztaltka_U_420x240x500_KG400_GOR
 70
     2
 10
0.0
 20
0.0
 30
0.0
  3
SOLBET_Ksztaltka_U_420x240x500_KG400_GOR
  1

  0
ATTDEF
  5
32F2
330
32F1
100
AcDbEntity
  8
SOLBET_Wymiary_Opisy
100
AcDbText
 10
-0.0000000476806008
 20
4.790718044940628
 30
0.0
 40
0.9913121336814832
  1
420x240x500
  7
Solbet_1
100
AcDbAttributeDefinition
  3

  2
WYMIARY
 70
    11
1001
AcDbAttr
1070
     0
1070
     1
  0
ATTDEF
  5
32F3
330
32F1
100
AcDbEntity
  8
SOLBET_Wymiary_Opisy
100
AcDbText
 10
-0.0000000476806008
 20
3.27819863722453
 30
0.0
 40
0.9913121336814832
  1
400
  7
Solbet_1
100
AcDbAttributeDefinition
  3

  2
KLASA_GĘSTOŚCI
 70
    11
1001
AcDbAttr
1070
     0
1070
     1
  0
ATTDEF
  5
32F4
330
32F1
100
AcDbEntity
  8
SOLBET_Wymiary_Opisy
100
AcDbText
 10
-0.0000000476806008
 20
0.2448648003876223
 30
0.0
 40
0.9913121336814832
  1
SOLBET
  7
Solbet_1
100
AcDbAttributeDefinition
  3

  2
FIRMA
 70
    11
1001
AcDbAttr
1070
     0
1070
     1
  0
ATTDEF
  5
32F5
330
32F1
100
AcDbEntity
  8
SOLBET_Wymiary_Opisy
100
AcDbText
 10
-0.0000000476806008
 20
6.347422594011662
 30
0.0
 40
0.9913121336814832
  1
Kształtka U
  7
Solbet_1
100
AcDbAttributeDefinition
  3
Nazwa
  2
NAZWA
 70
    11
1001
AcDbAttr
1070
     0
1070
     1
  0
ATTDEF
  5
32F6
330
32F1
100
AcDbEntity
  8
SOLBET_Wymiary_Opisy
100
AcDbText
 10
-0.0000000476806008
 20
1.744181559914735
 30
0.0
 40
0.9913121336814832
  1
Góra
  7
Solbet_1
100
AcDbAttributeDefinition
  3

  2
WIDOK
 70
    11
1001
AcDbAttr
1070
     0
1070
     1
  0
LINE
  5
32F7
330
32F1
100
AcDbEntity
  8
SOLBET_Bloczki
100
AcDbLine
 10
0.0000011383863239
 20
-0.0000001243429309
 30
0.0
 11
25.00000113838633
 21
-0.0000001243429324
 31
0.0
  0
LINE
  5
32F8
330
32F1
100
AcDbEntity
  8
SOLBET_Bloczki
100
AcDbLine
 10
25.00000113838633
 20
-0.0000001243429324
 30
0.0
 11
25.0000011383861
 21
20.9999998756573
 31
0.0
  0
LINE
  5
32F9
330
32F1
100
AcDbEntity
  8
SOLBET_Bloczki
100
AcDbLine
 10
25.0000011383861
 20
20.9999998756573
 30
0.0
 11
0.0000011383863239
 21
20.9999998756573
 31
0.0
  0
LINE
  5
32FA
330
32F1
100
AcDbEntity
  8
SOLBET_Bloczki
100
AcDbLine
 10
0.0000011383863239
 20
20.9999998756573
 30
0.0
 11
0.0000011383863239
 21
-0.0000001243429309
 31
0.0
  0
LINE
  5
32FB
330
32F1
100
AcDbEntity
  8
SOLBET_Bloczki
100
AcDbLine
 10
0.0000011383863239
 20
3.999999875657069
 30
0.0
 11
25.00000113838633
 21
3.999999875657294
 31
0.0
  0
LINE
  5
32FC
330
32F1
100
AcDbEntity
  8
SOLBET_Bloczki
100
AcDbLine
 10
0.0000011383863239
 20
16.99999987565707
 30
0.0
 11
25.0000011383861
 21
16.99999987565729
 31
0.0
  0
ENDBLK
  5
3300
330
32F1
100
AcDbEntity
  8
0
100
AcDbBlockEnd
  0
ENDSEC
  0
SECTION
  2
ENTITIES
  0
LWPOLYLINE
  5
2C4C
330
1F
100
AcDbEntity
  8
SOLBET_Bloczki
100
AcDbPolyline
 90
        4
 70
     1
 43
0.0
 10
82.8681010774132
 20
106.9503791304777
 10
86.86810107741321
 20
106.9503791304777
 10
86.86810107741321
 20
118.9503791304777
 10
82.8681010774132
 20
118.9503791304777
  0
LINE
  5
2C4D
330
1F
100
AcDbEntity
  8
SOLBET_Zbrojenie_Konstrukcja
100
AcDbLine
 10
161.3681010774095
 20
115.4503791304778
 30
0.0
 11
164.3670225533147
 21
109.8274013631554
 31
0.0
  0
LINE
  5
2C4E
330
1F
100
AcDbEntity
  8
SOLBET_Zbrojenie_Konstrukcja
100
AcDbLine
 10
157.9014344107427
 20
108.9503791304776
 30
0.0
 11
161.3681010774095
 21
115.4503791304778
 31
0.0
  0
LINE
  5
2C4F
330
1F
100
AcDbEntity
  8
SOLBET_Zbrojenie_Konstrukcja
100
AcDbLine
 10
133.9014344107427
 20
108.9503791304776
 30
0.0
 11
137.3681010774095
 21
115.4503791304778
 31
0.0
  0
LINE
  5
2C50
330
1F
100
AcDbEntity
  8
SOLBET_Zbrojenie_Konstrukcja
100
AcDbLine
 10
141.9014344107427
 20
108.9503791304776
 30
0.0
 11
145.3681010774094
 21
115.4503791304778
 31
0.0
  0
LINE
  5
2C51
330
1F
100
AcDbEntity
  8
SOLBET_Zbrojenie_Konstrukcja
100
AcDbLine
 10
149.9014344107427
 20
108.9503791304776
 30
0.0
 11
153.3681010774094
 21
115.4503791304778
 31
0.0
  0
LINE
  5
2C52
330
1F
100
AcDbEntity
  8
SOLBET_Zbrojenie_Konstrukcja
100
AcDbLine
 10
125.9014344107427
 20
108.9503791304776
 30
0.0
 11
129.3681010774095
 21
115.4503791304778
 31
0.0
  0
LINE
  5
2C53
330
1F
100
AcDbEntity
  8
SOLBET_Zbrojenie_Konstrukcja
100
AcDbLine
 10
117.9014344107427
 20
108.9503791304776
 30
0.0
 11
121.3681010774095
 21
115.4503791304778
 31
0.0
  0
LINE
  5
2C54
330
1F
100
AcDbEntity
  8
SOLBET_Zbrojenie_Konstrukcja
100
AcDbLine
 10
109.9014344107427
 20
108.9503791304776
 30
0.0
 11
113.3681010774095
 21
115.4503791304778
 31
0.0
  0
LINE
  5
2C55
330
1F
100
AcDbEntity
  8
SOLBET_Zbrojenie_Konstrukcja
100
AcDbLine
 10
101.9014344107428
 20
108.9503791304776
 30
0.0
 11
105.3681010774095
 21
115.4503791304778
 31
0.0
  0
LINE
  5
2C56
330
1F
100
AcDbEntity
  8
SOLBET_Zbrojenie_Konstrukcja
100
AcDbLine
 10
105.3681010774095
 20
115.4503791304778
 30
0.0
 11
108.8347677440761
 21
108.9503791304776
 31
0.0
  0
LINE
  5
2C57
330
1F
100
AcDbEntity
  8
SOLBET_Zbrojenie_Konstrukcja
100
AcDbLine
 10
113.3681010774095
 20
115.4503791304778
 30
0.0
 11
116.8347677440762
 21
108.9503791304776
 31
0.0
  0
LINE
  5
2C58
330
1F
100
AcDbEntity
  8
SOLBET_Zbrojenie_Konstrukcja
100
AcDbLine
 10
121.3681010774095
 20
115.4503791304778
 30
0.0
 11
124.8347677440764
 21
108.9503791304776
 31
0.0
  0
LINE
  5
2C59
330
1F
100
AcDbEntity
  8
SOLBET_Zbrojenie_Konstrukcja
100
AcDbLine
 10
129.3681010774095
 20
115.4503791304778
 30
0.0
 11
132.8347677440763
 21
108.9503791304776
 31
0.0
  0
LINE
  5
2C5A
330
1F
100
AcDbEntity
  8
SOLBET_Zbrojenie_Konstrukcja
  6
Continuous
100
AcDbLine
 10
164.3670225533147
 20
115.4503791304779
 30
0.0
 11
99.86810107740957
 21
115.4503791304776
 31
0.0
  0
LINE
  5
2C5B
330
1F
100
AcDbEntity
  8
SOLBET_Zbrojenie_Konstrukcja
100
AcDbLine
 10
153.3681010774094
 20
115.4503791304778
 30
0.0
 11
156.8347677440762
 21
108.9503791304776
 31
0.0
  0
LINE
  5
2C5C
330
1F
100
AcDbEntity
  8
SOLBET_Zbrojenie_Konstrukcja
100
AcDbLine
 10
145.3681010774094
 20
115.4503791304778
 30
0.0
 11
148.8347677440762
 21
108.9503791304776
 31
0.0
  0
LINE
  5
2C5D
330
1F
100
AcDbEntity
  8
SOLBET_Zbrojenie_Konstrukcja
100
AcDbLine
 10
137.3681010774095
 20
115.4503791304778
 30
0.0
 11
140.8347677440762
 21
108.9503791304776
 31
0.0
  0
LWPOLYLINE
  5
2C5E
330
1F
100
AcDbEntity
  8
SOLBET_Beton
100
AcDbPolyline
 90
        5
 70
     1
 43
0.0
 10
99.86810107740957
 20
106.9503791304777
 10
103.8681010774094
 20
106.9503791304777
 10
164.3670225533147
 20
106.9503791304777
 10
164.3670225533147
 20
108.9503791304776
 10
99.86810107740957
 20
108.9503791304776
1001
ASO_SCHRAFF
1005
0
1070
     1
1002
{
1070
     1
1005
0
1002
}
1002
{
1070
     2
1005
0
1002
}
1002
{
1070
     4
1000
NET
1040
0.1
1040
45.0
1070
     0
1000
T__SCHR
1070
   256
1000
VONLAYER
1040
50.0
1070
     1
1002
}
  0
INSERT
  5
2C5F
330
1F
100
AcDbEntity
  8
SOLBET_Beton
100
AcDbBlockReference
  2
*X3
 10
-469.832814803547
 20
-349.0709619239494
 30
0.0
 41
50.0
 42
50.0
 43
50.0
1001
ASO_SCHRAFF
1005
0
1070
     0
1005
0
1001
ACAD
1000
HATCH
1002
{
1070
    16
1000
NET
1040
0.25
1040
0.7853981633974483
1002
}
  0
LINE
  5
2C60
330
1F
100
AcDbEntity
  8
SOLBET_Wymiary_Opisy
 62
     1
100
AcDbLine
 10
164.3670225533175
 20
229.1303820765814
 30
0.0
 11
164.3670225533175
 21
97.89268347988253
 31
0.0
  0
LWPOLYLINE
  5
2C61
330
1F
100
AcDbEntity
  8
SOLBET_Zbrojenie_Konstrukcja
  6
Continuous
100
AcDbPolyline
 90
        2
 70
     1
 43
0.3
 10
90.90850133060365
 20
116.8329903547304
 42
1.0
 10
91.20850133060656
 20
116.8329903547304
 42
1.0
  0
LWPOLYLINE
  5
2C62
330
1F
100
AcDbEntity
  8
SOLBET_Zbrojenie_Konstrukcja
  6
Continuous
100
AcDbPolyline
 90
        2
 70
     1
 43
0.3
 10
98.30314529382002
 20
116.8113706796492
 42
1.0
 10
98.6031452938193
 20
116.8113706796492
 42
1.0
  0
LWPOLYLINE
  5
2C63
330
1F
100
AcDbEntity
  8
SOLBET_Zbrojenie_Konstrukcja
  6
Continuous
100
AcDbPolyline
 90
        2
 70
     1
 43
0.3
 10
98.30314529382002
 20
108.0166005307973
 42
1.0
 10
98.6031452938193
 20
108.0166005307973
 42
1.0
  0
LWPOLYLINE
  5
2C64
330
1F
100
AcDbEntity
  8
SOLBET_Zbrojenie_Konstrukcja
  6
Continuous
100
AcDbPolyline
 90
        2
 70
     1
 43
0.3
 10
90.90850133060365
 20
108.0166005307973
 42
1.0
 10
91.20850133060656
 20
108.0166005307973
 42
1.0
  0
LINE
  5
2C65
330
1F
100
AcDbEntity
  8
SOLBET_Zbrojenie_Konstrukcja
  6
Continuous
100
AcDbLine
 10
93.35342140186975
 20
115.7440238418952
 30
0.0
 11
91.93920783949641
 21
117.1582374042681
 31
0.0
  0
LINE
  5
2C66
330
1F
100
AcDbEntity
  8
SOLBET_Zbrojenie_Konstrukcja
  6
Continuous
100
AcDbLine
 10
92.15342140186903
 20
114.5440238418954
 30
0.0
 11
90.73920783949569
 21
115.9582374042683
 31
0.0
  0
LWPOLYLINE
  5
2C67
330
1F
100
AcDbEntity
  8
SOLBET_Zbrojenie_Konstrukcja
  6
Continuous
100
AcDbPolyline
 90
        5
 70
     0
 43
0.0
 10
98.74483913360444
 20
107.7003791304772
 10
98.74483913360444
 20
117.1582374042681
 10
90.73920783949569
 20
117.1582374042681
 10
90.73920783949569
 20
107.7003791304772
 10
98.74483913360444
 20
107.7003791304772
  0
ARC
  5
2C68
330
1F
100
AcDbEntity
  8
SOLBET_Tynki_Posadzki
100
AcDbCircle
 10
104.3681010774095
 20
124.8236859640327
 30
0.0
 40
1.5000521396288
100
AcDbArc
 50
0.0
 51
90.0
  0
LINE
  5
2C69
330
1F
100
AcDbEntity
  8
SOLBET_Tynki_Posadzki
100
AcDbLine
 10
105.1661672686029
 20
124.8236859640327
 30
0.0
 11
164.3670225533175
 21
124.8236859640327
 31
0.0
  0
LINE
  5
2C6A
330
1F
100
AcDbEntity
  8
SOLBET_Tynki_Posadzki
100
AcDbLine
 10
104.3681010774132
 20
124.3236859640327
 30
0.0
 11
104.3681010774132
 21
166.9503791304777
 31
0.0
  0
LINE
  5
2C6B
330
1F
100
AcDbEntity
  8
SOLBET_Emulsje_Folie
100
AcDbLine
 10
104.9829171270764
 20
124.5736859640327
 30
0.0
 11
104.9829171270764
 21
121.8962184440496
 31
0.0
  0
LINE
  5
2C6C
330
1F
100
AcDbEntity
  8
SOLBET_Emulsje_Folie
100
AcDbLine
 10
105.2329171270764
 20
121.6462184440496
 30
0.0
 11
164.3670225533175
 21
121.6462184440496
 31
0.0
  0
ARC
  5
2C6D
330
1F
100
AcDbEntity
  8
SOLBET_Emulsje_Folie
100
AcDbCircle
 10
105.2329171270764
 20
121.8962184440496
 30
0.0
 40
0.25
100
AcDbArc
 50
180.0
 51
270.0
  0
LWPOLYLINE
  5
2C6E
330
1F
100
AcDbEntity
  8
SOLBET_Tynki_Posadzki
100
AcDbPolyline
 90
        5
 70
     1
 43
0.0
 10
104.9829171270764
 20
121.8962184440496
 42
0.0737237824442244
 10
104.9936703102946
 20
121.8236859640327
 10
164.3670225533175
 20
121.8236859640327
 10
164.3670225533175
 20
124.3236859640327
 10
104.9829171270764
 20
124.3236859640327
1001
ASO_SCHRAFF
1005
0
1070
     1
1002
{
1070
     1
1005
0
1002
}
1002
{
1070
     2
1005
0
1002
}
1002
{
1070
     4
1000
AR-CONC
1040
0.01
1040
0.0
1070
     0
1000
T__SCHR
1070
   256
1000
_bylayer
1040
50.0
1070
     1
1002
}
  0
INSERT
  5
2C6F
330
1F
100
AcDbEntity
  8
SOLBET_Tynki_Posadzki
100
AcDbBlockReference
  2
*X2
 10
-469.8328148035464
 20
-349.5450088682397
 30
0.0
 41
50.0
 42
50.0
 43
50.0
1001
ASO_SCHRAFF
1005
0
1070
     0
1005
0
1001
ACAD
1000
HATCH
1002
{
1070
    16
1000
AR-CONC
1040
0.025
1040
0.0
1002
}
  0
LWPOLYLINE
  5
2C70
330
1F
100
AcDbEntity
  8
SOLBET_Beton
100
AcDbPolyline
 90
        6
 70
     1
 43
0.0
 10
89.8681010774132
 20
118.9503791599003
 10
89.8681010774132
 20
106.9503791451888
 10
99.86810107740957
 20
106.9503791451888
 10
99.86810107740957
 20
108.9503791451887
 10
164.3670225533175
 20
108.9503791451887
 10
164.3670225654757
 20
118.9503791451888
  0
LINE
  5
2C71
330
1F
100
AcDbEntity
  8
SOLBET_Tynki_Posadzki
100
AcDbLine
 10
104.3681010774132
 20
106.4503791304777
 30
0.0
 11
104.3681010774132
 21
97.89268347988253
 31
0.0
  0
LINE
  5
2C72
330
1F
100
AcDbEntity
  8
SOLBET_Tynki_Posadzki
100
AcDbLine
 10
104.3681010774132
 20
106.4503791304777
 30
0.0
 11
164.3670225533175
 21
106.4503791304777
 31
0.0
  0
LINE
  5
2C73
330
1F
100
AcDbEntity
  8
SOLBET_Tynki_Posadzki
100
AcDbLine
 10
104.3681010774132
 20
106.4503791304777
 30
0.0
 11
103.8700942449365
 21
106.9503791304777
 31
0.0
  0
LINE
  5
2C74
330
1F
100
AcDbEntity
  8
SOLBET_Beton
100
AcDbLine
 10
114.6037732906813
 20
112.4503791304777
 30
0.0
 11
126.6037732906813
 21
112.4503791304777
 31
0.0
  0
LWPOLYLINE
  5
2C75
330
1F
100
AcDbEntity
  8
SOLBET_Beton
100
AcDbPolyline
 90
        4
 70
     1
 43
0.0
 10
114.6037732906813
 20
108.9503791304777
 10
126.6037732906813
 20
108.9503791304777
 10
126.6037732906813
 20
117.4503791304776
 10
114.6037732906813
 20
117.4503791304776
  0
LINE
  5
2C76
330
1F
100
AcDbEntity
  8
SOLBET_Beton
100
AcDbLine
 10
138.6037732906813
 20
112.4503791304777
 30
0.0
 11
150.6037732906813
 21
112.4503791304777
 31
0.0
  0
LWPOLYLINE
  5
2C77
330
1F
100
AcDbEntity
  8
SOLBET_Beton
100
AcDbPolyline
 90
        4
 70
     1
 43
0.0
 10
138.6037732906813
 20
108.9503791304777
 10
150.6037732906813
 20
108.9503791304777
 10
150.6037732906813
 20
117.4503791304776
 10
138.6037732906813
 20
117.4503791304776
  0
LINE
  5
2C78
330
1F
100
AcDbEntity
  8
SOLBET_Beton
100
AcDbLine
 10
126.6037732906813
 20
112.4503791304777
 30
0.0
 11
138.6037732906813
 21
112.4503791304777
 31
0.0
  0
LWPOLYLINE
  5
2C79
330
1F
100
AcDbEntity
  8
SOLBET_Beton
100
AcDbPolyline
 90
        4
 70
     1
 43
0.0
 10
126.6037732906813
 20
108.9503791304777
 10
138.6037732906813
 20
108.9503791304777
 10
138.6037732906813
 20
117.4503791304776
 10
126.6037732906813
 20
117.4503791304776
  0
LINE
  5
2C7A
330
1F
100
AcDbEntity
  8
SOLBET_Beton
100
AcDbLine
 10
150.6037732906813
 20
112.4503791304777
 30
0.0
 11
164.3670225533175
 21
112.4503791304777
 31
0.0
  0
LWPOLYLINE
  5
2C7B
330
1F
100
AcDbEntity
  8
SOLBET_Beton
100
AcDbPolyline
 90
        4
 70
     1
 43
0.0
 10
150.6037732906813
 20
108.9503791304777
 10
162.6037732906813
 20
108.9503791304777
 10
162.6037732906813
 20
117.4503791304776
 10
150.6037732906813
 20
117.4503791304776
  0
LINE
  5
2C7C
330
1F
100
AcDbEntity
  8
SOLBET_Beton
100
AcDbLine
 10
102.6037732906777
 20
112.4503791304777
 30
0.0
 11
114.6037732906777
 21
112.4503791304777
 31
0.0
  0
LWPOLYLINE
  5
2C7D
330
1F
100
AcDbEntity
  8
SOLBET_Beton
100
AcDbPolyline
 90
        4
 70
     1
 43
0.0
 10
102.6037732906777
 20
108.9503791304777
 10
114.6037732906777
 20
108.9503791304777
 10
114.6037732906777
 20
117.4503791304776
 10
102.6037732906777
 20
117.4503791304776
  0
LWPOLYLINE
  5
2C7F
330
1F
100
AcDbEntity
  8
SOLBET_Beton
100
AcDbPolyline
 90
        3
 70
     0
 43
0.0
 10
164.3690157208445
 20
117.4503791304777
 10
162.6037732906777
 20
117.4503791304777
 10
162.6037732906777
 20
108.9503791304777
  0
LWPOLYLINE
  5
2C80
330
1F
100
AcDbEntity
  8
SOLBET_Zbrojenie_Konstrukcja
100
AcDbPolyline
 90
       16
 70
     1
 43
0.0
 10
99.41619812603205
 20
119.0865612445922
 42
0.0327594189470737
 10
99.49433402881442
 20
119.0916861180493
 42
0.0442669587490688
 10
99.55094225445174
 20
119.1043131387217
 42
0.0869419154566485
 10
99.59765900033637
 20
119.1287170285267
 42
0.2330776669510323
 10
99.60675509989489
 20
119.147170002287
 42
0.2330776669455295
 10
99.59765900033637
 20
119.1656229760468
 42
0.086941915456222
 10
99.55094225445174
 20
119.1900268658522
 42
0.0442669587489878
 10
99.49433402881442
 20
119.2026538865246
 42
0.032759418946939
 10
99.41619812603205
 20
119.2077787599818
 42
0.032759418947148
 10
99.33806222325694
 20
119.2026538865246
 42
0.0442669587490284
 10
99.28145399761598
 20
119.1900268658522
 42
0.0869419154566317
 10
99.23473725173501
 20
119.1656229760468
 42
0.233077666949109
 10
99.22564115217284
 20
119.147170002287
 42
0.2330776669474527
 10
99.23473725173501
 20
119.1287170285267
 42
0.0869419154562388
 10
99.28145399761598
 20
119.1043131387217
 42
0.0442669587490685
 10
99.33806222325694
 20
119.0916861180493
 42
0.0327594189470737
  0
LWPOLYLINE
  5
2C81
102
{ACAD_REACTORS
330
2FD3
102
}
330
1F
100
AcDbEntity
  8
SOLBET_Zbrojenie_Konstrukcja
100
AcDbPolyline
 90
       16
 70
     1
 43
0.0
 10
99.59765900033637
 20
119.1287170285267
 42
-0.0869419154568836
 10
99.55094225445538
 20
119.1043131387217
 42
-0.04426695874853
 10
99.49433402881442
 20
119.0916861180493
 42
-0.0327594189474477
 10
99.41619812603205
 20
119.0865612445922
 42
-0.0327594189473721
 10
99.3380622232533
 20
119.0916861180493
 42
-0.0442669587487512
 10
99.28145399761598
 20
119.1043131387217
 42
-0.0869419154555393
 10
99.23473725173501
 20
119.1287170285267
 42
-0.233077666948955
 10
99.22564115217284
 20
119.147170002287
 42
-0.2330776669476068
 10
99.23473725173501
 20
119.1656229760468
 42
-0.0869419154571649
 10
99.28145399761598
 20
119.1900268658522
 42
-0.0442669587478621
 10
99.3380622232533
 20
119.2026538865242
 42
-0.032759418947709
 10
99.41619812603205
 20
119.2077787599818
 42
-0.0327594189469762
 10
99.49433402881442
 20
119.2026538865246
 42
-0.0442669587489952
 10
99.55094225445538
 20
119.1900268658522
 42
-0.0869419154555225
 10
99.59765900033637
 20
119.1656229760473
 42
-0.2095631734287794
 10
99.60666164207834
 20
119.1492532589003
 42
-0.256839199828224
1001
ASO_SCHRAFF
1005
0
1070
     1
1002
{
1070
     1
1005
0
1002
}
1002
{
1070
     2
1005
0
1002
}
1002
{
1070
     4
1000
SOFIFUELL
1040
1.0
1040
0.0
1070
     0
1000
T__SCHR
1070
   256
1000
_bylayer
1040
50.0
1070
     1
1002
}
  0
LWPOLYLINE
  5
2C82
330
1F
100
AcDbEntity
  8
SOLBET_Zbrojenie_Konstrukcja
100
AcDbPolyline
 90
       16
 70
     1
 43
0.0
 10
90.88803314562818
 20
119.0865612445922
 42
-0.0327594189470737
 10
90.80989724284945
 20
119.0916861180493
 42
-0.0442669587490688
 10
90.75328901720849
 20
119.1043131387217
 42
-0.0869419154566485
 10
90.70657227133114
 20
119.1287170285267
 42
-0.2330776669510323
 10
90.69747617176535
 20
119.147170002287
 42
-0.2330776669455295
 10
90.7065722713275
 20
119.1656229760468
 42
-0.086941915456222
 10
90.75328901720849
 20
119.1900268658522
 42
-0.0442669587489878
 10
90.80989724284945
 20
119.2026538865246
 42
-0.032759418946939
 10
90.88803314562818
 20
119.2077787599818
 42
-0.032759418947148
 10
90.96616904841056
 20
119.2026538865246
 42
-0.0442669587490284
 10
91.02277727404787
 20
119.1900268658522
 42
-0.0869419154566317
 10
91.06949401992887
 20
119.1656229760468
 42
-0.233077666949109
 10
91.07859011949102
 20
119.147170002287
 42
-0.2330776669474527
 10
91.06949401992887
 20
119.1287170285267
 42
-0.0869419154562388
 10
91.02277727404787
 20
119.1043131387217
 42
-0.0442669587490685
 10
90.96616904841056
 20
119.0916861180493
 42
-0.0327594189470737
  0
LWPOLYLINE
  5
2C83
102
{ACAD_REACTORS
330
2FD3
102
}
330
1F
100
AcDbEntity
  8
SOLBET_Zbrojenie_Konstrukcja
100
AcDbPolyline
 90
       16
 70
     1
 43
0.0
 10
90.7065722713275
 20
119.1287170285267
 42
0.0869419154568836
 10
90.75328901720849
 20
119.1043131387217
 42
0.04426695874853
 10
90.80989724284945
 20
119.0916861180493
 42
0.0327594189474477
 10
90.88803314562818
 20
119.0865612445922
 42
0.0327594189473721
 10
90.96616904841056
 20
119.0916861180493
 42
0.0442669587487512
 10
91.02277727404787
 20
119.1043131387217
 42
0.0869419154555393
 10
91.06949401992887
 20
119.1287170285267
 42
0.233077666948955
 10
91.07859011949102
 20
119.147170002287
 42
0.2330776669476068
 10
91.06949401992887
 20
119.1656229760468
 42
0.0869419154571649
 10
91.02277727404787
 20
119.1900268658522
 42
0.0442669587478621
 10
90.96616904841056
 20
119.2026538865242
 42
0.032759418947709
 10
90.88803314562818
 20
119.2077787599818
 42
0.0327594189469762
 10
90.80989724284945
 20
119.2026538865246
 42
0.0442669587489952
 10
90.75328901720849
 20
119.1900268658522
 42
0.0869419154555225
 10
90.70657227133114
 20
119.1656229760473
 42
0.2095631734287794
 10
90.69756962958553
 20
119.1492532589003
 42
0.256839199828224
1001
ASO_SCHRAFF
1005
0
1070
     1
1002
{
1070
     1
1005
0
1002
}
1002
{
1070
     2
1005
0
1002
}
1002
{
1070
     4
1000
SOFIFUELL
1040
1.0
1040
0.0
1070
     0
1000
T__SCHR
1070
   256
1000
_bylayer
1040
50.0
1070
     1
1002
}
  0
LINE
  5
2C84
330
1F
100
AcDbEntity
  8
SOLBET_Wymiary_Opisy
 62
     1
100
AcDbLine
 10
79.76421208462915
 20
97.89268347988253
 30
0.0
 11
164.3670225533175
 21
97.89268347988253
 31
0.0
  0
LINE
  5
2C85
330
1F
100
AcDbEntity
  8
SOLBET_Tynki_Posadzki
100
AcDbLine
 10
82.11810107740957
 20
97.89268347988253
 30
0.0
 11
82.11810107740957
 21
166.9503791304777
 31
0.0
  0
LINE
  5
2C86
330
1F
100
AcDbEntity
  8
SOLBET_Zaprawy
100
AcDbLine
 10
82.58477927087795
 20
97.89268347988253
 30
0.0
 11
82.58477927087795
 21
166.9503791304777
 31
0.0
  0
LWPOLYLINE
  5
2C87
330
1F
100
AcDbEntity
  8
SOLBET_Bloczki
100
AcDbPolyline
 90
        4
 70
     0
 43
0.0
 10
103.8681010774095
 20
97.89268347988253
 10
103.8681010774095
 20
106.9503791304777
 10
82.8681010774132
 20
106.9503791304777
 10
82.8681010774132
 20
97.89268347988253
  0
LWPOLYLINE
  5
2C88
330
1F
100
AcDbEntity
  8
SOLBET_Zbrojenie_Konstrukcja
  6
Continuous
100
AcDbPolyline
 90
        6
 70
     0
 43
0.0
 10
139.4939032686604
 20
117.5716646932336
 10
90.99390326866403
 20
117.5716646932336
 42
0.4142135623730951
 10
90.4939032686604
 20
117.0716646932336
 10
90.4939032686604
 20
109.5716646932336
 42
0.4142135623730964
 10
90.99390326866403
 20
109.0716646932336
 10
109.493903268664
 20
109.0716646932336
  0
LWPOLYLINE
  5
2C89
330
1F
100
AcDbEntity
  8
SOLBET_Zbrojenie_Konstrukcja
  6
Continuous
100
AcDbPolyline
 90
        2
 70
     1
 43
0.3
 10
90.90850133060365
 20
165.9281623771065
 42
1.0
 10
91.20850133060656
 20
165.9281623771065
 42
1.0
  0
LWPOLYLINE
  5
2C8A
330
1F
100
AcDbEntity
  8
SOLBET_Zbrojenie_Konstrukcja
  6
Continuous
100
AcDbPolyline
 90
        2
 70
     1
 43
0.3
 10
98.30314529382002
 20
165.9065427020254
 42
1.0
 10
98.6031452938193
 20
165.9065427020254
 42
1.0
  0
LWPOLYLINE
  5
2C8B
330
1F
100
AcDbEntity
  8
SOLBET_Zbrojenie_Konstrukcja
  6
Continuous
100
AcDbPolyline
 90
        2
 70
     1
 43
0.3
 10
98.30314529382002
 20
160.0166005307977
 42
1.0
 10
98.6031452938193
 20
160.0166005307977
 42
1.0
  0
LWPOLYLINE
  5
2C8C
330
1F
100
AcDbEntity
  8
SOLBET_Zbrojenie_Konstrukcja
  6
Continuous
100
AcDbPolyline
 90
        2
 70
     1
 43
0.3
 10
90.90850133060365
 20
160.0166005307977
 42
1.0
 10
91.20850133060656
 20
160.0166005307977
 42
1.0
  0
LINE
  5
2C8D
330
1F
100
AcDbEntity
  8
SOLBET_Zbrojenie_Konstrukcja
  6
Continuous
100
AcDbLine
 10
93.35342140186975
 20
164.8391958642713
 30
0.0
 11
91.93920783949641
 21
166.2534094266442
 31
0.0
  0
LINE
  5
2C8E
330
1F
100
AcDbEntity
  8
SOLBET_Zbrojenie_Konstrukcja
  6
Continuous
100
AcDbLine
 10
92.15342140186903
 20
163.6391958642715
 30
0.0
 11
90.73920783949569
 21
165.0534094266448
 31
0.0
  0
LWPOLYLINE
  5
2C8F
330
1F
100
AcDbEntity
  8
SOLBET_Zbrojenie_Konstrukcja
  6
Continuous
100
AcDbPolyline
 90
        5
 70
     0
 43
0.0
 10
98.74483913360444
 20
159.7003791304777
 10
98.74483913360444
 20
166.2534094266442
 10
90.73920783949569
 20
166.2534094266442
 10
90.73920783949569
 20
159.7003791304777
 10
98.74483913360444
 20
159.7003791304777
  0
LINE
  5
2C90
330
1F
100
AcDbEntity
  8
SOLBET_Izolacja
  6
Continuous
100
AcDbLine
 10
86.86810107741321
 20
158.9503791304777
 30
0.0
 11
86.86810107741321
 21
166.9503791304781
 31
0.0
  0
LINE
  5
2C91
330
1F
100
AcDbEntity
  8
SOLBET_Izolacja
  6
Continuous
100
AcDbLine
 10
89.8681010774132
 20
118.9503791599003
 30
0.0
 11
89.8681010774132
 21
166.9503791304781
 31
0.0
  0
LINE
  5
2C93
330
1F
100
AcDbEntity
  8
SOLBET_Zbrojenie_Konstrukcja
100
AcDbLine
 10
93.84555761949803
 20
174.5400883754863
 30
0.0
 11
95.89064453532108
 21
174.5400883754863
 31
0.0
  0
LWPOLYLINE
  5
2C94
330
1F
100
AcDbEntity
  8
SOLBET_Zbrojenie_Konstrukcja
100
AcDbPolyline
 90
        4
 70
     0
 43
0.0
 10
94.86810107740955
 20
175.0455511528461
 10
94.86810107740955
 20
160.7955511528533
 42
1.0
 10
95.89170132912176
 20
160.7955511528533
 10
95.89170132912176
 20
162.6392353009036
  0
LWPOLYLINE
  5
2C95
330
1F
100
AcDbEntity
  8
SOLBET_Stolarka_Okna
100
AcDbPolyline
 90
        4
 70
     1
 43
0.0
 10
91.36810107740956
 20
167.1903791304779
 10
98.36810107741321
 20
167.1903791304779
 10
98.36810107741321
 20
174.1503791304702
 10
91.36810107740956
 20
174.1503791304702
1001
ASO_SCHRAFF
1005
272E
1070
     1
1002
{
1070
     1
1005
272E
1002
}
1002
{
1070
     2
1005
272F
1002
}
1002
{
1070
     4
1000
SOFIHOLZ
1040
0.5
1040
0.0
1070
     0
1000
T__SCHR
1070
   256
1000
_bylayer
1040
50.0
1070
     1
1002
}
  0
LINE
  5
2C97
330
1F
100
AcDbEntity
  8
SOLBET_Wymiary_Opisy
100
AcDbLine
 10
49.5018088767253
 20
161.518931660756
 30
0.0
 11
164.3670225533175
 21
216.7715366057245
 31
0.0
  0
LINE
  5
2C98
330
1F
100
AcDbEntity
  8
SOLBET_Wymiary_Opisy
100
AcDbLine
 10
49.00330817160346
 20
162.5552699486696
 30
0.0
 11
164.3670225533175
 21
218.0476643097994
 31
0.0
  0
LINE
  5
2C99
330
1F
100
AcDbEntity
  8
SOLBET_Wymiary_Opisy
 62
     1
100
AcDbLine
 10
68.42624717775533
 20
170.6219880151051
 30
0.0
 11
67.92774647263712
 21
171.6583263030182
 31
0.0
  0
LINE
  5
2C9A
330
1F
100
AcDbEntity
  8
SOLBET_Wymiary_Opisy
 62
     1
100
AcDbLine
 10
74.73439327809746
 20
173.6563401332213
 30
0.0
 11
74.23589257297925
 21
174.6926784211344
 31
0.0
  0
LINE
  5
2C9B
330
1F
100
AcDbEntity
  8
SOLBET_Wymiary_Opisy
 62
     1
100
AcDbLine
 10
81.04253937844323
 20
176.6906922513375
 30
0.0
 11
80.54403867332501
 21
177.7270305392506
 31
0.0
  0
LINE
  5
2C9C
330
1F
100
AcDbEntity
  8
SOLBET_Wymiary_Opisy
 62
     1
100
AcDbLine
 10
87.35068547878899
 20
179.7250443694537
 30
0.0
 11
86.85218477366715
 21
180.7613826573673
 31
0.0
  0
LINE
  5
2C9D
330
1F
100
AcDbEntity
  8
SOLBET_Wymiary_Opisy
 62
     1
100
AcDbLine
 10
93.65883157913112
 20
182.7593964875699
 30
0.0
 11
93.16033087401292
 21
183.7957347754835
 31
0.0
  0
LINE
  5
2C9E
330
1F
100
AcDbEntity
  8
SOLBET_Wymiary_Opisy
 62
     1
100
AcDbLine
 10
99.96697767947688
 20
185.7937486056861
 30
0.0
 11
99.46847697435504
 21
186.8300868935997
 31
0.0
  0
LINE
  5
2C9F
330
1F
100
AcDbEntity
  8
SOLBET_Wymiary_Opisy
 62
     1
100
AcDbLine
 10
106.275123779819
 20
188.8281007238023
 30
0.0
 11
105.7766230746971
 21
189.8644390117164
 31
0.0
  0
LINE
  5
2CA0
330
1F
100
AcDbEntity
  8
SOLBET_Wymiary_Opisy
 62
     1
100
AcDbLine
 10
112.5832698801611
 20
191.8624528419185
 30
0.0
 11
112.0847691750429
 21
192.8987911298321
 31
0.0
  0
LINE
  5
2CA1
330
1F
100
AcDbEntity
  8
SOLBET_Wymiary_Opisy
 62
     1
100
AcDbLine
 10
118.8914159805069
 20
194.8968049600347
 30
0.0
 11
118.3929152753887
 21
195.9331432479488
 31
0.0
  0
LINE
  5
2CA2
330
1F
100
AcDbEntity
  8
SOLBET_Wymiary_Opisy
 62
     1
100
AcDbLine
 10
125.199562080849
 20
197.9311570781514
 30
0.0
 11
124.7010613757308
 21
198.9674953660645
 31
0.0
  0
LINE
  5
2CA3
330
1F
100
AcDbEntity
  8
SOLBET_Wymiary_Opisy
 62
     1
100
AcDbLine
 10
131.5077081811911
 20
200.9655091962676
 30
0.0
 11
131.0092074760766
 21
202.0018474841812
 31
0.0
  0
LINE
  5
2CA4
330
1F
100
AcDbEntity
  8
SOLBET_Wymiary_Opisy
 62
     1
100
AcDbLine
 10
137.8158542815405
 20
203.9998613143838
 30
0.0
 11
137.3173535764187
 21
205.0361996022969
 31
0.0
  0
LINE
  5
2CA5
330
1F
100
AcDbEntity
  8
SOLBET_Wymiary_Opisy
 62
     1
100
AcDbLine
 10
144.1240003818827
 20
207.0342134325
 30
0.0
 11
143.6254996767608
 21
208.0705517204136
 31
0.0
  0
LINE
  5
2CA6
330
1F
100
AcDbEntity
  8
SOLBET_Wymiary_Opisy
 62
     1
100
AcDbLine
 10
150.4321464822248
 20
210.0685655506162
 30
0.0
 11
149.9336457771066
 21
211.1049038385294
 31
0.0
  0
LINE
  5
2CA7
330
1F
100
AcDbEntity
  8
SOLBET_Wymiary_Opisy
100
AcDbLine
 10
156.7402925825706
 20
213.1029176687329
 30
0.0
 11
156.2417918774487
 21
214.139255956646
 31
0.0
  0
LINE
  5
2CA8
330
1F
100
AcDbEntity
  8
SOLBET_Wymiary_Opisy
 62
     1
100
AcDbLine
 10
163.0484386829127
 20
216.1372697868486
 30
0.0
 11
162.5499379777945
 21
217.1736080747622
 31
0.0
  0
LINE
  5
2CA9
330
1F
100
AcDbEntity
  8
SOLBET_Wymiary_Opisy
100
AcDbLine
 10
48.91661239679951
 20
162.7355026943936
 30
0.0
 11
164.3670225533175
 21
218.2695995626822
 31
0.0
  0
LINE
  5
2CAA
330
1F
100
AcDbEntity
  8
SOLBET_Wymiary_Opisy
  6
Continuous
100
AcDbLine
 10
48.82991662199919
 20
162.915735440118
 30
0.0
 11
164.3670225533175
 21
218.4915348155649
 31
0.0
  0
LINE
  5
2CAB
330
1F
100
AcDbEntity
  8
SOLBET_Wymiary_Opisy
  6
Continuous
100
AcDbLine
 10
48.33141591687734
 20
163.9520737280317
 30
0.0
 11
164.3670225533175
 21
219.7676625196394
 31
0.0
  0
LWPOLYLINE
  5
2CAC
330
1F
100
AcDbEntity
  8
SOLBET_Wymiary_Opisy
 62
     1
100
AcDbPolyline
 90
        5
 70
     0
 43
0.0
 10
60.94770811756887
 20
170.0207779642641
 10
62.29945371049751
 20
170.6709962752892
 10
61.80095300537931
 20
171.7073345632028
 10
60.44920741244704
 20
171.0571162521781
 10
60.94770811756887
 20
170.0207779642641
  0
LINE
  5
2CAD
330
1F
100
AcDbEntity
  8
SOLBET_Wymiary_Opisy
 62
     1
100
AcDbLine
 10
55.80995497706743
 20
164.5532837788722
 30
0.0
 11
55.31145427194923
 21
165.5896220667858
 31
0.0
  0
LINE
  5
2CAE
330
1F
100
AcDbEntity
  8
SOLBET_Wymiary_Opisy
  6
Continuous
100
AcDbLine
 10
49.50180887672507
 20
161.5189316607559
 30
0.0
 11
49.00330817160451
 21
162.5552699486702
 31
0.0
  0
LINE
  5
2CB0
330
1F
100
AcDbEntity
  8
SOLBET_Izolacja
100
AcDbLine
 10
96.52371356797875
 20
174.1503791304702
 30
0.0
 11
164.3670225533175
 21
206.5946392117484
 31
0.0
  0
LWPOLYLINE
  5
2CB1
330
1F
100
AcDbEntity
  8
SOLBET_Wymiary_Opisy
 62
     1
100
AcDbPolyline
 90
        5
 70
     0
 43
0.0
 10
48.33141591687734
 20
163.9520737280317
 10
52.8372345599825
 20
166.1194680981147
 10
52.33873385486067
 20
167.1558063860283
 10
47.83291521175914
 20
164.9884120159457
 10
48.33141591687734
 20
163.9520737280317
  0
LINE
  5
2CB2
330
1F
100
AcDbEntity
  8
SOLBET_Wymiary_Opisy
 62
     1
100
AcDbLine
 10
47.83291521175914
 20
164.9884120159457
 30
0.0
 11
60.44920741244704
 21
171.0571162521781
 31
0.0
  0
LINE
  5
2CB3
330
1F
100
AcDbEntity
  8
SOLBET_Wymiary_Opisy
  6
Continuous
100
AcDbLine
 10
53.33573526510071
 20
165.083129810201
 30
0.0
 11
52.8372345599825
 21
166.1194680981147
 31
0.0
  0
LWPOLYLINE
  5
2CB4
330
1F
100
AcDbEntity
  8
SOLBET_Zbrojenie_Konstrukcja
100
AcDbPolyline
 90
       15
 70
     0
 43
0.0
 10
47.74621943695882
 20
165.1686447616697
 10
52.24659833812683
 20
167.3334225004649
 10
54.89955346220148
 20
167.3334225004649
 10
59.09492693342753
 20
169.3514861559678
 10
59.00823115862357
 20
169.5317189016913
 10
54.85395203740399
 20
167.5334225004652
 10
52.20099691332933
 20
167.5334225004652
 10
47.65952366215486
 20
165.3488775073937
 10
47.65952366215486
 20
160.6413929677627
 42
-1.013424621101684
 10
40.16085723260829
 20
160.7413929677626
 10
39.913186393275
 20
160.7413929677626
 10
39.913186393275
 20
160.6413929677627
 10
40.05952366215268
 20
160.6413929677627
 42
1.0
 10
47.75952366215341
 20
160.6413929677627
 10
47.75952366215341
 20
165.3488775073937
  0
LWPOLYLINE
  5
2CB5
330
1F
100
AcDbEntity
  8
SOLBET_Wymiary_Opisy
 62
     1
100
AcDbPolyline
 90
        5
 70
     0
 43
0.0
 10
72.2122547253245
 20
175.4392638894718
 10
73.56400031825313
 20
176.0894822004969
 10
73.06549961313857
 20
177.1258204884105
 10
71.71375402020266
 20
176.4756021773854
 10
72.2122547253245
 20
175.4392638894718
  0
LWPOLYLINE
  5
2CB6
330
1F
100
AcDbEntity
  8
SOLBET_Wymiary_Opisy
 62
     1
100
AcDbPolyline
 90
        5
 70
     0
 43
0.0
 10
83.47680133308012
 20
180.8577498146795
 10
84.8285469260124
 20
181.5079681257047
 10
84.33004622089418
 20
182.5443064136178
 10
82.97830062796192
 20
181.8940881025931
 10
83.47680133308012
 20
180.8577498146795
  0
LWPOLYLINE
  5
2CB7
330
1F
100
AcDbEntity
  8
SOLBET_Wymiary_Opisy
 62
     1
100
AcDbPolyline
 90
        5
 70
     0
 43
0.0
 10
94.74134794083573
 20
186.2762357398873
 10
96.09309353376801
 20
186.9264540509119
 10
95.59459282864981
 20
187.9627923388255
 10
94.24284723572117
 20
187.3125740278004
 10
94.74134794083573
 20
186.2762357398873
  0
LWPOLYLINE
  5
2CB8
330
1F
100
AcDbEntity
  8
SOLBET_Wymiary_Opisy
 62
     1
100
AcDbPolyline
 90
        7
 70
     0
 43
0.0
 10
96.95243890479895
 20
188.4757137498308
 10
79.30756178383006
 20
182.4233603678016
 10
79.14533531538172
 20
182.89631128802
 10
96.79021243635425
 20
188.9486646700492
 10
97.06627662416275
 20
188.1438341580304
 10
95.8980134040873
 20
187.7431092449213
 10
95.7841756847235
 20
188.0749888367221
  0
LWPOLYLINE
  5
2CB9
330
1F
100
AcDbEntity
  8
SOLBET_Wymiary_Opisy
 62
     1
100
AcDbPolyline
 90
        7
 70
     0
 43
0.0
 10
97.98408068070848
 20
189.5069662645218
 10
80.33920355973959
 20
183.454612882493
 10
80.17697709129487
 20
183.927563802711
 10
97.82185421226376
 20
189.9799171847406
 10
98.09791840007228
 20
189.1750866727214
 10
96.92965517999681
 20
188.7743617596123
 10
96.81581746063665
 20
189.1062413514136
  0
LWPOLYLINE
  5
2CBA
330
1F
100
AcDbEntity
  8
SOLBET_Wymiary_Opisy
 62
     1
100
AcDbPolyline
 90
        7
 70
     0
 43
0.0
 10
85.68789229704334
 20
183.0572278246235
 10
68.04301517607081
 20
177.0048744425943
 10
67.8807887076261
 20
177.4778253628122
 10
85.52566582859498
 20
183.5301787448415
 10
85.80173001640714
 20
182.7253482328223
 10
84.63346679633167
 20
182.3246233197141
 10
84.51962907696787
 20
182.6565029115144
  0
LWPOLYLINE
  5
2CBB
330
1F
100
AcDbEntity
  8
SOLBET_Wymiary_Opisy
 62
     1
100
AcDbPolyline
 90
        7
 70
     0
 43
0.0
 10
86.71953407295285
 20
184.0884803393145
 10
69.07465695198396
 20
178.0361269572857
 10
68.91243048353562
 20
178.5090778775037
 10
86.55730760450451
 20
184.5614312595329
 10
86.83337179231665
 20
183.7566007475137
 10
85.6651085722412
 20
183.3558758344046
 10
85.5512708528774
 20
183.6877554262054
  0
LWPOLYLINE
  5
2CBC
330
1F
100
AcDbEntity
  8
SOLBET_Wymiary_Opisy
 62
     1
100
AcDbPolyline
 90
        7
 70
     0
 43
0.0
 10
74.42334568928771
 20
177.6387418994158
 10
56.77846856831519
 20
171.5863885173866
 10
56.61624209986683
 20
172.0593394376045
 10
74.26111922083936
 20
178.1116928196342
 10
74.53718340864788
 20
177.306862307615
 10
73.36892018857241
 20
176.9061373945059
 10
73.25508246921225
 20
177.2380169863071
  0
LWPOLYLINE
  5
2CBD
330
1F
100
AcDbEntity
  8
SOLBET_Wymiary_Opisy
 62
     1
100
AcDbPolyline
 90
        7
 70
     0
 43
0.0
 10
75.45498746519723
 20
178.6699944141068
 10
57.81011034422471
 20
172.617641032078
 10
57.64788387577636
 20
173.090591952296
 10
75.29276099674888
 20
179.1429453343252
 10
75.5688251845574
 20
178.3381148223064
 10
74.40056196448558
 20
177.9373899091973
 10
74.28672424512178
 20
178.2692695009981
  0
LWPOLYLINE
  5
2CBE
330
1F
100
AcDbEntity
  8
SOLBET_Wymiary_Opisy
 62
     1
100
AcDbPolyline
 90
        7
 70
     0
 43
0.0
 10
63.11617889318648
 20
172.3213502017882
 10
45.97884513622619
 20
164.9535512239639
 10
45.78135964042366
 20
165.4128980199133
 10
62.91869339738759
 20
172.7806969977381
 10
63.25475861241347
 20
171.999016909648
 10
62.12009972070581
 20
171.5111966488615
 10
61.98152000147882
 20
171.8335299410017
  0
LWPOLYLINE
  5
2CBF
330
1F
100
AcDbEntity
  8
SOLBET_Wymiary_Opisy
 62
     1
100
AcDbPolyline
 90
        7
 70
     0
 43
0.0
 10
64.06698225448844
 20
173.4275777873225
 10
46.92964849752451
 20
166.0597788094982
 10
46.73216300172561
 20
166.5191256054476
 10
63.86949675868954
 20
173.8869245832719
 10
64.20556197371542
 20
173.1052444951823
 10
63.07090308200776
 20
172.6174242343958
 10
62.93232336278077
 20
172.9397575265364
  0
LWPOLYLINE
  5
2CC0
330
1F
100
AcDbEntity
  8
SOLBET_Wymiary_Opisy
 62
     1
100
AcDbPolyline
 90
        7
 70
     0
 43
0.0
 10
109.2486272884677
 20
194.9254521897295
 10
91.60375016749885
 20
188.8730988077007
 10
91.44152369905048
 20
189.3460497279187
 10
109.0864008200194
 20
195.3984031099479
 10
109.3624650078279
 20
194.5935725979287
 10
108.194201787756
 20
194.1928476848201
 10
108.0803640683922
 20
194.5247272766208
  0
LWPOLYLINE
  5
2CC1
330
1F
100
AcDbEntity
  8
SOLBET_Wymiary_Opisy
 62
     1
100
AcDbPolyline
 90
        7
 70
     0
 43
0.0
 10
108.2169855125545
 20
193.8941996750385
 10
90.57210839158569
 20
187.8418462930093
 10
90.40988192314097
 20
188.3147972132272
 10
108.0547590441098
 20
194.3671505952565
 10
108.3308232319184
 20
193.5623200832377
 10
107.1625600118429
 20
193.1615951701291
 10
107.0487222924827
 20
193.4934747619294
  0
LWPOLYLINE
  5
2CC2
330
1F
100
AcDbEntity
  8
SOLBET_Wymiary_Opisy
 62
     1
100
AcDbPolyline
 90
        5
 70
     0
 43
0.0
 10
106.005894548595
 20
191.6947216650945
 10
107.3576401415236
 20
192.3449399761197
 10
106.8591394364054
 20
193.3812782640328
 10
105.5073938434768
 20
192.7310599530082
 10
106.005894548595
 20
191.6947216650945
  0
LWPOLYLINE
  5
2CC3
330
1F
100
AcDbEntity
  8
SOLBET_Wymiary_Opisy
 62
     1
100
AcDbPolyline
 90
        7
 70
     0
 43
0.0
 10
120.5131738962233
 20
200.3439381149373
 10
102.8682967752544
 20
194.291584732908
 10
102.7060703068061
 20
194.764535653126
 10
120.350947427775
 20
200.8168890351557
 10
120.6270116155871
 20
200.0120585231365
 10
119.4587483955117
 20
199.6113336100274
 10
119.3449106761479
 20
199.9432132018286
  0
LWPOLYLINE
  5
2CC4
330
1F
100
AcDbEntity
  8
SOLBET_Wymiary_Opisy
 62
     1
100
AcDbPolyline
 90
        7
 70
     0
 43
0.0
 10
119.4815321203138
 20
199.3126856002462
 10
101.8366549993449
 20
193.2603322182166
 10
101.6744285308966
 20
193.7332831384354
 10
119.3193056518655
 20
199.7856365204642
 10
119.595369839674
 20
198.9808060084455
 10
118.4271066196021
 20
198.5800810953364
 10
118.3132689002383
 20
198.9119606871371
  0
LWPOLYLINE
  5
2CC5
330
1F
100
AcDbEntity
  8
SOLBET_Wymiary_Opisy
 62
     1
100
AcDbPolyline
 90
        7
 70
     0
 43
0.0
 10
131.7777205039826
 20
205.762424040145
 10
114.1328433830101
 20
199.7100706581158
 10
113.9706169145617
 20
200.1830215783337
 10
131.6154940355342
 20
206.235374960363
 10
131.8915582233427
 20
205.4305444483438
 10
130.7232950032673
 20
205.0298195352351
 10
130.6094572839035
 20
205.3616991270359
  0
LWPOLYLINE
  5
2CC6
330
1F
100
AcDbEntity
  8
SOLBET_Wymiary_Opisy
 62
     1
100
AcDbPolyline
 90
        7
 70
     0
 43
0.0
 10
130.7460787280694
 20
204.7311715254535
 10
113.1012016071005
 20
198.6788181434243
 10
112.9389751386522
 20
199.1517690636427
 10
130.5838522596247
 20
205.2041224456715
 10
130.8599164474332
 20
204.3992919336528
 10
129.6916532273578
 20
203.9985670205441
 10
129.577815507994
 20
204.3304466123444
  0
LWPOLYLINE
  5
2CC7
330
1F
100
AcDbEntity
  8
SOLBET_Wymiary_Opisy
 62
     1
100
AcDbPolyline
 90
        5
 70
     0
 43
0.0
 10
128.5349877641062
 20
202.5316935155096
 10
129.8867333570421
 20
203.1819118265347
 10
129.3882326519203
 20
204.2182501144479
 10
128.0364870589916
 20
203.5680318034236
 10
128.5349877641062
 20
202.5316935155096
  0
LWPOLYLINE
  5
2CC8
330
1F
100
AcDbEntity
  8
SOLBET_Wymiary_Opisy
 62
     1
100
AcDbPolyline
 90
        7
 70
     0
 43
0.0
 10
143.0422671117382
 20
211.1809099653523
 10
125.3973899907657
 20
205.1285565833231
 10
125.235163522321
 20
205.6015075035415
 10
142.8800406432935
 20
211.6538608855707
 10
143.1561048310984
 20
210.8490303735515
 10
141.9878416110229
 20
210.4483054604424
 10
141.8740038916664
 20
210.7801850522436
  0
LWPOLYLINE
  5
2CC9
330
1F
100
AcDbEntity
  8
SOLBET_Wymiary_Opisy
 62
     1
100
AcDbPolyline
 90
        7
 70
     0
 43
0.0
 10
142.0106253358287
 20
210.1496574506612
 10
124.3657482148561
 20
204.0973040686316
 10
124.2035217464114
 20
204.5702549888505
 10
141.8483988673803
 20
210.6226083708792
 10
142.1244630551888
 20
209.8177778588605
 10
140.9561998351134
 20
209.4170529457514
 10
140.8423621157532
 20
209.7489325375522
  0
LWPOLYLINE
  5
2CCA
330
1F
100
AcDbEntity
  8
SOLBET_Wymiary_Opisy
 62
     1
100
AcDbPolyline
 90
        5
 70
     0
 43
0.0
 10
139.7995343718655
 20
207.9501794407173
 10
141.1512799647977
 20
208.600397751742
 10
140.6527792596759
 20
209.6367360396556
 10
139.3010336667473
 20
208.9865177286309
 10
139.7995343718655
 20
207.9501794407173
  0
LWPOLYLINE
  5
2CCB
330
1F
100
AcDbEntity
  8
SOLBET_Wymiary_Opisy
 62
     1
100
AcDbPolyline
 90
        7
 70
     0
 43
0.0
 10
154.3068137194975
 20
216.59939589056
 10
136.6619365985249
 20
210.5470425085308
 10
136.4997101300766
 20
211.0199934287487
 10
154.1445872510491
 20
217.072346810778
 10
154.420651438854
 20
216.2675162987588
 10
153.2523882187822
 20
215.8667913856501
 10
153.138550499422
 20
216.1986709774509
  0
LWPOLYLINE
  5
2CCC
330
1F
100
AcDbEntity
  8
SOLBET_Wymiary_Opisy
 62
     1
100
AcDbPolyline
 90
        7
 70
     0
 43
0.0
 10
153.2751719435843
 20
215.5681433758685
 10
135.6302948226154
 20
209.5157899938393
 10
135.4680683541671
 20
209.9887409140578
 10
153.1129454751396
 20
216.0410942960865
 10
153.3890096629445
 20
215.2362637840678
 10
152.2207464428726
 20
214.8355388709591
 10
152.1069087235125
 20
215.1674184627594
  0
LWPOLYLINE
  5
2CCD
330
1F
100
AcDbEntity
  8
SOLBET_Wymiary_Opisy
 62
     1
100
AcDbPolyline
 90
        5
 70
     0
 43
0.0
 10
151.0640809796247
 20
213.3686653659246
 10
152.4158265725534
 20
214.0188836769497
 10
151.9173258674352
 20
215.0552219648629
 10
150.5655802745029
 20
214.4050036538386
 10
151.0640809796247
 20
213.3686653659246
  0
LWPOLYLINE
  5
2CCE
330
1F
100
AcDbEntity
  8
SOLBET_Wymiary_Opisy
 62
     1
100
AcDbPolyline
 90
        5
 70
     0
 43
0.0
 10
162.3286275873804
 20
218.7871512911323
 10
163.680373180309
 20
219.437369602157
 10
163.1818724751908
 20
220.4737078900706
 10
161.8301268822585
 20
219.8234895790459
 10
162.3286275873804
 20
218.7871512911323
  0
LWPOLYLINE
  5
2CCF
330
1F
100
AcDbEntity
  8
SOLBET_Wymiary_Opisy
 62
     1
100
AcDbPolyline
 90
        4
 70
     0
 43
0.0
 10
164.3670225533175
 20
221.6047830024853
 10
147.9264832062806
 20
215.9655284337381
 10
147.7642567378322
 20
216.4384793539565
 10
164.3670225533175
 20
222.1333790772845
  0
LWPOLYLINE
  5
2CD0
330
1F
100
AcDbEntity
  8
SOLBET_Wymiary_Opisy
 62
     1
100
AcDbPolyline
 90
        3
 70
     0
 43
0.0
 10
164.3670225533175
 20
220.556466037386
 10
163.4852930506283
 20
220.2540247961664
 10
163.3714553312681
 20
220.5859043879672
  0
LWPOLYLINE
  5
2CD1
330
1F
100
AcDbEntity
  8
SOLBET_Wymiary_Opisy
 62
     1
100
AcDbPolyline
 90
        4
 70
     0
 43
0.0
 10
164.3670225533175
 20
220.9273930026001
 10
146.894841430371
 20
214.9342759190466
 10
146.7326149619227
 20
215.4072268392655
 10
164.3670225533175
 20
221.4559890773993
  0
LINE
  5
2CD3
330
1F
100
AcDbEntity
  8
SOLBET_Izolacja
100
AcDbLine
 10
98.36810107741321
 20
169.4891873339569
 30
0.0
 11
164.3670225533175
 21
201.236068903945
 31
0.0
  0
LINE
  5
2CD7
330
1F
100
AcDbEntity
  8
SOLBET_Emulsje_Folie
100
AcDbLine
 10
98.47647079591542
 20
169.2638964018014
 30
0.0
 11
164.4753922718197
 21
201.0107779717899
 31
0.0
  0
LINE
  5
2CD8
330
1F
100
AcDbEntity
  8
SOLBET_Zaprawy
100
AcDbLine
 10
103.8681010774095
 20
171.5799658986638
 30
0.0
 11
164.5837619903256
 21
200.7854870396349
 31
0.0
  0
LINE
  5
2CD9
330
1F
100
AcDbEntity
  8
SOLBET_Tynki_Posadzki
100
AcDbLine
 10
103.8681010774095
 20
171.0251277664573
 30
0.0
 11
164.8005014273337
 21
200.3349051753243
 31
0.0
  0
LINE
  5
2CDA
330
1F
100
AcDbEntity
  8
SOLBET_Tynki_Posadzki
100
AcDbLine
 10
104.3681010774132
 20
166.9503791304777
 30
0.0
 11
104.3681010774132
 21
171.2656383752677
 31
0.0
  0
LINE
  5
2CDB
330
1F
100
AcDbEntity
  8
SOLBET_Bloczki
100
AcDbLine
 10
99.86810107740957
 20
169.6558810281811
 30
0.0
 11
103.8681010774095
 21
171.5799658986638
 31
0.0
  0
LINE
  5
2CDC
330
1F
100
AcDbEntity
  8
SOLBET_Izolacja
  6
BATTING
 48
0.36
100
AcDbLine
 10
91.79853898441781
 20
176.038755890363
 30
0.0
 11
163.8977967421887
 21
210.4755966091864
 31
0.0
  0
LINE
  5
2CDD
330
1F
100
AcDbEntity
  8
SOLBET_Izolacja
100
AcDbLine
 10
97.28440389237142
 20
171.7420966555089
 30
0.0
 11
97.28440389237142
 21
171.7420966555089
 31
0.0
  0
LINE
  5
2CDE
330
1F
100
AcDbEntity
  8
SOLBET_Izolacja
  6
BATTING
 48
0.24
100
AcDbLine
 10
99.10126219342851
 20
172.6256452884878
 30
0.0
 11
163.3966175335919
 21
203.4424894670976
 31
0.0
  0
LINE
  5
2CE1
330
1F
100
AcDbEntity
  8
SOLBET_Izolacja
100
AcDbLine
 10
91.3681010774095
 20
166.9503791304777
 30
0.0
 11
86.86810107741321
 21
166.9503791304781
 31
0.0
  0
LINE
  5
2CE4
330
1F
100
AcDbEntity
  8
SOLBET_Izolacja
100
AcDbLine
 10
89.8681010774132
 20
166.9503791304781
 30
0.0
 11
86.86810107741321
 21
166.9503791304781
 31
0.0
  0
LINE
  5
2CE5
330
1F
100
AcDbEntity
  8
SOLBET_Izolacja
100
AcDbLine
 10
86.86810107741321
 20
166.9503791304781
 30
0.0
 11
88.36810107741319
 21
166.9503791304781
 31
0.0
  0
LINE
  5
2CE6
330
1F
100
AcDbEntity
  8
SOLBET_Izolacja
  6
BATTING
 48
0.14
100
AcDbLine
 10
88.36810107741319
 20
166.9503791304781
 30
0.0
 11
88.36810107741323
 21
107.121216427132
 31
0.0
  0
LINE
  5
2CE8
330
1F
100
AcDbEntity
  8
SOLBET_Izolacja
100
AcDbLine
 10
89.8681010774132
 20
118.9503791304777
 30
0.0
 11
89.8681010774132
 21
106.9503791451888
 31
0.0
  0
LINE
  5
2CE9
330
1F
100
AcDbEntity
  8
SOLBET_Izolacja
100
AcDbLine
 10
89.8681010774132
 20
106.9503791451888
 30
0.0
 11
86.86810107741321
 21
106.9503791451888
 31
0.0
  0
LINE
  5
2CEA
330
1F
100
AcDbEntity
  8
SOLBET_Izolacja
100
AcDbLine
 10
86.86810107741321
 20
106.9503791451888
 30
0.0
 11
86.86810107741321
 21
118.9503791304777
 31
0.0
  0
LINE
  5
2CED
330
1F
100
AcDbEntity
  8
SOLBET_Izolacja
100
AcDbLine
 10
103.8681010774095
 20
124.3236859640327
 30
0.0
 11
104.8681010774131
 21
124.3236859640327
 31
0.0
  0
LINE
  5
2CEE
330
1F
100
AcDbEntity
  8
SOLBET_Izolacja
100
AcDbLine
 10
104.8681010774131
 20
124.3236859640327
 30
0.0
 11
104.868101076352
 21
118.9503791569382
 31
0.0
  0
LINE
  5
2CEF
330
1F
100
AcDbEntity
  8
SOLBET_Izolacja
100
AcDbLine
 10
104.868101076352
 20
118.9503791569382
 30
0.0
 11
103.8681010774132
 21
118.9503791304777
 31
0.0
  0
LINE
  5
2CF0
330
1F
100
AcDbEntity
  8
SOLBET_Izolacja
100
AcDbLine
 10
103.8681010774132
 20
118.9503791304777
 30
0.0
 11
103.8681010774132
 21
124.3236859640327
 31
0.0
  0
LINE
  5
2CF1
330
1F
100
AcDbEntity
  8
SOLBET_Izolacja
  6
BATTING
 48
0.048
100
AcDbLine
 10
104.3681010774114
 20
119.0036201912679
 30
0.0
 11
104.3681010774114
 21
124.3236859640327
 31
0.0
  0
LINE
  5
2CF2
330
1F
100
AcDbEntity
  8
SOLBET_Izolacja
100
AcDbLine
 10
104.8681010774132
 20
121.4503791304777
 30
0.0
 11
104.8681011435645
 21
118.9503791569382
 31
0.0
  0
LINE
  5
2CF3
330
1F
100
AcDbEntity
  8
SOLBET_Izolacja
100
AcDbLine
 10
104.8681011435645
 20
118.9503791569382
 30
0.0
 11
164.3670225654757
 21
118.9503790845987
 31
0.0
  0
LINE
  5
2CF4
330
1F
100
AcDbEntity
  8
SOLBET_Izolacja
100
AcDbLine
 10
164.3670225533175
 20
121.4503791304777
 30
0.0
 11
104.8681010774132
 21
121.4503775561039
 31
0.0
  0
LINE
  5
2CF5
330
1F
100
AcDbEntity
  8
SOLBET_Izolacja
  6
BATTING
 48
0.12
100
AcDbLine
 10
104.8681011104889
 20
120.2003791437079
 30
0.0
 11
164.3670225533175
 21
120.2003791437079
 31
0.0
  0
LINE
  5
2CF7
330
1F
100
AcDbEntity
  8
SOLBET_Izolacja
100
AcDbLine
 10
99.10126219342851
 20
172.6256452884878
 30
0.0
 11
98.36810107741321
 21
172.2742402491887
 31
0.0
  0
LEADER
  5
2CF8
330
1F
100
AcDbEntity
  8
SOLBET_Wymiary_Opisy
100
AcDbLeader
  3
Solbet$7
 73
     0
 75
     1
 40
3.25
 41
33.25
 76
     3
 10
90.78366175507312
 20
167.0703791304789
 30
0.0
 10
63.83165079693771
 20
182.2571119461369
 30
0.0
 10
61.33165079693771
 20
182.2571119461369
 30
0.0
340
2CF9
213
-0.625
223
0.625
233
0.0
1001
ACAD
1000
DSTYLE
1002
{
1070
   147
1040
0.625
1070
    77
1070
     1
1002
}
  0
MTEXT
  5
2CF9
102
{ACAD_REACTORS
330
2CF8
102
}
330
1F
100
AcDbEntity
  8
SOLBET_Wymiary_Opisy
100
AcDbMText
 10
61.33165079693771
 20
185.5071119461369
 30
0.0
 40
2.5
 41
0.0
 71
     3
 72
     1
  1
Warstwa hydroizolacji
  7
Solbet_2_5
 73
     1
 44
1.0
1001
ACAD
1000
MTEXTBEGIN
1070
    73
1070
     1
1070
    44
1040
1.0
1070
    74
1070
     0
1000
MTEXTEND
  0
MTEXT
  5
2CFB
330
1F
100
AcDbEntity
  8
SOLBET_Wymiary_Opisy
100
AcDbMText
 10
73.86257597875488
 20
131.5253460111885
 30
0.0
 40
2.5
 41
0.0
 71
     3
 72
     1
  1
Zbrojenie MURFOR
  7
Solbet_2_5
 73
     1
 44
1.0
1001
ACAD
1000
MTEXTBEGIN
1070
    73
1070
     1
1070
    44
1040
1.0
1070
    74
1070
     0
1000
MTEXTEND
  0
MTEXT
  5
2CFD
330
1F
100
AcDbEntity
  8
SOLBET_Wymiary_Opisy
100
AcDbMText
 10
73.84306431969481
 20
125.9921959654879
 30
0.0
 40
2.5
 41
0.0
 71
     3
 72
     1
  1
Warstwa docieplenia
  7
Solbet_2_5
 73
     1
 44
1.0
1001
ACAD
1000
MTEXTBEGIN
1070
    73
1070
     1
1070
    44
1040
1.0
1070
    74
1070
     0
1000
MTEXTEND
  0
MTEXT
  5
2CFF
102
{ACAD_XDICTIONARY
360
33BE
102
}
330
1F
100
AcDbEntity
  8
SOLBET_Wymiary_Opisy
100
AcDbMText
 10
73.98150962570844
 20
120.0274989913995
 30
0.0
 40
2.5
 41
0.0
 71
     3
 72
     1
  1
P\U+0142ytka SOLBET
  7
Solbet_2_5
 73
     1
 44
1.0
1001
ACAD
1000
MTEXTBEGIN
1070
    73
1070
     1
1070
    44
1040
1.0
1070
    74
1070
     0
1000
MTEXTEND
  0
LEADER
  5
2D00
330
1F
100
AcDbEntity
  8
SOLBET_Wymiary_Opisy
100
AcDbLeader
  3
Solbet$7
 73
     0
 75
     1
 40
3.25
 41
27.75
 76
     3
 10
93.75387470214718
 20
108.5773508063879
 30
0.0
 10
77.94282441170725
 20
99.70631109642409
 30
0.0
 10
75.44282441170725
 20
99.70631109642409
 30
0.0
340
2D01
213
-0.625
223
0.625
233
0.0
1001
ACAD
1000
DSTYLE
1002
{
1070
   147
1040
0.625
1070
    77
1070
     1
1002
}
  0
MTEXT
  5
2D01
102
{ACAD_XDICTIONARY
360
33C0
102
}
102
{ACAD_REACTORS
330
2D00
102
}
330
1F
100
AcDbEntity
  8
SOLBET_Wymiary_Opisy
100
AcDbMText
 10
75.44282441170725
 20
102.9563110964241
 30
0.0
 40
2.5
 41
0.0
 71
     3
 72
     1
  1
Wieniec \U+017Celbetowy
  7
Solbet_2_5
 73
     1
 44
1.0
1001
ACAD
1000
MTEXTBEGIN
1070
    73
1070
     1
1070
    44
1040
1.0
1070
    74
1070
     0
1000
MTEXTEND
  0
INSERT
  5
2D02
330
1F
100
AcDbEntity
  8
SOLBET_Wymiary_Opisy
100
AcDbBlockReference
  2
_DotSmall
 10
96.61635302197943
 20
170.9196171619542
 30
0.0
 41
2.500000000000004
 42
2.5
 43
2.5
 50
144.3732643216744
1001
ACAD
1000
DSTYLE
1002
{
1070
   147
1040
0.625
1070
    77
1070
     1
1002
}
  0
LWPOLYLINE
  5
2D03
330
1F
100
AcDbEntity
  8
SOLBET_Wymiary_Opisy
100
AcDbPolyline
 90
        3
 70
     0
 43
0.0
 10
96.61635302197943
 20
170.9196171619542
 10
108.8786602500101
 20
162.1320098413626
 10
153.8426471831278
 20
162.1320098413626
1001
ACAD
1000
DSTYLE
1002
{
1070
   147
1040
0.625
1070
    77
1070
     1
1002
}
  0
MTEXT
  5
2D04
102
{ACAD_XDICTIONARY
360
33C2
102
}
330
1F
100
AcDbEntity
  8
SOLBET_Wymiary_Opisy
100
AcDbMText
 10
109.9552415912318
 20
169.7986765080293
 30
0.0
 40
2.5
 41
45.61266565198366
 71
     1
 72
     1
  1
Mur\U+0142ata przymocowana \P\U+015Brubami kotwionymi w wie\U+0144cu
  7
Solbet_2_5
 73
     1
 44
1.0
1001
ACAD
1000
MTEXTBEGIN
1070
    73
1070
     1
1070
    44
1040
1.0
1070
    74
1070
     0
1000
MTEXTEND
  0
INSERT
  5
2D05
330
1F
100
AcDbEntity
  8
SOLBET_Wymiary_Opisy
100
AcDbBlockReference
  2
_DotSmall
 10
96.25746565440898
 20
160.4643926659238
 30
0.0
 41
2.5
 42
2.5
 43
2.5
 50
144.3732643216745
1001
ACAD
1000
DSTYLE
1002
{
1070
   147
1040
0.625
1070
    77
1070
     1
1002
}
  0
LWPOLYLINE
  5
2D06
330
1F
100
AcDbEntity
  8
SOLBET_Wymiary_Opisy
100
AcDbPolyline
 90
        3
 70
     0
 43
0.0
 10
96.25746565440898
 20
160.4643926659238
 10
108.8786602500101
 20
150.3319633580909
 10
147.3851662110776
 20
150.3319633580909
1001
ACAD
1000
DSTYLE
1002
{
1070
   147
1040
0.625
1070
    77
1070
     1
1002
}
  0
MTEXT
  5
2D07
102
{ACAD_XDICTIONARY
360
33C4
102
}
330
1F
100
AcDbEntity
  8
SOLBET_Wymiary_Opisy
100
AcDbMText
 10
109.2292885458072
 20
157.841828732183
 30
0.0
 40
2.5
 41
45.61266565198366
 71
     1
 72
     1
  1
Wieniec pod mur\U+0142at\U+0119 \Pw kszta\U+0142tkach U SOLBET
  7
Solbet_2_5
 73
     1
 44
1.0
1001
ACAD
1000
MTEXTBEGIN
1070
    73
1070
     1
1070
    44
1040
1.0
1070
    74
1070
     0
1000
MTEXTEND
  0
LEADER
  5
2D08
330
1F
100
AcDbEntity
  8
SOLBET_Wymiary_Opisy
100
AcDbLeader
  3
Solbet$7
 73
     0
 74
     0
 75
     1
 40
3.25
 41
32.5
 76
     3
 10
101.219036013552
 20
117.8805183822639
 30
0.0
 10
109.3102180804132
 20
129.6711337239983
 30
0.0
 10
111.8102180804132
 20
129.6711337239983
 30
0.0
213
0.0
223
-0.2322806831707567
233
0.0
1001
ACAD
1000
DSTYLE
1002
{
1070
   147
1040
0.625
1070
    77
1070
     1
1002
}
  0
MTEXT
  5
2D09
102
{ACAD_XDICTIONARY
360
33C6
102
}
102
{ACAD_REACTORS
330
2D08
102
}
330
1F
100
AcDbEntity
  8
SOLBET_Wymiary_Opisy
100
AcDbMText
 10
109.5336379335382
 20
137.6237481614384
 30
0.0
 40
2.5
 41
37.73157436816473
 71
     1
 72
     1
  1
Zbrojenie g\U+00F3rne strefy przypodporowej
  7
Solbet_2_5
 73
     1
 44
1.0
1001
ACAD
1000
MTEXTBEGIN
1070
    73
1070
     1
1070
    44
1040
1.0
1070
    74
1070
     0
1000
MTEXTEND
1000
ACAD_MTEXT_DEFINED_HEIGHT_BEGIN
1070
    46
1040
8.726348223906139
1000
ACAD_MTEXT_DEFINED_HEIGHT_END
  0
MTEXT
  5
2D0A
102
{ACAD_XDICTIONARY
360
2D0B
102
}
330
1F
100
AcDbEntity
  8
SOLBET_Wymiary_Opisy @ 1
100
AcDbMText
 10
10.36686329877307
 20
290.7299988460193
 30
0.0
 40
5.0
 41
124.2624847080697
 71
     1
 72
     5
  1
{\LDETAL 91\P}Wzmocnienie \U+015Bciany kolankowej za pomoc\U+0105 s\U+0142up\U+00F3w w kszta\U+0142tkach U
  7
Solbet_5
 73
     1
 44
1.0
1001
AcadAnnotative
1000
AnnotativeData
1002
{
1070
     1
1070
     0
1002
}
1001
ACAD
1000
MTEXTBEGIN
1070
    73
1070
     1
1070
    44
1040
1.0
1070
    74
1070
     0
1000
MTEXTEND
  0
LWPOLYLINE
  5
2D0F
330
1F
100
AcDbEntity
  8
SOLBET_Ramka_05
100
AcDbPolyline
 90
        4
 70
     1
 43
0.0
 10
0.0
 20
0.0
 10
210.0
 20
0.0
 10
210.0
 20
297.0
 10
0.0
 20
297.0
  0
INSERT
  5
2D1A
330
1F
100
AcDbEntity
  8
SOLBET_Bloczki
100
AcDbBlockReference
  2
SOLBET_Plytka_80x240x590_brak_PRA
 10
82.8681010774132
 20
106.9503791304777
 30
0.0
  0
LINE
  5
2D1B
330
1F
100
AcDbEntity
  8
SOLBET_Bloczki
100
AcDbLine
 10
99.86810107740957
 20
169.6558810281811
 30
0.0
 11
99.8681010774132
 21
166.9503791304781
 31
0.0
  0
LINE
  5
2D1C
330
1F
100
AcDbEntity
  8
SOLBET_Bloczki
100
AcDbLine
 10
103.8681010774095
 20
171.5799658986638
 30
0.0
 11
103.8681010774095
 21
166.9503791304781
 31
0.0
  0
LWPOLYLINE
  5
2D1D
330
1F
100
AcDbEntity
  8
SOLBET_Zbrojenie_Konstrukcja
100
AcDbPolyline
 90
        5
 70
     0
 43
0.0
 10
98.74483913360444
 20
107.7003791304772
 10
98.74483913360444
 20
117.1582374042683
 10
90.73920783949569
 20
117.1582374042683
 10
90.73920783949569
 20
107.7003791304772
 10
98.74483913360444
 20
107.7003791304772
  0
LWPOLYLINE
  5
2D1E
330
1F
100
AcDbEntity
  8
SOLBET_Zbrojenie_Konstrukcja
100
AcDbPolyline
 90
        2
 70
     1
 43
0.3
 10
90.9085013306073
 20
165.9281623771068
 42
1.0
 10
91.20850133060292
 20
165.9281623771068
 42
1.0
  0
LWPOLYLINE
  5
2D1F
330
1F
100
AcDbEntity
  8
SOLBET_Zbrojenie_Konstrukcja
100
AcDbPolyline
 90
        2
 70
     1
 43
0.3
 10
98.30314529382002
 20
165.9065427020254
 42
1.0
 10
98.60314529382293
 20
165.9065427020254
 42
1.0
  0
LWPOLYLINE
  5
2D20
330
1F
100
AcDbEntity
  8
SOLBET_Zbrojenie_Konstrukcja
100
AcDbPolyline
 90
        2
 70
     1
 43
0.3
 10
98.30314529382002
 20
160.0166005307977
 42
1.0
 10
98.60314529382293
 20
160.0166005307977
 42
1.0
  0
LWPOLYLINE
  5
2D21
330
1F
100
AcDbEntity
  8
SOLBET_Zbrojenie_Konstrukcja
100
AcDbPolyline
 90
        2
 70
     1
 43
0.3
 10
90.9085013306073
 20
160.0166005307977
 42
1.0
 10
91.20850133060292
 20
160.0166005307977
 42
1.0
  0
LINE
  5
2D22
330
1F
100
AcDbEntity
  8
SOLBET_Zbrojenie_Konstrukcja
100
AcDbLine
 10
93.35342140187703
 20
164.8391958642713
 30
0.0
 11
91.93920783950005
 21
166.2534094266444
 31
0.0
  0
LINE
  5
2D23
330
1F
100
AcDbEntity
  8
SOLBET_Zbrojenie_Konstrukcja
100
AcDbLine
 10
92.15342140186539
 20
163.6391958642715
 30
0.0
 11
90.73920783949569
 21
165.0534094266446
 31
0.0
  0
LWPOLYLINE
  5
2D24
330
1F
100
AcDbEntity
  8
SOLBET_Zbrojenie_Konstrukcja
100
AcDbPolyline
 90
        5
 70
     0
 43
0.0
 10
98.74483913360444
 20
159.7003791304777
 10
98.74483913360444
 20
166.2534094266444
 10
90.73920783949569
 20
166.2534094266444
 10
90.73920783949569
 20
159.7003791304777
 10
98.74483913360444
 20
159.7003791304777
  0
LINE
  5
2D25
330
1F
100
AcDbEntity
  8
SOLBET_Zbrojenie_Konstrukcja
100
AcDbLine
 10
98.97794914128162
 20
166.0002084890635
 30
0.0
 11
98.97794914128162
 21
109.1653304802715
 31
0.0
  0
LINE
  5
2D26
330
1F
100
AcDbEntity
  8
SOLBET_Zbrojenie_Konstrukcja
100
AcDbLine
 10
90.60138782177517
 20
166.0002084890635
 30
0.0
 11
90.60138782177517
 21
109.1653304802715
 31
0.0
  0
LINE
  5
2D27
330
1F
100
AcDbEntity
  8
SOLBET_Zbrojenie_Konstrukcja
100
AcDbLine
 10
90.33760340419821
 20
121.4129517617274
 30
0.0
 11
99.22050244274277
 21
121.4129517617274
 31
0.0
  0
LINE
  5
2D28
330
1F
100
AcDbEntity
  8
SOLBET_Zbrojenie_Konstrukcja
100
AcDbLine
 10
90.33760340419821
 20
126.4129517617272
 30
0.0
 11
99.22050244274277
 21
126.4129517617272
 31
0.0
  0
LINE
  5
2D29
330
1F
100
AcDbEntity
  8
SOLBET_Zbrojenie_Konstrukcja
100
AcDbLine
 10
90.33760340419821
 20
131.4129517617272
 30
0.0
 11
99.22050244274277
 21
131.4129517617272
 31
0.0
  0
LINE
  5
2D2A
330
1F
100
AcDbEntity
  8
SOLBET_Zbrojenie_Konstrukcja
100
AcDbLine
 10
90.33760340419821
 20
141.4129517617274
 30
0.0
 11
99.22050244274277
 21
141.4129517617274
 31
0.0
  0
LINE
  5
2D2B
330
1F
100
AcDbEntity
  8
SOLBET_Zbrojenie_Konstrukcja
100
AcDbLine
 10
90.33760340419821
 20
151.4129517617272
 30
0.0
 11
99.22050244274277
 21
151.4129517617272
 31
0.0
  0
LINE
  5
2D2C
330
1F
100
AcDbEntity
  8
SOLBET_Zbrojenie_Konstrukcja
100
AcDbLine
 10
90.33760340419821
 20
156.4129517617272
 30
0.0
 11
99.22050244274277
 21
156.4129517617272
 31
0.0
  0
LINE
  5
2DD6
330
1F
100
AcDbEntity
  8
SOLBET_Izolacja
100
AcDbLine
 10
86.86810107741321
 20
106.9503791304777
 30
0.0
 11
86.86810107741925
 21
166.9503791304781
 31
0.0
  0
LINE
  5
2E08
330
1F
100
AcDbEntity
  8
SOLBET_Bloczki
100
AcDbLine
 10
82.8681010774132
 20
141.9503791304779
 30
0.0
 11
82.8681010774132
 21
118.9503791304777
 31
0.0
  0
MTEXT
  5
2E0F
102
{ACAD_XDICTIONARY
360
33C9
102
}
330
1F
100
AcDbEntity
  8
SOLBET_Wymiary_Opisy
100
AcDbMText
 10
74.20413462756369
 20
140.8341293067048
 30
0.0
 40
2.5
 41
32.99285629190717
 71
     3
 72
     1
  1
Kszta\U+0142tki U SOLBET  wmurowane pionowo
  7
Solbet_2_5
 73
     1
 44
1.0
1001
ACAD
1000
MTEXTBEGIN
1070
    73
1070
     1
1070
    44
1040
1.0
1070
    74
1070
     0
1000
MTEXTEND
  0
INSERT
  5
2E18
330
1F
100
AcDbEntity
  8
SOLBET_Wymiary_Opisy
100
AcDbBlockReference
  2
_DotSmall
 10
85.47261219937036
 20
129.405711412739
 30
0.0
 41
2.500000000000002
 42
2.5
 43
2.5
 50
317.1609815726558
1001
ACAD
1000
DSTYLE
1002
{
1070
   147
1040
0.625
1070
    77
1070
     1
1002
}
  0
LWPOLYLINE
  5
2E19
330
1F
100
AcDbEntity
  8
SOLBET_Wymiary_Opisy
100
AcDbPolyline
 90
        3
 70
     0
 43
0.0
 10
85.47261219937036
 20
129.405711412739
 10
79.26149214342308
 20
133.4174626400381
 10
43.82735561311505
 20
133.4174626400381
1001
ACAD
1000
DSTYLE
1002
{
1070
   147
1040
0.625
1070
    77
1070
     1
1002
}
  0
INSERT
  5
2E1A
330
1F
100
AcDbEntity
  8
SOLBET_Wymiary_Opisy
100
AcDbBlockReference
  2
_DotSmall
 10
95.08124048248465
 20
119.387817791142
 30
0.0
 41
2.5
 42
2.5
 43
2.5
 50
322.6857626237731
1001
ACAD
1000
DSTYLE
1002
{
1070
   147
1040
0.625
1070
    77
1070
     1
1002
}
  0
LWPOLYLINE
  5
2E1B
330
1F
100
AcDbEntity
  8
SOLBET_Wymiary_Opisy
100
AcDbPolyline
 90
        3
 70
     0
 43
0.0
 10
95.08124048248465
 20
119.387817791142
 10
79.18719810285802
 20
128.2753460111885
 10
47.04314530219562
 20
128.2753460111886
1001
ACAD
1000
DSTYLE
1002
{
1070
   147
1040
0.625
1070
    77
1070
     1
1002
}
  0
INSERT
  5
2E1C
330
1F
100
AcDbEntity
  8
SOLBET_Wymiary_Opisy
100
AcDbBlockReference
  2
_DotSmall
 10
87.32137768510131
 20
115.7731807156479
 30
0.0
 41
2.499999999999998
 42
2.5
 43
2.5
 50
319.4114525775918
1001
ACAD
1000
DSTYLE
1002
{
1070
   147
1040
0.625
1070
    77
1070
     1
1002
}
  0
LWPOLYLINE
  5
2E1D
330
1F
100
AcDbEntity
  8
SOLBET_Wymiary_Opisy
100
AcDbPolyline
 90
        3
 70
     0
 43
0.0
 10
87.32137768510131
 20
115.7731807156479
 10
79.18719810285802
 20
122.7421959654879
 10
43.65482291310377
 20
122.7421959654879
1001
ACAD
1000
DSTYLE
1002
{
1070
   147
1040
0.625
1070
    77
1070
     1
1002
}
  0
INSERT
  5
2E1E
330
1F
100
AcDbEntity
  8
SOLBET_Wymiary_Opisy
100
AcDbBlockReference
  2
_DotSmall
 10
85.70814569187787
 20
109.1993753404255
 30
0.0
 41
2.500000000000005
 42
2.5
 43
2.5
 50
310.71187423934
1001
ACAD
1000
DSTYLE
1002
{
1070
   147
1040
0.625
1070
    77
1070
     1
1002
}
  0
LWPOLYLINE
  5
2E1F
330
1F
100
AcDbEntity
  8
SOLBET_Wymiary_Opisy
100
AcDbPolyline
 90
        3
 70
     0
 43
0.0
 10
85.70814569187787
 20
109.1993753404255
 10
79.18719810285802
 20
116.7774989913995
 10
51.12168173395094
 20
116.7774989913995
1001
ACAD
1000
DSTYLE
1002
{
1070
   147
1040
0.625
1070
    77
1070
     1
1002
}
  0
LWPOLYLINE
  5
2E20
330
1F
100
AcDbEntity
  8
SOLBET_Wymiary_Opisy
100
AcDbPolyline
 90
        3
 70
     0
 43
0.0
 10
96.28257573063329
 20
151.2567540719779
 10
108.8786602500101
 20
140.1541709900602
 10
147.3300154654555
 20
140.1541709900602
1001
ACAD
1000
DSTYLE
1002
{
1070
   147
1040
0.625
1070
    77
1070
     1
1002
}
  0
MTEXT
  5
2E21
102
{ACAD_XDICTIONARY
360
33CB
102
}
330
1F
100
AcDbEntity
  8
SOLBET_Wymiary_Opisy
100
AcDbMText
 10
109.2292885458072
 20
147.6640363641523
 30
0.0
 40
2.5
 41
45.61266565198366
 71
     1
 72
     1
  1
S\U+0142up \U+017Celbetowy \Pw ksztaltkach U SOLBET
  7
Solbet_2_5
 73
     1
 44
1.0
1001
ACAD
1000
MTEXTBEGIN
1070
    73
1070
     1
1070
    44
1040
1.0
1070
    74
1070
     0
1000
MTEXTEND
  0
INSERT
  5
2E22
330
1F
100
AcDbEntity
  8
SOLBET_Wymiary_Opisy
100
AcDbBlockReference
  2
_DotSmall
 10
96.28661852879625
 20
151.4129517617272
 30
0.0
 41
2.5
 42
2.5
 43
2.5
 50
144.3732643216745
1001
ACAD
1000
DSTYLE
1002
{
1070
   147
1040
0.625
1070
    77
1070
     1
1002
}
  0
LINE
  5
2E69
330
1F
100
AcDbEntity
  8
SOLBET_Bloczki
100
AcDbLine
 10
103.8681003673508
 20
118.9503791304777
 30
0.0
 11
103.8681007377978
 21
129.9503779599021
 31
0.0
  0
LINE
  5
2E6A
330
1F
100
AcDbEntity
  8
SOLBET_Bloczki
100
AcDbLine
 10
103.8681007377978
 20
129.9503779599021
 30
0.0
 11
82.8681007377976
 21
129.9503779599018
 31
0.0
  0
LINE
  5
2E6B
330
1F
100
AcDbEntity
  8
SOLBET_Bloczki
100
AcDbLine
 10
82.8681007377976
 20
129.9503779599018
 30
0.0
 11
82.8681007377976
 21
118.9503791304777
 31
0.0
  0
LINE
  5
2E75
330
1F
100
AcDbEntity
  8
SOLBET_Bloczki
100
AcDbLine
 10
99.86810090760577
 20
129.9503779599018
 30
0.0
 11
99.86810090543357
 21
118.9503791579255
 31
0.0
  0
LINE
  5
2EEC
330
1F
100
AcDbEntity
  8
SOLBET_Bloczki
100
AcDbLine
 10
103.868100997914
 20
166.9503779599016
 30
0.0
 11
103.868100997914
 21
154.9503779599016
 31
0.0
  0
LINE
  5
2EEE
330
1F
100
AcDbEntity
  8
SOLBET_Bloczki
100
AcDbLine
 10
82.86810099791404
 20
154.9503779599016
 30
0.0
 11
82.86810099791404
 21
166.9503779599016
 31
0.0
  0
LINE
  5
2EEF
330
1F
100
AcDbEntity
  8
SOLBET_Bloczki
100
AcDbLine
 10
82.86810099791404
 20
166.9503779599016
 30
0.0
 11
86.86810099791404
 21
166.9503779599016
 31
0.0
  0
LINE
  5
2EF0
330
1F
100
AcDbEntity
  8
SOLBET_Bloczki
100
AcDbLine
 10
103.868100997914
 20
166.9503779599016
 30
0.0
 11
99.86810099791405
 21
166.9503779599016
 31
0.0
  0
LINE
  5
2EF1
330
1F
100
AcDbEntity
  8
SOLBET_Bloczki
 48
0.08
100
AcDbLine
 10
99.86810099791405
 20
158.9503779599016
 30
0.0
 11
86.86810099791404
 21
158.9503779599016
 31
0.0
  0
LINE
  5
2EF2
330
1F
100
AcDbEntity
  8
SOLBET_Bloczki
100
AcDbLine
 10
99.86810099791405
 20
166.9503779599016
 30
0.0
 11
99.86810099791405
 21
158.9503779599016
 31
0.0
  0
LINE
  5
2EF3
330
1F
100
AcDbEntity
  8
SOLBET_Bloczki
100
AcDbLine
 10
86.86810099791404
 20
166.9503779599016
 30
0.0
 11
86.86810099791404
 21
158.9503779599016
 31
0.0
  0
LINE
  5
2EFC
330
1F
100
AcDbEntity
  8
SOLBET_Bloczki
  6
CENTER2
 48
0.08
100
AcDbLine
 10
103.868100997914
 20
154.9503779599016
 30
0.0
 11
82.86810099791404
 21
154.9503779599016
 31
0.0
  0
POINT
  5
2F9E
330
1F
100
AcDbEntity
  8
SOLBET_Bloczki
  6
ACAD_ISO04W100
370
   100
100
AcDbPoint
 10
0.0
 20
0.0
 30
0.0
  0
HATCH
  5
2FD3
330
1F
100
AcDbEntity
  8
SOLBET_Zbrojenie_Konstrukcja
  6
ACAD_ISO04W100
370
   100
100
AcDbHatch
 10
0.0
 20
0.0
 30
0.0
210
0.0
220
0.0
230
1.0
  2
SOLID
 70
     1
 71
     1
 91
        2
 92
        1
 93
       16
 72
     2
 10
90.79957318433756
 20
119.2498328814401
 40
0.1527030440025546
 50
232.4805170870749
 51
252.3561576040716
 73
     1
 72
     2
 10
90.85276515978973
 20
119.4170711199544
 40
0.3281966754365049
 50
252.3561576032582
 51
262.4947782688142
 73
     1
 72
     2
 10
90.88803314562754
 20
119.6847695400931
 40
0.5982082955008822
 50
262.4947782689663
 51
270.0000000000613
 73
     1
 72
     2
 10
90.88803314563056
 20
119.6847695401221
 40
0.5982082955299859
 50
269.9999999997727
 51
277.5052217308505
 73
     1
 72
     2
 10
90.92330113146882
 20
119.4170711199323
 40
0.3281966754147731
 50
277.5052217319433
 51
287.6438423975501
 73
     1
 72
     2
 10
90.97649310691771
 20
119.2498328814422
 40
0.1527030440048919
 50
287.6438423960804
 51
307.51948291277
 73
     1
 72
     2
 10
91.05532458325983
 20
119.1471700022872
 40
0.0232655362311873
 50
307.5194829128068
 51
359.9999999994401
 73
     1
 72
     2
 10
91.05532458326017
 20
119.1471700022864
 40
0.023265536230852
 50
0.0000000012948859
 51
52.48051708762496
 73
     1
 72
     2
 10
90.97649310691773
 20
119.0445071231341
 40
0.1527030440026826
 50
52.48051708660089
 51
72.3561576036612
 73
     1
 72
     2
 10
90.92330113146996
 20
118.877268884635
 40
0.3281966754207808
 50
72.35615760299172
 51
82.49477826839507
 73
     1
 72
     2
 10
90.88803314562749
 20
118.6095704644577
 40
0.5982082955240744
 50
82.49477826877841
 51
89.99999999993331
 73
     1
 72
     2
 10
90.88803314562811
 20
118.6095704644723
 40
0.5982082955094655
 50
89.99999999999319
 51
97.50522173098033
 73
     1
 72
     2
 10
90.85276515978897
 20
118.8772688846229
 40
0.3281966754330671
 50
97.50522173113218
 51
107.6438423967946
 73
     1
 72
     2
 10
90.79957318434049
 20
119.0445071231421
 40
0.1527030439955751
 50
107.6438423979141
 51
127.5194829146003
 73
     1
 72
     2
 10
90.72074170799961
 20
119.1471700022856
 40
0.0232655362317541
 50
127.51948290997
 51
174.8627062164613
 73
     1
 72
     2
 10
90.72074170799801
 20
119.1471700022848
 40
0.0232655362302315
 50
174.8627062142977
 51
232.4805170807896
 73
     1
 97
        1
330
2C83
 92
        1
 93
       16
 72
     2
 10
99.5046580873263
 20
119.2498328814401
 40
0.1527030440025546
 50
52.48051708707492
 51
72.35615760407163
 73
     0
 72
     2
 10
99.45146611187414
 20
119.4170711199544
 40
0.3281966754365049
 50
72.35615760325822
 51
82.49477826881424
 73
     0
 72
     2
 10
99.4161981260345
 20
119.6847695401208
 40
0.5982082955286077
 50
82.4947782691404
 51
90.00000000023545
 73
     0
 72
     2
 10
99.4161981260315
 20
119.6847695400944
 40
0.5982082955022606
 50
89.99999999994692
 51
97.5052217310246
 73
     0
 72
     2
 10
99.38093014019505
 20
119.4170711199323
 40
0.3281966754147731
 50
97.50522173194333
 51
107.6438423975501
 73
     0
 72
     2
 10
99.32773816474615
 20
119.2498328814422
 40
0.1527030440048919
 50
107.6438423960804
 51
127.51948291277
 73
     0
 72
     2
 10
99.24890668840404
 20
119.1471700022872
 40
0.0232655362311873
 50
127.5194829128067
 51
179.99999999944
 73
     0
 72
     2
 10
99.24890668840369
 20
119.1471700022864
 40
0.023265536230852
 50
180.0000000012949
 51
232.4805170876249
 73
     0
 72
     2
 10
99.32773816474615
 20
119.0445071231341
 40
0.1527030440026826
 50
232.4805170866009
 51
252.3561576036612
 73
     0
 72
     2
 10
99.38093014019392
 20
118.877268884635
 40
0.3281966754207808
 50
252.3561576029917
 51
262.4947782683951
 73
     0
 72
     2
 10
99.41619812603455
 20
118.6095704644854
 40
0.598208295496349
 50
262.4947782686042
 51
269.9999999997591
 73
     0
 72
     2
 10
99.41619812603393
 20
118.6095704644446
 40
0.598208295537205
 50
269.999999999819
 51
277.505221730806
 73
     0
 72
     2
 10
99.45146611187489
 20
118.8772688846229
 40
0.3281966754330671
 50
277.5052217311322
 51
287.6438423967946
 73
     0
 72
     2
 10
99.5046580873252
 20
119.0445071231318
 40
0.1527030440049097
 50
287.6438423960839
 51
307.5194829127711
 73
     0
 72
     2
 10
99.58348956366608
 20
119.1471700022898
 40
0.0232655362295707
 50
307.5194829197467
 51
354.8627062262383
 73
     0
 72
     2
 10
99.58348956366585
 20
119.1471700022848
 40
0.0232655362302315
 50
354.8627062142978
 51
412.4805170807896
 73
     0
 97
        1
330
2C81
 75
     0
 76
     1
 98
        1
 10
15.11926859764435
 20
0.0
1001
ACAD
1010
0.0
1020
0.0
1030
0.0
  0
LINE
  5
2FDA
330
1F
100
AcDbEntity
  8
SOLBET_Zbrojenie_Konstrukcja
  6
ACAD_ISO04W100
100
AcDbLine
 10
91.07859011949102
 20
119.1471700022873
 30
0.0
 11
99.22564115217284
 21
119.1471700022873
 31
0.0
  0
ARC
  5
311F
330
1F
100
AcDbEntity
  8
SOLBET_Stolarka_Okna
  6
ByBlock
100
AcDbCircle
 10
98.36810107741351
 20
176.4837124638034
 30
0.0
 40
11.43333333333334
100
AcDbArc
 50
232.2479986938279
 51
234.3731609725684
  0
LINE
  5
3120
330
1F
100
AcDbEntity
  8
SOLBET_Izolacja
100
AcDbLine
 10
92.7068882727878
 20
174.1503791304702
 30
0.0
 11
90.17299320685634
 21
179.4181198726893
 31
0.0
  0
LINE
  5
3121
330
1F
100
AcDbEntity
  8
SOLBET_Izolacja
100
AcDbLine
 10
82.86810115691237
 20
177.5688262008575
 30
0.0
 11
82.86810115691237
 21
166.9503803010542
 31
0.0
  0
LINE
  5
3122
330
1F
100
AcDbEntity
  8
SOLBET_Izolacja
100
AcDbLine
 10
91.3681010774095
 20
166.9503791304777
 30
0.0
 11
86.86810107741321
 21
166.9503791304781
 31
0.0
  0
LINE
  5
3123
330
1F
100
AcDbEntity
  8
SOLBET_Izolacja
  6
BATTING
 48
0.4200000000000001
100
AcDbLine
 10
87.12062014434032
 20
166.9490660278014
 30
0.0
 11
87.12062014434032
 21
179.416806770013
 31
0.0
  0
LINE
  5
3124
330
1F
100
AcDbEntity
  8
SOLBET_Izolacja
100
AcDbLine
 10
90.17299320685637
 20
179.4181198726892
 30
0.0
 11
86.71261695806402
 21
179.4181198726892
 31
0.0
  0
LINE
  5
3125
330
1F
100
AcDbEntity
  8
SOLBET_Izolacja
100
AcDbLine
 10
91.36810107740956
 20
167.1903791304779
 30
0.0
 11
91.36810107740952
 21
176.9335977211196
 31
0.0
  0
LINE
  5
3126
330
1F
100
AcDbEntity
  8
SOLBET_Wymiary_Opisy
100
AcDbLine
 10
50.65180887672534
 20
162.0721060610208
 30
0.0
 11
50.65180887672534
 21
152.6948236750854
 31
0.0
  0
LINE
  5
3127
330
1F
100
AcDbEntity
  8
SOLBET_Wymiary_Opisy
100
AcDbLine
 10
59.65180887672534
 20
153.8448236750854
 30
0.0
 11
59.65180887672534
 21
152.6948236750854
 31
0.0
  0
LINE
  5
3128
330
1F
100
AcDbEntity
  8
SOLBET_Wymiary_Opisy
100
AcDbLine
 10
68.65180887672534
 20
153.8448236750854
 30
0.0
 11
68.65180887672534
 21
152.6948236750854
 31
0.0
  0
LINE
  5
3129
330
1F
100
AcDbEntity
  8
SOLBET_Wymiary_Opisy
100
AcDbLine
 10
75.65180887672534
 20
153.8448236750854
 30
0.0
 11
75.65180887672534
 21
152.6948236750854
 31
0.0
  0
LINE
  5
312A
330
1F
100
AcDbEntity
  8
SOLBET_Wymiary_Opisy
100
AcDbLine
 10
50.65180887672534
 20
153.8448236750854
 30
0.0
 11
81.3681010774132
 21
153.8448236750854
 31
0.0
  0
LINE
  5
312B
330
1F
100
AcDbEntity
  8
SOLBET_Zbrojenie_Konstrukcja
100
AcDbLine
 10
68.65180887672534
 20
153.8448236750854
 30
0.0
 11
68.65180887672534
 21
152.6948236750854
 31
0.0
  0
LINE
  5
312C
330
1F
100
AcDbEntity
  8
SOLBET_Zbrojenie_Konstrukcja
100
AcDbLine
 10
68.65180887672534
 20
152.6948236750854
 30
0.0
 11
75.65180887672534
 21
152.6948236750854
 31
0.0
  0
LINE
  5
312D
330
1F
100
AcDbEntity
  8
SOLBET_Zbrojenie_Konstrukcja
100
AcDbLine
 10
75.65180887672534
 20
152.6948236750854
 30
0.0
 11
75.65180887672534
 21
153.8448236750854
 31
0.0
  0
LINE
  5
312E
330
1F
100
AcDbEntity
  8
SOLBET_Zbrojenie_Konstrukcja
100
AcDbLine
 10
75.65180887672531
 20
153.8448236750854
 30
0.0
 11
68.65180887672531
 21
153.8448236750854
 31
0.0
  0
LINE
  5
312F
330
1F
100
AcDbEntity
  8
SOLBET_Zbrojenie_Konstrukcja
100
AcDbLine
 10
68.65180887672534
 20
153.8448236750854
 30
0.0
 11
75.65180887672534
 21
152.6948236750854
 31
0.0
  0
LINE
  5
3130
330
1F
100
AcDbEntity
  8
SOLBET_Zbrojenie_Konstrukcja
100
AcDbLine
 10
75.65180887672534
 20
153.8448236750854
 30
0.0
 11
68.65180887672534
 21
152.6948236750854
 31
0.0
  0
LWPOLYLINE
  5
3131
330
1F
100
AcDbEntity
  8
SOLBET_Emulsje_Folie
100
AcDbPolyline
 90
        4
 70
     1
 43
0.0
 10
90.34523048794715
 20
167.1903791304779
 10
99.39097166687197
 20
167.1903791304779
 10
99.39097166687197
 20
166.9503791304781
 10
90.34523048794715
 20
166.9503791304781
  0
LINE
  5
3132
330
1F
100
AcDbEntity
  8
SOLBET_Emulsje_Folie
  6
DASHED2
 48
0.3
370
    30
100
AcDbLine
 10
90.34523048794715
 20
167.0703791304789
 30
0.0
 11
99.39097166687197
 21
167.0703791304789
 31
0.0
  0
LINE
  5
3133
330
1F
100
AcDbEntity
  8
SOLBET_Wymiary_Opisy
100
AcDbLine
 10
76.3681010774132
 20
153.8448236750854
 30
0.0
 11
76.3681010774132
 21
164.4551018683667
 31
0.0
  0
LINE
  5
3134
330
1F
100
AcDbEntity
  8
SOLBET_Wymiary_Opisy
100
AcDbLine
 10
81.3681010774132
 20
152.6948236750867
 30
0.0
 11
81.3681010774132
 21
166.8602079564699
 31
0.0
  0
LINE
  5
3135
330
1F
100
AcDbEntity
  8
SOLBET_Wymiary_Opisy
100
AcDbLine
 10
49.5018088767253
 20
152.6948236750853
 30
0.0
 11
49.5018088767253
 21
161.518931660756
 31
0.0
  0
LINE
  5
3136
330
1F
100
AcDbEntity
  8
SOLBET_Wymiary_Opisy
100
AcDbLine
 10
64.39299897739799
 20
158.6948236750858
 30
0.0
 11
81.3681010774132
 21
158.6948236750862
 31
0.0
  0
LINE
  5
3137
330
1F
100
AcDbEntity
  8
SOLBET_Wymiary_Opisy
100
AcDbLine
 10
49.5018088767253
 20
152.6948236750853
 30
0.0
 11
81.3681010774132
 21
152.6948236750867
 31
0.0
  0
LINE
  5
3138
330
1F
100
AcDbEntity
  8
SOLBET_Wymiary_Opisy
100
AcDbLine
 10
54.31028365770656
 20
153.8448236750854
 30
0.0
 11
91.3681010774132
 21
171.6704201326764
 31
0.0
  0
INSERT
  5
3139
330
1F
100
AcDbEntity
  8
SOLBET_Wymiary_Opisy
100
AcDbBlockReference
  2
_DotSmall
 10
58.06095022357863
 20
153.8448236750854
 30
0.0
 41
2.499999999999993
 42
2.5
 43
2.5
 50
42.1178892405643
1001
ACAD
1000
DSTYLE
1002
{
1070
   147
1040
0.625
1070
    77
1070
     1
1002
}
  0
LINE
  5
313A
330
1F
100
AcDbEntity
  8
SOLBET_Wymiary_Opisy
100
AcDbLine
 10
58.06095022357863
 20
153.8448236750854
 30
0.0
 11
42.69508277071693
 21
175.2395188529191
 31
0.0
1001
ACAD
1000
DSTYLE
1002
{
1070
   147
1040
0.625
1070
    77
1070
     1
1002
}
  0
MTEXT
  5
313B
330
1F
100
AcDbEntity
  8
SOLBET_Wymiary_Opisy
100
AcDbMText
 10
40.96634114010635
 20
179.0900406779615
 30
0.0
 40
2.5
 41
0.0
 71
     3
 72
     1
  1
Podbitka
  7
Solbet_2_5
 73
     1
 44
1.0
1001
ACAD
1000
MTEXTBEGIN
1070
    73
1070
     1
1070
    44
1040
1.0
1070
    74
1070
     0
1000
MTEXTEND
  0
LWPOLYLINE
  5
313C
330
1F
100
AcDbEntity
  8
SOLBET_Wymiary_Opisy
100
AcDbPolyline
 90
        3
 70
     0
 43
0.0
 10
69.72725103013544
 20
153.3387287301834
 10
56.86546433266091
 20
145.3844660520678
 10
23.60805972157937
 20
145.3630558244184
1001
ACAD
1000
DSTYLE
1002
{
1070
   147
1040
0.625
1070
    77
1070
     1
1002
}
  0
MTEXT
  5
313D
330
1F
100
AcDbEntity
  8
SOLBET_Wymiary_Opisy
100
AcDbMText
 10
54.63976981905876
 20
148.5482486986893
 30
0.0
 40
2.5
 41
0.0
 71
     3
 72
     1
  1
Kratka wentylacyjna
  7
Solbet_2_5
 73
     1
 44
1.0
1001
ACAD
1000
MTEXTBEGIN
1070
    73
1070
     1
1070
    44
1040
1.0
1070
    74
1070
     0
1000
MTEXTEND
  0
INSERT
  5
313E
330
1F
100
AcDbEntity
  8
SOLBET_Wymiary_Opisy
100
AcDbBlockReference
  2
_DotSmall
 10
69.72725103013544
 20
153.3387287301834
 30
0.0
 41
2.499999999999993
 42
2.5
 43
2.5
 50
42.1178892405643
1001
ACAD
1000
DSTYLE
1002
{
1070
   147
1040
0.625
1070
    77
1070
     1
1002
}
  0
LINE
  5
313F
330
1F
100
AcDbEntity
  8
SOLBET_Wymiary_Opisy
100
AcDbLine
 10
42.69508277071693
 20
175.2395188529191
 30
0.0
 11
27.82070285518418
 21
175.2395188529191
 31
0.0
  0
LINE
  5
3140
330
1F
100
AcDbEntity
  8
SOLBET_Wymiary_Opisy
  6
Continuous
100
AcDbLine
 10
48.82991662199791
 20
162.9157354401175
 30
0.0
 11
48.33141591687734
 21
163.9520737280317
 31
0.0
  0
LINE
  5
3145
330
1F
100
AcDbEntity
  8
SOLBET_Izolacja
100
AcDbLine
 10
90.17299320685634
 20
179.4181198726893
 30
0.0
 11
164.3670225533175
 21
214.7702401797476
 31
0.0
  0
LINE
  5
31B1
330
1F
100
AcDbEntity
  8
SOLBET_Wymiary_Opisy
100
AcDbLine
 10
99.8681010774132
 20
166.9503791304781
 30
0.0
 11
89.8681010774132
 21
166.9503791304778
 31
0.0
  0
ARC
  5
31B2
330
1F
100
AcDbEntity
  8
SOLBET_Stolarka_Okna
  6
ByBlock
100
AcDbCircle
 10
98.36810107741351
 20
176.4837124638034
 30
0.0
 40
3.033333333333342
100
AcDbArc
 50
230.2848627681367
 51
270.0
  0
ARC
  5
31B3
330
1F
100
AcDbEntity
  8
SOLBET_Stolarka_Okna
  6
ByBlock
100
AcDbCircle
 10
98.36810107741351
 20
176.4837124638034
 30
0.0
 40
4.433333333333342
100
AcDbArc
 50
211.7568638592842
 51
270.0
  0
ARC
  5
31B4
330
1F
100
AcDbEntity
  8
SOLBET_Stolarka_Okna
  6
ByBlock
100
AcDbCircle
 10
98.36810107741351
 20
176.4837124638034
 30
0.0
 40
5.833333333333342
100
AcDbArc
 50
203.5781784781894
 51
270.0
  0
ARC
  5
31B5
330
1F
100
AcDbEntity
  8
SOLBET_Stolarka_Okna
  6
ByBlock
100
AcDbCircle
 10
98.36810107741351
 20
176.4837124638034
 30
0.0
 40
7.233333333333343
100
AcDbArc
 50
198.8190633689819
 51
270.0
  0
ARC
  5
31B6
330
1F
100
AcDbEntity
  8
SOLBET_Stolarka_Okna
  6
ByBlock
100
AcDbCircle
 10
98.36810107741351
 20
176.4837124638034
 30
0.0
 40
8.633333333333343
100
AcDbArc
 50
215.8247743686514
 51
270.0
  0
ARC
  5
31B7
330
1F
100
AcDbEntity
  8
SOLBET_Stolarka_Okna
  6
ByBlock
100
AcDbCircle
 10
98.36810107741351
 20
176.4837124638034
 30
0.0
 40
10.03333333333334
100
AcDbArc
 50
225.7592812097981
 51
247.8569742107826
  0
ARC
  5
31B8
330
1F
100
AcDbEntity
  8
0
  6
ByBlock
 62
     0
100
AcDbCircle
 10
98.36810107741351
 20
176.4837124638034
 30
0.0
 40
11.43333333333334
100
AcDbArc
 50
232.2479986938277
 51
234.3731609725678
  0
LINE
  5
323B
330
1F
100
AcDbEntity
  8
SOLBET_Zbrojenie_Konstrukcja
100
AcDbLine
 10
68.65180887672534
 20
152.6948236750854
 30
0.0
 11
75.65180887671886
 21
152.6948236750864
 31
0.0
  0
INSERT
  5
3301
330
1F
100
AcDbEntity
  8
SOLBET_Bloczki
100
AcDbBlockReference
  2
SOLBET_Ksztaltka_U_420x240x500_KG400_GOR
 10
103.8681017518412
 20
129.9503766971728
 30
0.0
 50
90.0
  0
MTEXT
  5
337A
102
{ACAD_XDICTIONARY
360
337B
102
}
330
1F
100
AcDbEntity
  8
SOLBET_Wymiary_Opisy
100
AcDbMText
 10
176.9024892334916
 20
7.273150535415538
 30
0.0
 40
5.0
 41
0.0
 71
     1
 72
     5
  1
Skala 1:20
  7
Solbet_5
 73
     1
 44
1.0
1001
ACAD
1000
MTEXTBEGIN
1070
    73
1070
     1
1070
    44
1040
1.0
1070
    74
1070
     0
1000
MTEXTEND
1000
ACAD_MTEXT_DEFINED_HEIGHT_BEGIN
1070
    46
1040
5.395147572682731
1000
ACAD_MTEXT_DEFINED_HEIGHT_END
  0
LWPOLYLINE
  5
337D
330
1F
100
AcDbEntity
  8
SOLBET_Ramka_05
100
AcDbPolyline
 90
        4
 70
     1
 43
0.0
 10
173.8838231125778
 20
9.804221198935465
 10
210.0
 20
9.804221198935465
 10
210.0
 20
0.0
 10
173.8838231125779
 20
0.0
  0
ENDSEC
  0
SECTION
  2
OBJECTS
  0
DICTIONARY
  5
C
330
0
100
AcDbDictionary
281
     1
  3
ACAD_COLOR
350
6B
  3
ACAD_GROUP
350
D
  3
ACAD_LAYOUT
350
1A
  3
ACAD_MATERIAL
350
6A
  3
ACAD_MLEADERSTYLE
350
12D
  3
ACAD_MLINESTYLE
350
17
  3
ACAD_PLOTSETTINGS
350
19
  3
ACAD_PLOTSTYLENAME
350
E
  3
ACAD_SCALELIST
350
10C
  3
ACAD_TABLESTYLE
350
7E
  3
ACAD_VISUALSTYLE
350
EF
  3
ACDB_RECOMPOSE_DATA
350
15D
  3
AcDbVariableDictionary
350
5E
  3
DWGPROPS
350
33B1
  0
DICTIONARY
  5
443
330
8
100
AcDbDictionary
280
     1
281
     1
  0
DICTIONARY
  5
3E5
330
2
100
AcDbDictionary
280
     1
281
     1
  3
ACAD_LAYERFILTERS
360
1883
  3
ACLYDICTIONARY
360
1882
  0
DICTIONARY
  5
13C
330
10
100
AcDbDictionary
280
     1
281
     1
  3
ADSK_XREC_LAYER_RECONCILED
360
3F4
  0
DICTIONARY
  5
403
330
3DD
100
AcDbDictionary
280
     1
281
     1
  3
ADSK_XREC_LAYER_RECONCILED
360
404
  0
DICTIONARY
  5
405
330
3DF
100
AcDbDictionary
280
     1
281
     1
  3
ADSK_XREC_LAYER_RECONCILED
360
406
  0
DICTIONARY
  5
409
330
3E1
100
AcDbDictionary
280
     1
281
     1
  3
ADSK_XREC_LAYER_RECONCILED
360
40A
  0
DICTIONARY
  5
40B
330
3E2
100
AcDbDictionary
280
     1
281
     1
  3
ADSK_XREC_LAYER_RECONCILED
360
40C
  0
DICTIONARY
  5
40F
330
3E4
100
AcDbDictionary
280
     1
281
     1
  3
ADSK_XREC_LAYER_RECONCILED
360
410
  0
DICTIONARY
  5
411
330
3E8
100
AcDbDictionary
280
     1
281
     1
  3
ADSK_XREC_LAYER_RECONCILED
360
412
  0
DICTIONARY
  5
32B8
330
32B7
100
AcDbDictionary
280
     1
281
     1
  3
ASDK_XREC_ANNO_SCALE_INFO
360
32B9
  0
DICTIONARY
  5
4A3
330
1F
100
AcDbDictionary
280
     1
281
     1
  3
ACAD_SORTENTS
360
4A4
  0
DICTIONARY
  5
290C
330
2902
100
AcDbDictionary
280
     1
281
     1
  3
ACAD_SORTENTS
360
290D
  0
DICTIONARY
  5
2D48
330
2D3C
100
AcDbDictionary
280
     1
281
     1
  3
ACAD_SORTENTS
360
2DE2
  0
DICTIONARY
  5
2E5E
330
2E50
100
AcDbDictionary
280
     1
281
     1
  3
ACAD_SORTENTS
360
2E5F
  0
DICTIONARY
  5
32FD
330
32F1
100
AcDbDictionary
280
     1
281
     1
  3
ACAD_SORTENTS
360
32FE
  0
DICTIONARY
  5
33BE
330
2CFF
100
AcDbDictionary
280
     1
281
     1
  3
ACAD_MTEXT_RT
360
33BF
  0
DICTIONARY
  5
33C0
330
2D01
100
AcDbDictionary
280
     1
281
     1
  3
ACAD_MTEXT_RT
360
33C1
  0
DICTIONARY
  5
33C2
330
2D04
100
AcDbDictionary
280
     1
281
     1
  3
ACAD_MTEXT_RT
360
33C3
  0
DICTIONARY
  5
33C4
330
2D07
100
AcDbDictionary
280
     1
281
     1
  3
ACAD_MTEXT_RT
360
33C5
  0
DICTIONARY
  5
33C6
330
2D09
100
AcDbDictionary
280
     1
281
     1
  3
ACAD_MTEXT_RT
360
33C7
  0
DICTIONARY
  5
2D0B
330
2D0A
100
AcDbDictionary
280
     1
281
     1
  3
ACAD_MTEXT_RT
360
33C8
  3
AcDbContextDataManager
360
2D0C
  0
DICTIONARY
  5
33C9
330
2E0F
100
AcDbDictionary
280
     1
281
     1
  3
ACAD_MTEXT_RT
360
33CA
  0
DICTIONARY
  5
33CB
330
2E21
100
AcDbDictionary
280
     1
281
     1
  3
ACAD_MTEXT_RT
360
33CC
  0
DICTIONARY
  5
337B
330
337A
100
AcDbDictionary
280
     1
281
     1
  3
ACAD_MTEXT_2008_RT
360
337C
  0
DICTIONARY
  5
6B
102
{ACAD_REACTORS
330
C
102
}
330
C
100
AcDbDictionary
281
     1
  0
DICTIONARY
  5
D
102
{ACAD_REACTORS
330
C
102
}
330
C
100
AcDbDictionary
281
     1
  0
DICTIONARY
  5
1A
102
{ACAD_REACTORS
330
C
102
}
330
C
100
AcDbDictionary
281
     1
  3
Arkusz1
350
D3
  3
Arkusz2
350
D7
  3
Model
350
22
  0
DICTIONARY
  5
6A
102
{ACAD_REACTORS
330
C
102
}
330
C
100
AcDbDictionary
281
     1
  3
ByBlock
350
ED
  3
ByLayer
350
EC
  3
Global
350
EE
  0
DICTIONARY
  5
12D
102
{ACAD_REACTORS
330
C
102
}
330
C
100
AcDbDictionary
281
     1
  3
Standard
350
12E
  0
DICTIONARY
  5
17
102
{ACAD_REACTORS
330
C
102
}
330
C
100
AcDbDictionary
281
     1
  3
SOLBET_IZOLACJA
350
7E9
  3
Standard
350
18
  0
DICTIONARY
  5
19
102
{ACAD_REACTORS
330
C
102
}
330
C
100
AcDbDictionary
281
     1
  0
ACDBDICTIONARYWDFLT
  5
E
102
{ACAD_REACTORS
330
C
102
}
330
C
100
AcDbDictionary
281
     1
  3
Normal
350
F
100
AcDbDictionaryWithDefault
340
F
  0
DICTIONARY
  5
10C
102
{ACAD_REACTORS
330
C
102
}
330
C
100
AcDbDictionary
281
     1
  3
A0
350
10D
  3
A1
350
188
  3
A2
350
189
  3
A3
350
18A
  3
A4
350
18B
  3
A5
350
18C
  3
A6
350
18D
  3
A7
350
18E
  3
A8
350
18F
  3
A9
350
190
  3
B0
350
191
  3
B1
350
192
  3
B2
350
193
  3
B3
350
194
  3
B4
350
195
  3
B5
350
196
  3
B6
350
197
  3
B7
350
198
  3
B8
350
199
  3
B9
350
19A
  3
C0
350
19B
  3
C1
350
19C
  3
C2
350
19D
  3
C3
350
19E
  3
C4
350
19F
  3
C5
350
1A0
  3
C6
350
1A1
  3
C7
350
1A2
  3
C8
350
1A3
  3
C9
350
1A4
  3
D0
350
1A5
  3
D1
350
1A6
  3
D2
350
1A7
  0
DICTIONARY
  5
7E
102
{ACAD_REACTORS
330
C
102
}
330
C
100
AcDbDictionary
281
     1
  3
Standard
350
7F
  0
DICTIONARY
  5
EF
102
{ACAD_REACTORS
330
C
102
}
330
C
100
AcDbDictionary
281
     1
  3
2dWireframe
350
F5
  3
3D Hidden
350
F7
  3
3dWireframe
350
F6
  3
Basic
350
F4
  3
Brighten
350
FB
  3
ColorChange
350
FF
  3
Conceptual
350
F8
  3
Dim
350
FA
  3
Facepattern
350
FE
  3
Flat
350
F0
  3
FlatWithEdges
350
F1
  3
Gouraud
350
F2
  3
GouraudWithEdges
350
F3
  3
Linepattern
350
FD
  3
Realistic
350
F9
  3
Thicken
350
FC
  0
XRECORD
  5
15D
102
{ACAD_REACTORS
330
C
102
}
330
C
100
AcDbXrecord
280
     1
 90
        1
330
7F
330
2D0A
  0
DICTIONARY
  5
5E
102
{ACAD_REACTORS
330
C
102
}
330
C
100
AcDbDictionary
281
     1
  3
CANNOSCALE
350
146
  3
CMLEADERSTYLE
350
145
  3
CTABLESTYLE
350
84
  3
DIMASSOC
350
5F
  3
HIDETEXT
350
63
  3
INDEXCTL
350
466
  3
LIGHTINGUNITS
350
464
  3
MSLTSCALE
350
463
  3
PSOLHEIGHT
350
33B0
  3
PSOLWIDTH
350
33AF
  3
SORTENTS
350
465
  0
XRECORD
  5
33B1
102
{ACAD_REACTORS
330
C
102
}
330
C
100
AcDbXrecord
280
     1
  1
DWGPROPS COOKIE
  2

  3

  4

  6

  7

  8
Olus
  9

300
=
301
=
302
=
303
=
304
=
305
=
306
=
307
=
308
=
309
=
 40
0.7004695370370371
 41
2454690.075573148
 42
2454848.887579838
  1

 90
        0
  0
DICTIONARY
  5
1883
102
{ACAD_REACTORS
330
3E5
102
}
330
3E5
100
AcDbDictionary
281
     1
  0
DICTIONARY
  5
1882
102
{ACAD_REACTORS
330
3E5
102
}
330
3E5
100
AcDbDictionary
281
     1
1001
ACAD
1000
<All
  0
XRECORD
  5
3F4
102
{ACAD_REACTORS
330
13C
102
}
330
13C
100
AcDbXrecord
280
     1
290
     1
  0
XRECORD
  5
404
102
{ACAD_REACTORS
330
403
102
}
330
403
100
AcDbXrecord
280
     1
290
     1
  0
XRECORD
  5
406
102
{ACAD_REACTORS
330
405
102
}
330
405
100
AcDbXrecord
280
     1
290
     1
  0
XRECORD
  5
40A
102
{ACAD_REACTORS
330
409
102
}
330
409
100
AcDbXrecord
280
     1
290
     1
  0
XRECORD
  5
40C
102
{ACAD_REACTORS
330
40B
102
}
330
40B
100
AcDbXrecord
280
     1
290
     1
  0
XRECORD
  5
410
102
{ACAD_REACTORS
330
40F
102
}
330
40F
100
AcDbXrecord
280
     1
290
     1
  0
XRECORD
  5
412
102
{ACAD_REACTORS
330
411
102
}
330
411
100
AcDbXrecord
280
     1
290
     1
  0
XRECORD
  5
32B9
102
{ACAD_REACTORS
330
32B8
102
}
330
32B8
100
AcDbXrecord
280
     1
 70
     1
340
10D
340
3DF
 70
    -1
  0
SORTENTSTABLE
  5
4A4
102
{ACAD_REACTORS
330
4A3
102
}
330
4A3
100
AcDbSortentsTable
330
1F
331
2D00
  5
2D1D
331
2CC9
  5
2CD2
331
2C8A
  5
2C8B
331
2CD1
  5
2CDE
331
2D08
  5
2D25
331
3134
  5
313C
331
2CD9
  5
2CE6
331
2C9A
  5
2CA2
331
313C
  5
31B3
331
2E0F
  5
2EED
331
2D20
  5
2DD6
331
2CA2
  5
2CAA
331
31B4
  5
2C9A
331
2C4E
  5
2C4E
331
2D28
  5
2E1D
331
2CE1
  5
2CEF
331
2CAA
  5
2CB3
331
2C6B
  5
2C6B
331
2E1F
  5
2D1B
331
2CE9
  5
2CF4
331
2CB2
  5
2CBB
331
2C73
  5
2C73
331
2EEE
  5
2EFC
331
2CF1
  5
2CFC
331
2CBA
  5
2CC3
331
2C7B
  5
2C7B
331
2CF9
  5
2D05
331
2CC2
  5
2CCB
331
2C83
  5
2C84
331
3125
  5
312D
331
312D
  5
3135
331
2F9E
  5
3125
331
2C56
  5
2C56
331
2C5E
  5
2C5E
331
2C66
  5
2C66
331
2D01
  5
2D1E
331
2CCA
  5
2CD4
331
2C8B
  5
2C8C
331
2D09
  5
2D26
331
2C93
  5
2C94
331
3135
  5
313D
331
2E08
  5
2EEA
331
2CDA
  5
2CE8
331
2C9B
  5
2CA3
331
313D
  5
31B4
331
2D21
  5
2DE3
331
2CA3
  5
2CAB
331
3145
  5
31B7
331
31B5
  5
2C9B
331
2C4F
  5
2C4F
331
2E18
  5
2EEB
331
2D29
  5
2E20
331
2CAB
  5
2CB4
331
2C6C
  5
2C6C
331
2E20
  5
2EEE
331
2CEA
  5
2CF5
331
2CB3
  5
2CBC
331
2C74
  5
2C74
331
2EEF
  5
2F9E
331
2CF2
  5
2CFD
331
2CBB
  5
2CC4
331
2C7C
  5
2C7C
331
2CC3
  5
2CCC
331
2C84
  5
2C85
331
3126
  5
312E
331
312E
  5
3136
331
2C57
  5
2C57
331
2C5F
  5
2C5F
331
2C67
  5
2C67
331
2D02
  5
2D1F
331
2CCB
  5
2CD8
331
2C8C
  5
2C8D
331
2CD3
  5
2CDF
331
2C94
  5
2C95
331
2D0A
  5
2D27
331
3136
  5
313E
331
2CDB
  5
2CE9
331
2C9C
  5
2CA4
331
2D1A
  5
2D29
331
313E
  5
31B5
331
2D22
  5
2E07
331
2CA4
  5
2CAC
331
31B6
  5
2C9C
331
2E19
  5
2EEC
331
2D2A
  5
2E21
331
2CAC
  5
2CB5
331
2C6D
  5
2C6D
331
2E21
  5
2EEF
331
2CB4
  5
2CBD
331
2C75
  5
2C75
331
2EF0
  5
2FB6
331
2CF3
  5
2CFF
331
2CBC
  5
2CC5
331
2C7D
  5
2C7D
331
311F
  5
3127
331
2CFB
  5
2D08
331
2CC4
  5
2CCD
331
2C85
  5
2C86
331
3127
  5
312F
331
312F
  5
3137
331
2C50
  5
2C50
331
2C58
  5
2C58
331
2C60
  5
2C60
331
2D03
  5
2D20
331
2CCC
  5
2CD9
331
2C8D
  5
2C8E
331
2C95
  5
2C96
331
2E69
  5
3121
331
3137
  5
313F
331
2CDC
  5
2CEA
331
2C9D
  5
2CA5
331
2D1B
  5
2D2A
331
313F
  5
31B6
331
2D23
  5
2E08
331
2CA5
  5
2CAD
331
31B7
  5
2C9D
331
2D2B
  5
2E22
331
2CE4
  5
2CF0
331
2C6E
  5
2C6E
331
2CAD
  5
2CB6
331
2E1A
  5
2D06
331
2E22
  5
2EF0
331
2CB5
  5
2CBE
331
2C76
  5
2C76
331
2EF1
  5
2FDA
331
2CF4
  5
2D00
331
2CBD
  5
2CC6
331
3120
  5
3128
331
2CC5
  5
2CCE
331
2C86
  5
2C87
331
3128
  5
3130
331
2C51
  5
2C51
331
2C59
  5
2C59
331
2C61
  5
2C61
331
2D04
  5
2D21
331
2CCD
  5
2CDA
331
2C8E
  5
2C8F
331
3130
  5
3138
331
2E6A
  5
3122
331
3138
  5
3140
331
2CDD
  5
2CED
331
2C9E
  5
2CA6
331
2D1C
  5
2D2B
331
3140
  5
2CB8
331
2D24
  5
2E0D
331
2CA6
  5
2CAE
331
2D2C
  5
2E4F
331
2CE5
  5
2CF1
331
2C6F
  5
2C6F
331
2CAE
  5
2CB7
331
2E1B
  5
2D07
331
31B8
  5
2C9E
331
2CED
  5
2CF6
331
2CB6
  5
2CBF
331
2C77
  5
2C77
331
2EF2
  5
3090
331
2CF5
  5
2D01
331
2CBE
  5
2CC7
331
2C7F
  5
2C7F
331
3121
  5
3129
331
2CFD
  5
2D0F
331
2CC6
  5
2CCF
331
2C87
  5
2C88
331
3129
  5
3131
331
2C52
  5
2C52
331
2C5A
  5
2C5A
331
2C62
  5
2C62
331
2D05
  5
2D22
331
2CCE
  5
2CDB
331
2C8F
  5
2C90
331
3131
  5
3139
331
2FDA
  5
3126
331
2C97
  5
2C9F
331
2E6B
  5
3123
331
3139
  5
3145
331
2CDE
  5
2CEE
331
2C9F
  5
2CA7
331
2D1D
  5
2D2C
331
2D25
  5
2E18
331
2CA7
  5
2CAF
331
31B1
  5
31B8
331
2C68
  5
2C68
331
2E1C
  5
2D09
331
2CE6
  5
2CF2
331
2C70
  5
2C70
331
2CEE
  5
2CF8
331
2C78
  5
2C78
331
2CB7
  5
2CC0
331
2EF3
  5
3120
331
2CBF
  5
2CC8
331
2C80
  5
2C80
331
3122
  5
312A
331
2CC7
  5
2CD0
331
312A
  5
3132
331
2C53
  5
2C53
331
2C5B
  5
2C5B
331
2C63
  5
2C63
331
2C88
  5
2C89
331
2D06
  5
2D23
331
2CCF
  5
2CDC
331
2C90
  5
2C91
331
2FD3
  5
2C81
331
3132
  5
313A
331
2CD7
  5
2CE2
331
2C98
  5
2CA0
331
313A
  5
31B1
331
2D1E
  5
2D7D
331
2CA0
  5
2CA8
331
2D26
  5
2E1B
331
31B2
  5
2C98
331
2C4C
  5
2C4C
331
2CA8
  5
2CB1
331
2C69
  5
2C69
331
2E1D
  5
2D0A
331
2CB0
  5
2CB9
331
2C71
  5
2C71
331
2EEC
  5
2EF2
331
2CB8
  5
2CC1
331
2C79
  5
2C79
331
2CEF
  5
2CF9
331
3123
  5
312B
331
2CF7
  5
2D03
331
2CC0
  5
2CC9
331
2C81
  5
2C82
331
2EFC
  5
2EF3
331
2DD6
  5
2EE8
331
2CFF
  5
2D1C
331
312B
  5
3133
331
2C54
  5
2C54
331
2C5C
  5
2C5C
331
2C64
  5
2C64
331
2CC8
  5
2CD1
331
2C89
  5
2C8A
331
2CD0
  5
2CDD
331
2C91
  5
2C92
331
2D07
  5
2D24
331
3133
  5
313B
331
2CD8
  5
2CE5
331
2C99
  5
2CA1
331
2D0F
  5
2D28
331
313B
  5
31B2
331
2D1F
  5
2D95
331
2CA1
  5
2CA9
331
2E75
  5
3124
331
2D27
  5
2E1C
331
31B3
  5
2C99
331
2C4D
  5
2C4D
331
2CA9
  5
2CB2
331
2C6A
  5
2C6A
331
2E1E
  5
2D1A
331
2CE8
  5
2CF3
331
2CB1
  5
2CBA
331
2C72
  5
2C72
331
2CF0
  5
2CFB
331
2CB9
  5
2CC2
331
2C7A
  5
2C7A
331
2CF8
  5
2D04
331
2CC1
  5
2CCA
331
2C82
  5
2C83
331
3124
  5
312C
331
312C
  5
3134
331
2C55
  5
2C55
331
2C5D
  5
2C5D
331
2C65
  5
2C65
  0
SORTENTSTABLE
  5
290D
102
{ACAD_REACTORS
330
290C
102
}
330
290C
100
AcDbSortentsTable
330
2902
  0
SORTENTSTABLE
  5
2DE2
102
{ACAD_REACTORS
330
2D48
102
}
330
2D48
100
AcDbSortentsTable
330
2D3C
  0
SORTENTSTABLE
  5
2E5F
102
{ACAD_REACTORS
330
2E5E
102
}
330
2E5E
100
AcDbSortentsTable
330
2E50
  0
SORTENTSTABLE
  5
32FE
102
{ACAD_REACTORS
330
32FD
102
}
330
32FD
100
AcDbSortentsTable
330
32F1
  0
XRECORD
  5
33BF
102
{ACAD_REACTORS
330
33BE
102
}
330
33BE
100
AcDbXrecord
280
     1
 40
14518.0
  1
Płytka SOLBET
  0
XRECORD
  5
33C1
102
{ACAD_REACTORS
330
33C0
102
}
330
33C0
100
AcDbXrecord
280
     1
 40
25446.0
  1
Wieniec żelbetowy
  0
XRECORD
  5
33C3
102
{ACAD_REACTORS
330
33C2
102
}
330
33C2
100
AcDbXrecord
280
     1
 40
204950.0
  1
Murłata przymocowana \Pśrubami kotwionymi w wieńcu
  0
XRECORD
  5
33C5
102
{ACAD_REACTORS
330
33C4
102
}
330
33C4
100
AcDbXrecord
280
     1
 40
150430.0
  1
Wieniec pod murłatę \Pw kształtkach U SOLBET
  0
XRECORD
  5
33C7
102
{ACAD_REACTORS
330
33C6
102
}
330
33C6
100
AcDbXrecord
280
     1
 40
94764.0
  1
Zbrojenie górne strefy przypodporowej
  0
XRECORD
  5
33C8
102
{ACAD_REACTORS
330
2D0B
102
}
330
2D0B
100
AcDbXrecord
280
     1
 40
457025.0
  1
{\LDETAL 91\P}Wzmocnienie ściany kolankowej za pomocą słupów w kształtkach U
  0
DICTIONARY
  5
2D0C
102
{ACAD_REACTORS
330
2D0B
102
}
330
2D0B
100
AcDbDictionary
281
     1
  3
ACDB_ANNOTATIONSCALES
350
2D0D
  0
XRECORD
  5
33CA
102
{ACAD_REACTORS
330
33C9
102
}
330
33C9
100
AcDbXrecord
280
     1
 40
86899.0
  1
Kształtki U SOLBET  wmurowane pionowo
  0
XRECORD
  5
33CC
102
{ACAD_REACTORS
330
33CB
102
}
330
33CB
100
AcDbXrecord
280
     1
 40
113613.0
  1
Słup żelbetowy \Pw ksztaltkach U SOLBET
  0
XRECORD
  5
337C
102
{ACAD_REACTORS
330
337B
102
}
330
337B
100
AcDbXrecord
280
     1
 40
24748.0
  1
\pxqc;C\P(5 : 1)
  0
LAYOUT
  5
D3
102
{ACAD_XDICTIONARY
360
33B5
102
}
102
{ACAD_REACTORS
330
1A
102
}
330
1A
100
AcDbPlotSettings
  1

  2
C:\Documents and Settings\basas\Application Data\Autodesk\AutoCAD 2005\R16.1\enu\plotters\Default Windows System Printer.pc3
  4

  6

 40
0.0
 41
0.0
 42
0.0
 43
0.0
 44
0.0
 45
0.0
 46
0.0
 47
0.0
 48
0.0
 49
0.0
140
0.0
141
0.0
142
1.0
143
1.0
 70
   688
 72
     0
 73
     0
 74
     5
  7

 75
    16
147
1.0
148
0.0
149
0.0
100
AcDbLayout
  1
Arkusz1
 70
     1
 71
     1
 10
0.0
 20
0.0
 11
12.0
 21
9.0
 12
0.0
 22
0.0
 32
0.0
 14
0.0
 24
0.0
 34
0.0
 15
0.0
 25
0.0
 35
0.0
146
0.0
 13
0.0
 23
0.0
 33
0.0
 16
1.0
 26
0.0
 36
0.0
 17
0.0
 27
1.0
 37
0.0
 76
     0
330
D2
  0
LAYOUT
  5
D7
102
{ACAD_XDICTIONARY
360
33B7
102
}
102
{ACAD_REACTORS
330
1A
102
}
330
1A
100
AcDbPlotSettings
  1

  2
C:\Documents and Settings\basas\Application Data\Autodesk\AutoCAD 2005\R16.1\enu\plotters\Default Windows System Printer.pc3
  4

  6

 40
0.0
 41
0.0
 42
0.0
 43
0.0
 44
0.0
 45
0.0
 46
0.0
 47
0.0
 48
0.0
 49
0.0
140
0.0
141
0.0
142
1.0
143
1.0
 70
   688
 72
     0
 73
     0
 74
     5
  7

 75
    16
147
1.0
148
0.0
149
0.0
100
AcDbLayout
  1
Arkusz2
 70
     1
 71
     2
 10
0.0
 20
0.0
 11
12.0
 21
9.0
 12
0.0
 22
0.0
 32
0.0
 14
0.0
 24
0.0
 34
0.0
 15
0.0
 25
0.0
 35
0.0
146
0.0
 13
0.0
 23
0.0
 33
0.0
 16
1.0
 26
0.0
 36
0.0
 17
0.0
 27
1.0
 37
0.0
 76
     0
330
D6
  0
LAYOUT
  5
22
102
{ACAD_XDICTIONARY
360
33B2
102
}
102
{ACAD_REACTORS
330
1A
102
}
330
1A
100
AcDbPlotSettings
  1

  2
none_device
  4
Letter_(8.50_x_11.00_Inches)
  6

 40
6.349999904632568
 41
6.349999904632568
 42
6.350006103515625
 43
6.350006103515625
 44
215.8999938964844
 45
279.3999938964844
 46
11.54999923706054
 47
-13.65000009536743
 48
0.0
 49
0.0
140
210.0
141
297.0
142
1.0
143
1.0
 70
 11936
 72
     1
 73
     0
 74
     4
  7

 75
     0
147
0.9999999999999998
148
0.0
149
0.0
100
AcDbLayout
  1
Model
 70
     1
 71
     0
 10
0.0
 20
0.0
 11
12.0
 21
9.0
 12
0.0
 22
0.0
 32
0.0
 14
0.0
 24
0.0
 34
0.0
 15
0.0
 25
0.0
 35
0.0
146
0.0
 13
0.0
 23
0.0
 33
0.0
 16
1.0
 26
0.0
 36
0.0
 17
0.0
 27
1.0
 37
0.0
 76
     0
330
1F
331
EA
1001
ACAD_PSEXT
1000
Brak
1000
Brak
1000
Nie można zastosować.
1000
Arkusz nie zostanie wydrukowany dopóki nie wybrano konfiguracji plotera.
1070
     0
  0
MATERIAL
  5
ED
102
{ACAD_XDICTIONARY
360
33BB
102
}
102
{ACAD_REACTORS
330
6A
102
}
330
6A
100
AcDbMaterial
  1
ByBlock
 73
     2
 78
     2
172
     2
176
     2
270
     2
274
     2
  0
MATERIAL
  5
EC
102
{ACAD_XDICTIONARY
360
33B9
102
}
102
{ACAD_REACTORS
330
6A
102
}
330
6A
100
AcDbMaterial
  1
ByLayer
 73
     2
 78
     2
172
     2
176
     2
270
     2
274
     2
  0
MATERIAL
  5
EE
102
{ACAD_XDICTIONARY
360
173
102
}
102
{ACAD_REACTORS
330
6A
102
}
330
6A
100
AcDbMaterial
  1
Global
 73
     2
 43
0.0007999999797903
 43
0.0
 43
0.0
 43
0.0
 43
0.0
 43
0.0007999999797903
 43
0.0
 43
0.0
 43
0.0
 43
0.0
 43
1.0
 43
0.0
 43
0.0
 43
0.0
 43
0.0
 43
1.0
 78
     2
172
     2
 49
0.0007999999797903
 49
0.0
 49
0.0
 49
0.0
 49
0.0
 49
0.0007999999797903
 49
0.0
 49
0.0
 49
0.0
 49
0.0
 49
1.0
 49
0.0
 49
0.0
 49
0.0
 49
0.0
 49
1.0
176
     2
142
0.0007999999797903
142
0.0
142
0.0
142
0.0
142
0.0
142
0.0007999999797903
142
0.0
142
0.0
142
0.0
142
0.0
142
1.0
142
0.0
142
0.0
142
0.0
142
0.0
142
1.0
270
     2
144
0.0007999999797903
144
0.0
144
0.0
144
0.0
144
0.0
144
0.0007999999797903
144
0.0
144
0.0
144
0.0
144
0.0
144
1.0
144
0.0
144
0.0
144
0.0
144
0.0
144
1.0
274
     2
1001
ACAD
1070
    -1
1070
     3
1070
     0
1000

1071
        0
1070
     0
  0
ACAD_PROXY_OBJECT
  5
12E
102
{ACAD_REACTORS
330
12D
102
}
330
12D
100
AcDbProxyObject
 90
      499
 91
      508
 95
       23
 70
     0
 93
      618
310
40901902A4063FBFFFFFE0000000000000020400000000000020404254DD185B99185C99000000000000000104090140501A0000000000000410000000000000004102576400000000000003903F
340
14
340
0
340
11
340
0
 94
        0
1001
ACAD_MLEADERVER
1070
     2
1001
ACAD
1000
AcRTDxfName
1000
MLEADERSTYLE
1000
AcRTDxfName
1000
MLEADERSTYLE
1000
AcRTDxfName
1000
MLEADERSTYLE
  0
MLINESTYLE
  5
7E9
102
{ACAD_REACTORS
330
17
102
}
330
17
100
AcDbMlineStyle
  2
SOLBET_IZOLACJA
 70
   272
  3

 62
   256
 51
90.0
 52
90.0
 71
     2
 49
0.008
 62
   256
  6
BYLAYER
 49
-0.008
 62
   256
  6
BYLAYER
  0
MLINESTYLE
  5
18
102
{ACAD_REACTORS
330
17
102
}
330
17
100
AcDbMlineStyle
  2
STANDARD
 70
     0
  3

 62
   256
 51
90.0
 52
90.0
 71
     2
 49
0.5
 62
   256
  6
BYLAYER
 49
-0.5
 62
   256
  6
BYLAYER
  0
ACDBPLACEHOLDER
  5
F
102
{ACAD_REACTORS
330
E
102
}
330
E
  0
ACAD_PROXY_OBJECT
  5
10D
102
{ACAD_REACTORS
330
10C
102
}
330
10C
100
AcDbProxyObject
 90
      499
 91
      507
 95
       23
 70
     0
 93
       49
310
904313A31005FF
 94
        0
1001
ACAD
1000
AcRTDxfName
1000
SCALE
1000
AcRTDxfName
1000
SCALE
1000
AcRTDxfName
1000
SCALE
  0
ACAD_PROXY_OBJECT
  5
188
102
{ACAD_REACTORS
330
10C
102
}
330
10C
100
AcDbProxyObject
 90
      499
 91
      507
 95
       23
 70
     0
 93
      113
310
904313A3200400000000000000407F
 94
        0
1001
ACAD
1000
AcRTDxfName
1000
SCALE
1000
AcRTDxfName
1000
SCALE
1000
AcRTDxfName
1000
SCALE
  0
ACAD_PROXY_OBJECT
  5
189
102
{ACAD_REACTORS
330
10C
102
}
330
10C
100
AcDbProxyObject
 90
      499
 91
      507
 95
       23
 70
     0
 93
      113
310
904313A3400400000000000010407F
 94
        0
1001
ACAD
1000
AcRTDxfName
1000
SCALE
1000
AcRTDxfName
1000
SCALE
1000
AcRTDxfName
1000
SCALE
  0
ACAD_PROXY_OBJECT
  5
18A
102
{ACAD_REACTORS
330
10C
102
}
330
10C
100
AcDbProxyObject
 90
      499
 91
      507
 95
       23
 70
     0
 93
      113
310
904313A3500400000000000014407F
 94
        0
1001
ACAD
1000
AcRTDxfName
1000
SCALE
1000
AcRTDxfName
1000
SCALE
1000
AcRTDxfName
1000
SCALE
  0
ACAD_PROXY_OBJECT
  5
18B
102
{ACAD_REACTORS
330
10C
102
}
330
10C
100
AcDbProxyObject
 90
      499
 91
      507
 95
       23
 70
     0
 93
      113
310
904313A3800400000000000020407F
 94
        0
1001
ACAD
1000
AcRTDxfName
1000
SCALE
1000
AcRTDxfName
1000
SCALE
1000
AcRTDxfName
1000
SCALE
  0
ACAD_PROXY_OBJECT
  5
18C
102
{ACAD_REACTORS
330
10C
102
}
330
10C
100
AcDbProxyObject
 90
      499
 91
      507
 95
       23
 70
     0
 93
      121
310
905313A313000400000000000024407F
 94
        0
1001
ACAD
1000
AcRTDxfName
1000
SCALE
1000
AcRTDxfName
1000
SCALE
1000
AcRTDxfName
1000
SCALE
  0
ACAD_PROXY_OBJECT
  5
18D
102
{ACAD_REACTORS
330
10C
102
}
330
10C
100
AcDbProxyObject
 90
      499
 91
      507
 95
       23
 70
     0
 93
      121
310
905313A313600400000000000030407F
 94
        0
1001
ACAD
1000
AcRTDxfName
1000
SCALE
1000
AcRTDxfName
1000
SCALE
1000
AcRTDxfName
1000
SCALE
  0
ACAD_PROXY_OBJECT
  5
18E
102
{ACAD_REACTORS
330
10C
102
}
330
10C
100
AcDbProxyObject
 90
      499
 91
      507
 95
       23
 70
     0
 93
      121
310
905313A323000400000000000034407F
 94
        0
1001
ACAD
1000
AcRTDxfName
1000
SCALE
1000
AcRTDxfName
1000
SCALE
1000
AcRTDxfName
1000
SCALE
  0
ACAD_PROXY_OBJECT
  5
18F
102
{ACAD_REACTORS
330
10C
102
}
330
10C
100
AcDbProxyObject
 90
      499
 91
      507
 95
       23
 70
     0
 93
      121
310
905313A33300040000000000003E407F
 94
        0
1001
ACAD
1000
AcRTDxfName
1000
SCALE
1000
AcRTDxfName
1000
SCALE
1000
AcRTDxfName
1000
SCALE
  0
ACAD_PROXY_OBJECT
  5
190
102
{ACAD_REACTORS
330
10C
102
}
330
10C
100
AcDbProxyObject
 90
      499
 91
      507
 95
       23
 70
     0
 93
      121
310
905313A343000400000000000044407F
 94
        0
1001
ACAD
1000
AcRTDxfName
1000
SCALE
1000
AcRTDxfName
1000
SCALE
1000
AcRTDxfName
1000
SCALE
  0
ACAD_PROXY_OBJECT
  5
191
102
{ACAD_REACTORS
330
10C
102
}
330
10C
100
AcDbProxyObject
 90
      499
 91
      507
 95
       23
 70
     0
 93
      121
310
905313A353000400000000000049407F
 94
        0
1001
ACAD
1000
AcRTDxfName
1000
SCALE
1000
AcRTDxfName
1000
SCALE
1000
AcRTDxfName
1000
SCALE
  0
ACAD_PROXY_OBJECT
  5
192
102
{ACAD_REACTORS
330
10C
102
}
330
10C
100
AcDbProxyObject
 90
      499
 91
      507
 95
       23
 70
     0
 93
      129
310
906313A31303000400000000000059407F
 94
        0
1001
ACAD
1000
AcRTDxfName
1000
SCALE
1000
AcRTDxfName
1000
SCALE
1000
AcRTDxfName
1000
SCALE
  0
ACAD_PROXY_OBJECT
  5
193
102
{ACAD_REACTORS
330
10C
102
}
330
10C
100
AcDbProxyObject
 90
      499
 91
      507
 95
       23
 70
     0
 93
      113
310
904323A3100000000000000001017F
 94
        0
1001
ACAD
1000
AcRTDxfName
1000
SCALE
1000
AcRTDxfName
1000
SCALE
1000
AcRTDxfName
1000
SCALE
  0
ACAD_PROXY_OBJECT
  5
194
102
{ACAD_REACTORS
330
10C
102
}
330
10C
100
AcDbProxyObject
 90
      499
 91
      507
 95
       23
 70
     0
 93
      113
310
904343A3100000000000000041017F
 94
        0
1001
ACAD
1000
AcRTDxfName
1000
SCALE
1000
AcRTDxfName
1000
SCALE
1000
AcRTDxfName
1000
SCALE
  0
ACAD_PROXY_OBJECT
  5
195
102
{ACAD_REACTORS
330
10C
102
}
330
10C
100
AcDbProxyObject
 90
      499
 91
      507
 95
       23
 70
     0
 93
      113
310
904383A3100000000000000081017F
 94
        0
1001
ACAD
1000
AcRTDxfName
1000
SCALE
1000
AcRTDxfName
1000
SCALE
1000
AcRTDxfName
1000
SCALE
  0
ACAD_PROXY_OBJECT
  5
196
102
{ACAD_REACTORS
330
10C
102
}
330
10C
100
AcDbProxyObject
 90
      499
 91
      507
 95
       23
 70
     0
 93
      121
310
90531303A3100000000000000091017F
 94
        0
1001
ACAD
1000
AcRTDxfName
1000
SCALE
1000
AcRTDxfName
1000
SCALE
1000
AcRTDxfName
1000
SCALE
  0
ACAD_PROXY_OBJECT
  5
197
102
{ACAD_REACTORS
330
10C
102
}
330
10C
100
AcDbProxyObject
 90
      499
 91
      507
 95
       23
 70
     0
 93
      129
310
9063130303A3100000000000000165017F
 94
        0
1001
ACAD
1000
AcRTDxfName
1000
SCALE
1000
AcRTDxfName
1000
SCALE
1000
AcRTDxfName
1000
SCALE
  0
ACAD_PROXY_OBJECT
  5
198
102
{ACAD_REACTORS
330
10C
102
}
330
10C
100
AcDbProxyObject
 90
      499
 91
      507
 95
       23
 70
     0
 93
      265
310
90F312F31323822203D2031272D302200000000000000200FC00000000000028407F
 94
        0
1001
ACAD
1000
AcRTDxfName
1000
SCALE
1000
AcRTDxfName
1000
SCALE
1000
AcRTDxfName
1000
SCALE
  0
ACAD_PROXY_OBJECT
  5
199
102
{ACAD_REACTORS
330
10C
102
}
330
10C
100
AcDbProxyObject
 90
      499
 91
      507
 95
       23
 70
     0
 93
      257
310
90E312F363422203D2031272D302200000000000000240FC00000000000028407F
 94
        0
1001
ACAD
1000
AcRTDxfName
1000
SCALE
1000
AcRTDxfName
1000
SCALE
1000
AcRTDxfName
1000
SCALE
  0
ACAD_PROXY_OBJECT
  5
19A
102
{ACAD_REACTORS
330
10C
102
}
330
10C
100
AcDbProxyObject
 90
      499
 91
      507
 95
       23
 70
     0
 93
      257
310
90E312F333222203D2031272D302200000000000000280FC00000000000028407F
 94
        0
1001
ACAD
1000
AcRTDxfName
1000
SCALE
1000
AcRTDxfName
1000
SCALE
1000
AcRTDxfName
1000
SCALE
  0
ACAD_PROXY_OBJECT
  5
19B
102
{ACAD_REACTORS
330
10C
102
}
330
10C
100
AcDbProxyObject
 90
      499
 91
      507
 95
       23
 70
     0
 93
      257
310
90E312F313622203D2031272D3022000000000000002C0FC00000000000028407F
 94
        0
1001
ACAD
1000
AcRTDxfName
1000
SCALE
1000
AcRTDxfName
1000
SCALE
1000
AcRTDxfName
1000
SCALE
  0
ACAD_PROXY_OBJECT
  5
19C
102
{ACAD_REACTORS
330
10C
102
}
330
10C
100
AcDbProxyObject
 90
      499
 91
      507
 95
       23
 70
     0
 93
      257
310
90E332F333222203D2031272D3022000000000000002E0FC00000000000028407F
 94
        0
1001
ACAD
1000
AcRTDxfName
1000
SCALE
1000
AcRTDxfName
1000
SCALE
1000
AcRTDxfName
1000
SCALE
  0
ACAD_PROXY_OBJECT
  5
19D
102
{ACAD_REACTORS
330
10C
102
}
330
10C
100
AcDbProxyObject
 90
      499
 91
      507
 95
       23
 70
     0
 93
      249
310
90D312F3822203D2031272D302200000000000000300FC00000000000028407F
 94
        0
1001
ACAD
1000
AcRTDxfName
1000
SCALE
1000
AcRTDxfName
1000
SCALE
1000
AcRTDxfName
1000
SCALE
  0
ACAD_PROXY_OBJECT
  5
19E
102
{ACAD_REACTORS
330
10C
102
}
330
10C
100
AcDbProxyObject
 90
      499
 91
      507
 95
       23
 70
     0
 93
      257
310
90E332F313622203D2031272D302200000000000000320FC00000000000028407F
 94
        0
1001
ACAD
1000
AcRTDxfName
1000
SCALE
1000
AcRTDxfName
1000
SCALE
1000
AcRTDxfName
1000
SCALE
  0
ACAD_PROXY_OBJECT
  5
19F
102
{ACAD_REACTORS
330
10C
102
}
330
10C
100
AcDbProxyObject
 90
      499
 91
      507
 95
       23
 70
     0
 93
      249
310
90D312F3422203D2031272D302200000000000000340FC00000000000028407F
 94
        0
1001
ACAD
1000
AcRTDxfName
1000
SCALE
1000
AcRTDxfName
1000
SCALE
1000
AcRTDxfName
1000
SCALE
  0
ACAD_PROXY_OBJECT
  5
1A0
102
{ACAD_REACTORS
330
10C
102
}
330
10C
100
AcDbProxyObject
 90
      499
 91
      507
 95
       23
 70
     0
 93
      249
310
90D332F3822203D2031272D302200000000000000360FC00000000000028407F
 94
        0
1001
ACAD
1000
AcRTDxfName
1000
SCALE
1000
AcRTDxfName
1000
SCALE
1000
AcRTDxfName
1000
SCALE
  0
ACAD_PROXY_OBJECT
  5
1A1
102
{ACAD_REACTORS
330
10C
102
}
330
10C
100
AcDbProxyObject
 90
      499
 91
      507
 95
       23
 70
     0
 93
      249
310
90D312F3222203D2031272D302200000000000000380FC00000000000028407F
 94
        0
1001
ACAD
1000
AcRTDxfName
1000
SCALE
1000
AcRTDxfName
1000
SCALE
1000
AcRTDxfName
1000
SCALE
  0
ACAD_PROXY_OBJECT
  5
1A2
102
{ACAD_REACTORS
330
10C
102
}
330
10C
100
AcDbProxyObject
 90
      499
 91
      507
 95
       23
 70
     0
 93
      249
310
90D332F3422203D2031272D3022000000000000003A0FC00000000000028407F
 94
        0
1001
ACAD
1000
AcRTDxfName
1000
SCALE
1000
AcRTDxfName
1000
SCALE
1000
AcRTDxfName
1000
SCALE
  0
ACAD_PROXY_OBJECT
  5
1A3
102
{ACAD_REACTORS
330
10C
102
}
330
10C
100
AcDbProxyObject
 90
      499
 91
      507
 95
       23
 70
     0
 93
      169
310
90B3122203D2031272D302200400000000000028407F
 94
        0
1001
ACAD
1000
AcRTDxfName
1000
SCALE
1000
AcRTDxfName
1000
SCALE
1000
AcRTDxfName
1000
SCALE
  0
ACAD_PROXY_OBJECT
  5
1A4
102
{ACAD_REACTORS
330
10C
102
}
330
10C
100
AcDbProxyObject
 90
      499
 91
      507
 95
       23
 70
     0
 93
      265
310
90F312D312F3222203D2031272D3022000000000000003E0FC00000000000028407F
 94
        0
1001
ACAD
1000
AcRTDxfName
1000
SCALE
1000
AcRTDxfName
1000
SCALE
1000
AcRTDxfName
1000
SCALE
  0
ACAD_PROXY_OBJECT
  5
1A5
102
{ACAD_REACTORS
330
10C
102
}
330
10C
100
AcDbProxyObject
 90
      499
 91
      507
 95
       23
 70
     0
 93
      233
310
90B3322203D2031272D3022000000000000000210000000000000028407F
 94
        0
1001
ACAD
1000
AcRTDxfName
1000
SCALE
1000
AcRTDxfName
1000
SCALE
1000
AcRTDxfName
1000
SCALE
  0
ACAD_PROXY_OBJECT
  5
1A6
102
{ACAD_REACTORS
330
10C
102
}
330
10C
100
AcDbProxyObject
 90
      499
 91
      507
 95
       23
 70
     0
 93
      233
310
90B3622203D2031272D3022000000000000000610000000000000028407F
 94
        0
1001
ACAD
1000
AcRTDxfName
1000
SCALE
1000
AcRTDxfName
1000
SCALE
1000
AcRTDxfName
1000
SCALE
  0
ACAD_PROXY_OBJECT
  5
1A7
102
{ACAD_REACTORS
330
10C
102
}
330
10C
100
AcDbProxyObject
 90
      499
 91
      507
 95
       23
 70
     0
 93
      257
310
90E31272D3022203D2031272D3022000000000000000A10000000000000028407F
 94
        0
1001
ACAD
1000
AcRTDxfName
1000
SCALE
1000
AcRTDxfName
1000
SCALE
1000
AcRTDxfName
1000
SCALE
  0
TABLESTYLE
  5
7F
102
{ACAD_XDICTIONARY
360
162
102
}
102
{ACAD_REACTORS
330
7E
102
}
330
7E
100
AcDbTableStyle
  3
Standard
 70
     0
 71
     0
 40
1.5
 41
1.5
280
     0
281
     0
  7
Standard
140
4.5
170
     2
 62
     0
 63
     7
283
     0
274
    -2
284
     1
 64
     0
275
    -2
285
     1
 65
     0
276
    -2
286
     1
 66
     0
277
    -2
287
     1
 67
     0
278
    -2
288
     1
 68
     0
279
    -2
289
     1
 69
     0
  7
Standard
140
6.0
170
     5
 62
     0
 63
     7
283
     0
274
    -2
284
     1
 64
     0
275
    -2
285
     1
 65
     0
276
    -2
286
     1
 66
     0
277
    -2
287
     1
 67
     0
278
    -2
288
     1
 68
     0
279
    -2
289
     1
 69
     0
  7
Standard
140
4.5
170
     5
 62
     0
 63
     7
283
     0
274
    -2
284
     1
 64
     0
275
    -2
285
     1
 65
     0
276
    -2
286
     1
 66
     0
277
    -2
287
     1
 67
     0
278
    -2
288
     1
 68
     0
279
    -2
289
     1
 69
     0
  0
VISUALSTYLE
  5
F5
102
{ACAD_REACTORS
330
EF
102
}
330
EF
100
AcDbVisualStyle
  2
2dWireframe
 70
     4
 71
     0
 72
     2
 73
     1
 90
        0
 40
-0.6
 41
-30.0
 62
     5
 63
     7
 74
     1
 91
        4
 64
     7
 65
   257
 75
     1
175
     1
 42
1.0
 92
        0
 66
   257
 43
1.0
 76
     1
 77
     6
 78
     2
 67
     7
 79
     5
170
     0
171
     0
290
     0
174
     0
 93
        1
 44
0.0
173
     0
291
     0
 45
0.0
1001
ACAD
1000
AcDbSavedByObjectVersion
1070
     0
  0
VISUALSTYLE
  5
F7
102
{ACAD_REACTORS
330
EF
102
}
330
EF
100
AcDbVisualStyle
  2
3D Hidden
 70
     6
 71
     1
 72
     2
 73
     2
 90
        0
 40
-0.6
 41
-30.0
 62
     5
 63
     7
 74
     2
 91
        2
 64
     7
 65
   257
 75
     2
175
     1
 42
40.0
 92
        0
 66
   257
 43
1.0
 76
     1
 77
     6
 78
     2
 67
     7
 79
     3
170
     0
171
     0
290
     0
174
     0
 93
        1
 44
0.0
173
     0
291
     0
 45
0.0
1001
ACAD
1000
AcDbSavedByObjectVersion
1070
     0
  0
VISUALSTYLE
  5
F6
102
{ACAD_REACTORS
330
EF
102
}
330
EF
100
AcDbVisualStyle
  2
3dWireframe
 70
     5
 71
     0
 72
     2
 73
     1
 90
        0
 40
-0.6
 41
-30.0
 62
     5
 63
     7
 74
     1
 91
        4
 64
     7
 65
   257
 75
     1
175
     1
 42
1.0
 92
        0
 66
   257
 43
1.0
 76
     1
 77
     6
 78
     2
 67
     7
 79
     5
170
     0
171
     0
290
     0
174
     0
 93
        1
 44
0.0
173
     0
291
     0
 45
0.0
1001
ACAD
1000
AcDbSavedByObjectVersion
1070
     0
  0
VISUALSTYLE
  5
F4
102
{ACAD_REACTORS
330
EF
102
}
330
EF
100
AcDbVisualStyle
  2
Basic
 70
     7
 71
     1
 72
     0
 73
     1
 90
        0
 40
-0.6
 41
-30.0
 62
     5
 63
     7
 74
     0
 91
        4
 64
     7
 65
   257
 75
     1
175
     1
 42
1.0
 92
        8
 66
     7
 43
1.0
 76
     1
 77
     6
 78
     2
 67
     7
 79
     5
170
     0
171
     0
290
     0
174
     0
 93
        1
 44
0.0
173
     0
291
     1
 45
0.0
1001
ACAD
1000
AcDbSavedByObjectVersion
1070
     0
  0
VISUALSTYLE
  5
FB
102
{ACAD_REACTORS
330
EF
102
}
330
EF
100
AcDbVisualStyle
  2
Brighten
 70
    12
 71
     2
 72
     2
 73
     1
 90
        0
 40
-0.6
 41
-30.0
 62
     5
 63
     7
 74
     1
 91
        4
 64
     7
 65
   257
 75
     1
175
     1
 42
1.0
 92
        8
 66
     7
 43
1.0
 76
     1
 77
     6
 78
     2
 67
     7
 79
     5
170
     0
171
     0
290
     0
174
     0
 93
        1
 44
50.0
173
     0
291
     1
 45
0.0
1001
ACAD
1000
AcDbSavedByObjectVersion
1070
     0
  0
VISUALSTYLE
  5
FF
102
{ACAD_REACTORS
330
EF
102
}
330
EF
100
AcDbVisualStyle
  2
ColorChange
 70
    16
 71
     2
 72
     2
 73
     3
 90
        0
 40
-0.6
 41
-30.0
 62
     5
 63
     8
 74
     1
 91
        4
 64
     7
 65
   257
 75
     1
175
     1
 42
1.0
 92
        8
 66
     8
 43
1.0
 76
     1
 77
     6
 78
     2
 67
     7
 79
     5
170
     0
171
     0
290
     0
174
     0
 93
        1
 44
0.0
173
     0
291
     1
 45
0.0
1001
ACAD
1000
AcDbSavedByObjectVersion
1070
     0
  0
VISUALSTYLE
  5
F8
102
{ACAD_REACTORS
330
EF
102
}
330
EF
100
AcDbVisualStyle
  2
Conceptual
 70
     9
 71
     3
 72
     2
 73
     1
 90
        0
 40
-0.6
 41
-30.0
 62
     5
 63
     7
 74
     2
 91
        2
 64
     7
 65
   257
 75
     1
175
     1
 42
40.0
 92
        8
 66
     7
 43
1.0
 76
     1
 77
     6
 78
     2
 67
     7
 79
     3
170
     0
171
     0
290
     0
174
     0
 93
        1
 44
0.0
173
     0
291
     0
 45
0.0
1001
ACAD
1000
AcDbSavedByObjectVersion
1070
     0
  0
VISUALSTYLE
  5
FA
102
{ACAD_REACTORS
330
EF
102
}
330
EF
100
AcDbVisualStyle
  2
Dim
 70
    11
 71
     2
 72
     2
 73
     1
 90
        0
 40
-0.6
 41
-30.0
 62
     5
 63
     7
 74
     1
 91
        4
 64
     7
 65
   257
 75
     1
175
     1
 42
1.0
 92
        8
 66
     7
 43
1.0
 76
     1
 77
     6
 78
     2
 67
     7
 79
     5
170
     0
171
     0
290
     0
174
     0
 93
        1
 44
-50.0
173
     0
291
     1
 45
0.0
1001
ACAD
1000
AcDbSavedByObjectVersion
1070
     0
  0
VISUALSTYLE
  5
FE
102
{ACAD_REACTORS
330
EF
102
}
330
EF
100
AcDbVisualStyle
  2
Facepattern
 70
    15
 71
     2
 72
     2
 73
     1
 90
        0
 40
-0.6
 41
-30.0
 62
     5
 63
     7
 74
     1
 91
        4
 64
     7
 65
   257
 75
     1
175
     1
 42
1.0
 92
        8
 66
     7
 43
1.0
 76
     1
 77
     6
 78
     2
 67
     7
 79
     5
170
     0
171
     0
290
     0
174
     0
 93
        1
 44
0.0
173
     0
291
     1
 45
0.0
1001
ACAD
1000
AcDbSavedByObjectVersion
1070
     0
  0
VISUALSTYLE
  5
F0
102
{ACAD_REACTORS
330
EF
102
}
330
EF
100
AcDbVisualStyle
  2
Flat
 70
     0
 71
     2
 72
     1
 73
     1
 90
        2
 40
-0.6
 41
30.0
 62
     5
 63
     7
 74
     0
 91
        4
 64
     7
 65
   257
 75
     1
175
     1
 42
1.0
 92
        8
 66
     7
 43
1.0
 76
     1
 77
     6
 78
     2
 67
     7
 79
     5
170
     0
171
     0
290
     0
174
     0
 93
        1
 44
0.0
173
     0
291
     1
 45
0.0
1001
ACAD
1000
AcDbSavedByObjectVersion
1070
     0
  0
VISUALSTYLE
  5
F1
102
{ACAD_REACTORS
330
EF
102
}
330
EF
100
AcDbVisualStyle
  2
FlatWithEdges
 70
     1
 71
     2
 72
     1
 73
     1
 90
        2
 40
-0.6
 41
30.0
 62
     5
 63
     7
 74
     1
 91
        4
 64
     7
 65
   257
 75
     1
175
     1
 42
1.0
 92
        0
 66
   257
 43
1.0
 76
     1
 77
     6
 78
     2
 67
     7
 79
     5
170
     0
171
     0
290
     0
174
     0
 93
        1
 44
0.0
173
     0
291
     1
 45
0.0
1001
ACAD
1000
AcDbSavedByObjectVersion
1070
     0
  0
VISUALSTYLE
  5
F2
102
{ACAD_REACTORS
330
EF
102
}
330
EF
100
AcDbVisualStyle
  2
Gouraud
 70
     2
 71
     2
 72
     2
 73
     1
 90
        2
 40
-0.6
 41
30.0
 62
     5
 63
     7
 74
     0
 91
        4
 64
     7
 65
   257
 75
     1
175
     1
 42
1.0
 92
        0
 66
     7
 43
1.0
 76
     1
 77
     6
 78
     2
 67
     7
 79
     5
170
     0
171
     0
290
     0
174
     0
 93
        1
 44
0.0
173
     0
291
     1
 45
0.0
1001
ACAD
1000
AcDbSavedByObjectVersion
1070
     0
  0
VISUALSTYLE
  5
F3
102
{ACAD_REACTORS
330
EF
102
}
330
EF
100
AcDbVisualStyle
  2
GouraudWithEdges
 70
     3
 71
     2
 72
     2
 73
     1
 90
        2
 40
-0.6
 41
30.0
 62
     5
 63
     7
 74
     1
 91
        4
 64
     7
 65
   257
 75
     1
175
     1
 42
1.0
 92
        0
 66
   257
 43
1.0
 76
     1
 77
     6
 78
     2
 67
     7
 79
     5
170
     0
171
     0
290
     0
174
     0
 93
        1
 44
0.0
173
     0
291
     1
 45
0.0
1001
ACAD
1000
AcDbSavedByObjectVersion
1070
     0
  0
VISUALSTYLE
  5
FD
102
{ACAD_REACTORS
330
EF
102
}
330
EF
100
AcDbVisualStyle
  2
Linepattern
 70
    14
 71
     2
 72
     2
 73
     1
 90
        0
 40
-0.6
 41
-30.0
 62
     5
 63
     7
 74
     1
 91
        4
 64
     7
 65
   257
 75
     7
175
     7
 42
1.0
 92
        8
 66
     7
 43
1.0
 76
     1
 77
     6
 78
     2
 67
     7
 79
     5
170
     0
171
     0
290
     0
174
     0
 93
        1
 44
0.0
173
     0
291
     1
 45
0.0
1001
ACAD
1000
AcDbSavedByObjectVersion
1070
     0
  0
VISUALSTYLE
  5
F9
102
{ACAD_REACTORS
330
EF
102
}
330
EF
100
AcDbVisualStyle
  2
Realistic
 70
     8
 71
     2
 72
     2
 73
     1
 90
        0
 40
-0.6
 41
-30.0
 62
     5
 63
     7
 74
     1
 91
        0
 64
     7
 65
   257
 75
     1
175
     1
 42
1.0
 92
        8
 66
     8
 43
1.0
 76
     1
 77
     6
 78
     2
 67
     7
 79
     5
170
     0
171
     0
290
     0
174
     0
 93
       13
 44
0.0
173
     0
291
     0
 45
0.0
1001
ACAD
1000
AcDbSavedByObjectVersion
1070
     0
  0
VISUALSTYLE
  5
FC
102
{ACAD_REACTORS
330
EF
102
}
330
EF
100
AcDbVisualStyle
  2
Thicken
 70
    13
 71
     2
 72
     2
 73
     1
 90
        0
 40
-0.6
 41
-30.0
 62
     5
 63
     7
 74
     1
 91
        4
 64
     7
 65
   257
 75
     1
175
     1
 42
1.0
 92
       12
 66
     7
 43
1.0
 76
     1
 77
     6
 78
     2
 67
     7
 79
     5
170
     0
171
     0
290
     0
174
     0
 93
        1
 44
0.0
173
     0
291
     1
 45
0.0
1001
ACAD
1000
AcDbSavedByObjectVersion
1070
     0
  0
DICTIONARYVAR
  5
146
102
{ACAD_REACTORS
330
5E
102
}
330
5E
100
DictionaryVariables
280
     0
  1
1:1
  0
DICTIONARYVAR
  5
145
102
{ACAD_REACTORS
330
5E
102
}
330
5E
100
DictionaryVariables
280
     0
  1
STANDARD
  0
DICTIONARYVAR
  5
84
102
{ACAD_REACTORS
330
5E
102
}
330
5E
100
DictionaryVariables
280
     0
  1
STANDARD
  0
DICTIONARYVAR
  5
5F
102
{ACAD_REACTORS
330
5E
102
}
330
5E
100
DictionaryVariables
280
     0
  1
2
  0
DICTIONARYVAR
  5
63
102
{ACAD_REACTORS
330
5E
102
}
330
5E
100
DictionaryVariables
280
     0
  1
1
  0
DICTIONARYVAR
  5
466
102
{ACAD_REACTORS
330
5E
102
}
330
5E
100
DictionaryVariables
280
     0
  1
0
  0
DICTIONARYVAR
  5
464
102
{ACAD_REACTORS
330
5E
102
}
330
5E
100
DictionaryVariables
280
     0
  1
2
  0
DICTIONARYVAR
  5
463
102
{ACAD_REACTORS
330
5E
102
}
330
5E
100
DictionaryVariables
280
     0
  1
1
  0
DICTIONARYVAR
  5
33B0
102
{ACAD_REACTORS
330
5E
102
}
330
5E
100
DictionaryVariables
280
     0
  1
80.000000
  0
DICTIONARYVAR
  5
33AF
102
{ACAD_REACTORS
330
5E
102
}
330
5E
100
DictionaryVariables
280
     0
  1
5.000000
  0
DICTIONARYVAR
  5
465
102
{ACAD_REACTORS
330
5E
102
}
330
5E
100
DictionaryVariables
280
     0
  1
127
  0
DICTIONARY
  5
2D0D
102
{ACAD_REACTORS
330
2D0C
102
}
330
2D0C
100
AcDbDictionary
281
     1
  0
DICTIONARY
  5
33B5
330
D3
100
AcDbDictionary
280
     1
281
     1
  3
ACAD_XREC_ROUNDTRIP
360
33B6
  0
DICTIONARY
  5
33B7
330
D7
100
AcDbDictionary
280
     1
281
     1
  3
ACAD_XREC_ROUNDTRIP
360
33B8
  0
DICTIONARY
  5
33B2
330
22
100
AcDbDictionary
280
     1
281
     1
  3
ACAD_XREC_ROUNDTRIP
360
33B3
  0
DICTIONARY
  5
33BB
330
ED
100
AcDbDictionary
280
     1
281
     1
  3
ACAD_XREC_ROUNDTRIP
360
33BC
  0
DICTIONARY
  5
33B9
330
EC
100
AcDbDictionary
280
     1
281
     1
  3
ACAD_XREC_ROUNDTRIP
360
33BA
  0
DICTIONARY
  5
173
330
EE
100
AcDbDictionary
280
     1
281
     1
  3
ACAD_XREC_ROUNDTRIP
360
33BD
  3
BUMPTILE
360
175
  3
DIFFUSETILE
360
174
  3
OPACITYTILE
360
176
  3
REFLECTIONTILE
360
177
  0
DICTIONARY
  5
162
330
7F
100
AcDbDictionary
280
     1
281
     1
  3
ACAD_ROUNDTRIP_2008_TABLESTYLE_CELLSTYLEMAP
360
32B6
  3
ACAD_XREC_ROUNDTRIP
360
33B4
  0
XRECORD
  5
33B6
102
{ACAD_REACTORS
330
33B5
102
}
330
33B5
100
AcDbXrecord
280
     1
102
SHADEPLOT
 70
     0
102
SHADEPLOTRESLEVEL
 70
     2
102
SHADEPLOTCUSTOMDPI
 70
   300
  0
XRECORD
  5
33B8
102
{ACAD_REACTORS
330
33B7
102
}
330
33B7
100
AcDbXrecord
280
     1
102
SHADEPLOT
 70
     0
102
SHADEPLOTRESLEVEL
 70
     2
102
SHADEPLOTCUSTOMDPI
 70
   300
  0
XRECORD
  5
33B3
102
{ACAD_REACTORS
330
33B2
102
}
330
33B2
100
AcDbXrecord
280
     1
102
SHADEPLOT
 70
     0
102
SHADEPLOTRESLEVEL
 70
     2
102
SHADEPLOTCUSTOMDPI
 70
   300
  0
XRECORD
  5
33BC
102
{ACAD_REACTORS
330
33BB
102
}
330
33BB
100
AcDbXrecord
280
     1
102
MATERIAL
148
0.0
149
0.0
149
0.0
 93
        0
 94
       63
282
     0
 72
     1
 77
     1
171
     1
175
     1
179
     1
273
     0
  0
XRECORD
  5
33BA
102
{ACAD_REACTORS
330
33B9
102
}
330
33B9
100
AcDbXrecord
280
     1
102
MATERIAL
148
0.0
149
0.0
149
0.0
 93
        0
 94
       63
282
     0
 72
     1
 77
     1
171
     1
175
     1
179
     1
273
     0
  0
XRECORD
  5
33BD
102
{ACAD_REACTORS
330
173
102
}
330
173
100
AcDbXrecord
280
     1
102
MATERIAL
148
0.0
149
0.0
149
0.0
 93
        0
 94
       63
282
     0
 72
     1
 77
     1
171
     1
175
     1
179
     1
273
     0
  0
XRECORD
  5
175
102
{ACAD_REACTORS
330
173
102
}
330
173
100
AcDbXrecord
280
     1
270
     1
271
     1
  0
XRECORD
  5
174
102
{ACAD_REACTORS
330
173
102
}
330
173
100
AcDbXrecord
280
     1
270
     1
271
     1
  0
XRECORD
  5
176
102
{ACAD_REACTORS
330
173
102
}
330
173
100
AcDbXrecord
280
     1
270
     1
271
     1
  0
XRECORD
  5
177
102
{ACAD_REACTORS
330
173
102
}
330
173
100
AcDbXrecord
280
     1
270
     1
271
     1
  0
ACAD_PROXY_OBJECT
  5
32B6
102
{ACAD_REACTORS
330
162
102
}
330
162
100
AcDbProxyObject
 90
      499
 91
      509
 95
       23
 70
     0
 93
     5304
310
40D054060020000020000003200101A000080002A5058000000C10000000000000006101010000000000003E0FC000000000000F83F0000000000003E0FC000000000000F83F02B5E8DC0F42B1CFC0AD7A3703D0AC73F419019018000000C1003FBFFFFFE0000000000003C8FD029018000000C1003FBFFFFFE00000000000
310
03C8FD049018000000C1003FBFFFFFE0000000000003C8FD089018000000C1003FBFFFFFE0000000000003C8FD109018000000C1003FBFFFFFE0000000000003C8FD209018000000C1003FBFFFFFE0000000000003C8FD01405075F5449544C450041501A8000000C800406800020000A94160000003040000000000000012
310
40404000000000000F83F0000000000003E0FC000000000000F83F0000000000003E0FC0AD7A3703D0AC73F02B5E8DC0F42B1CFD0640640600000030400FEFFFFFF8000000000000F23F40A40600000030400FEFFFFFF8000000000000F23F41240600000030400FEFFFFFF8000000000000F23F42240600000030400FEFFF
310
FFF8000000000000F23F44240600000030400FEFFFFFF8000000000000F23F48240600000030400FEFFFFFF8000000000000F23F409014217D2115051115480105406A0000003200101A000080002A5028000000C10000000000000004901010000000000003E0FC000000000000F83F0000000000003E0FC000000000000F
310
83F02B5E8DC0F42B1CFC0AD7A3703D0AC73F419019018000000C1003FBFFFFFE0000000000003C8FD029018000000C1003FBFFFFFE0000000000003C8FD049018000000C1003FBFFFFFE0000000000003C8FD089018000000C1003FBFFFFFE0000000000003C8FD109018000000C1003FBFFFFFE0000000000003C8FD20901
310
8000000C1003FBFFFFFE0000000000003C8FD03409065F444154410000
340
11
340
14
340
14
340
14
340
14
340
14
340
14
340
11
340
14
340
14
340
14
340
14
340
14
340
14
340
11
340
14
340
14
340
14
340
14
340
14
340
14
 94
        0
1001
ACAD
1000
AcRTDxfName
1000
CELLSTYLEMAP
1000
AcRTDxfName
1000
CELLSTYLEMAP
1000
AcRTDxfName
1000
CELLSTYLEMAP
  0
XRECORD
  5
33B4
102
{ACAD_REACTORS
330
162
102
}
330
162
100
AcDbXrecord
280
     1
102
ACAD_ROUNDTRIP_PRE2007_TABLESTYLE
 90
      512
 91
        0
  1

 92
      512
 93
        0
  2

 94
      512
 95
        0
  3

  0
ENDSEC
  0
EOF
