  0
SECTION
  2
HEADER
  9
$ACADVER
  1
AC1015
  9
$ACADMAINTVER
 70
    20
  9
$DWGCODEPAGE
  3
ANSI_1250
  9
$INSBASE
 10
0.0
 20
0.0
 30
0.0
  9
$EXTMIN
 10
-0.0021483808110929
 20
-0.0072314635538078
 30
-0.0000000000000053
  9
$EXTMAX
 10
210.0074634828281
 20
297.0063555422811
 30
0.0000000000000099
  9
$LIMMIN
 10
0.0
 20
0.0
  9
$LIMMAX
 10
210.0
 20
297.0
  9
$ORTHOMODE
 70
     0
  9
$REGENMODE
 70
     1
  9
$FILLMODE
 70
     1
  9
$QTEXTMODE
 70
     0
  9
$MIRRTEXT
 70
     0
  9
$LTSCALE
 40
1.0
  9
$ATTMODE
 70
     2
  9
$TEXTSIZE
 40
5.0
  9
$TRACEWID
 40
1.0
  9
$TEXTSTYLE
  7
Solbet_5
  9
$CLAYER
  8
SOLBET_Zbrojenie_Konstrukcja
  9
$CELTYPE
  6
ByLayer
  9
$CECOLOR
 62
   256
  9
$CELTSCALE
 40
1.0
  9
$DISPSILH
 70
     0
  9
$DIMSCALE
 40
1.0
  9
$DIMASZ
 40
2.5
  9
$DIMEXO
 40
0.0
  9
$DIMDLI
 40
3.75
  9
$DIMRND
 40
0.0
  9
$DIMDLE
 40
0.0
  9
$DIMEXE
 40
1.25
  9
$DIMTP
 40
0.0
  9
$DIMTM
 40
0.0
  9
$DIMTXT
 40
2.5
  9
$DIMCEN
 40
2.5
  9
$DIMTSZ
 40
0.0
  9
$DIMTOL
 70
     0
  9
$DIMLIM
 70
     0
  9
$DIMTIH
 70
     0
  9
$DIMTOH
 70
     0
  9
$DIMSE1
 70
     0
  9
$DIMSE2
 70
     0
  9
$DIMTAD
 70
     1
  9
$DIMZIN
 70
     8
  9
$DIMBLK
  1

  9
$DIMASO
 70
     1
  9
$DIMSHO
 70
     1
  9
$DIMPOST
  1

  9
$DIMAPOST
  1

  9
$DIMALT
 70
     0
  9
$DIMALTD
 70
     3
  9
$DIMALTF
 40
0.03937007874016
  9
$DIMLFAC
 40
1.0
  9
$DIMTOFL
 70
     1
  9
$DIMTVP
 40
0.0
  9
$DIMTIX
 70
     0
  9
$DIMSOXD
 70
     0
  9
$DIMSAH
 70
     0
  9
$DIMBLK1
  1

  9
$DIMBLK2
  1

  9
$DIMSTYLE
  2
Solbet
  9
$DIMCLRD
 70
     0
  9
$DIMCLRE
 70
     0
  9
$DIMCLRT
 70
     0
  9
$DIMTFAC
 40
1.0
  9
$DIMGAP
 40
0.625
  9
$DIMJUST
 70
     0
  9
$DIMSD1
 70
     0
  9
$DIMSD2
 70
     0
  9
$DIMTOLJ
 70
     0
  9
$DIMTZIN
 70
     8
  9
$DIMALTZ
 70
     0
  9
$DIMALTTZ
 70
     0
  9
$DIMUPT
 70
     0
  9
$DIMDEC
 70
     2
  9
$DIMTDEC
 70
     2
  9
$DIMALTU
 70
     2
  9
$DIMALTTD
 70
     3
  9
$DIMTXSTY
  7
Solbet_2_5
  9
$DIMAUNIT
 70
     0
  9
$DIMADEC
 70
     0
  9
$DIMALTRND
 40
0.0
  9
$DIMAZIN
 70
     0
  9
$DIMDSEP
 70
    44
  9
$DIMATFIT
 70
     3
  9
$DIMFRAC
 70
     0
  9
$DIMLDRBLK
  1

  9
$DIMLUNIT
 70
     2
  9
$DIMLWD
 70
    -2
  9
$DIMLWE
 70
    -2
  9
$DIMTMOVE
 70
     0
  9
$LUNITS
 70
     2
  9
$LUPREC
 70
     4
  9
$SKETCHINC
 40
1.0
  9
$FILLETRAD
 40
0.0
  9
$AUNITS
 70
     0
  9
$AUPREC
 70
     0
  9
$MENU
  1
.
  9
$ELEVATION
 40
0.0
  9
$PELEVATION
 40
0.0
  9
$THICKNESS
 40
0.0
  9
$LIMCHECK
 70
     0
  9
$CHAMFERA
 40
0.0
  9
$CHAMFERB
 40
0.0
  9
$CHAMFERC
 40
0.0
  9
$CHAMFERD
 40
0.0
  9
$SKPOLY
 70
     0
  9
$TDCREATE
 40
2454690.075573148
  9
$TDUCREATE
 40
2454690.033906482
  9
$TDUPDATE
 40
2454848.887941354
  9
$TDUUPDATE
 40
2454848.846274687
  9
$TDINDWG
 40
0.7141562269
  9
$TDUSRTIMER
 40
0.7141517014
  9
$USRTIMER
 70
     1
  9
$ANGBASE
 50
0.0
  9
$ANGDIR
 70
     0
  9
$PDMODE
 70
     0
  9
$PDSIZE
 40
0.0
  9
$PLINEWID
 40
0.0
  9
$SPLFRAME
 70
     0
  9
$SPLINETYPE
 70
     6
  9
$SPLINESEGS
 70
     8
  9
$HANDSEED
  5
3B2D
  9
$SURFTAB1
 70
     6
  9
$SURFTAB2
 70
     6
  9
$SURFTYPE
 70
     6
  9
$SURFU
 70
     6
  9
$SURFV
 70
     6
  9
$UCSBASE
  2

  9
$UCSNAME
  2

  9
$UCSORG
 10
0.0
 20
0.0
 30
0.0
  9
$UCSXDIR
 10
1.0
 20
0.0
 30
0.0
  9
$UCSYDIR
 10
0.0
 20
1.0
 30
0.0
  9
$UCSORTHOREF
  2

  9
$UCSORTHOVIEW
 70
     0
  9
$UCSORGTOP
 10
0.0
 20
0.0
 30
0.0
  9
$UCSORGBOTTOM
 10
0.0
 20
0.0
 30
0.0
  9
$UCSORGLEFT
 10
0.0
 20
0.0
 30
0.0
  9
$UCSORGRIGHT
 10
0.0
 20
0.0
 30
0.0
  9
$UCSORGFRONT
 10
0.0
 20
0.0
 30
0.0
  9
$UCSORGBACK
 10
0.0
 20
0.0
 30
0.0
  9
$PUCSBASE
  2

  9
$PUCSNAME
  2

  9
$PUCSORG
 10
0.0
 20
0.0
 30
0.0
  9
$PUCSXDIR
 10
1.0
 20
0.0
 30
0.0
  9
$PUCSYDIR
 10
0.0
 20
1.0
 30
0.0
  9
$PUCSORTHOREF
  2

  9
$PUCSORTHOVIEW
 70
     0
  9
$PUCSORGTOP
 10
0.0
 20
0.0
 30
0.0
  9
$PUCSORGBOTTOM
 10
0.0
 20
0.0
 30
0.0
  9
$PUCSORGLEFT
 10
0.0
 20
0.0
 30
0.0
  9
$PUCSORGRIGHT
 10
0.0
 20
0.0
 30
0.0
  9
$PUCSORGFRONT
 10
0.0
 20
0.0
 30
0.0
  9
$PUCSORGBACK
 10
0.0
 20
0.0
 30
0.0
  9
$USERI1
 70
     0
  9
$USERI2
 70
     0
  9
$USERI3
 70
     0
  9
$USERI4
 70
     0
  9
$USERI5
 70
     0
  9
$USERR1
 40
0.0
  9
$USERR2
 40
0.0
  9
$USERR3
 40
0.0
  9
$USERR4
 40
0.0
  9
$USERR5
 40
0.0
  9
$WORLDVIEW
 70
     1
  9
$SHADEDGE
 70
     3
  9
$SHADEDIF
 70
    70
  9
$TILEMODE
 70
     1
  9
$MAXACTVP
 70
    64
  9
$PINSBASE
 10
0.0
 20
0.0
 30
0.0
  9
$PLIMCHECK
 70
     0
  9
$PEXTMIN
 10
0.0
 20
0.0
 30
0.0
  9
$PEXTMAX
 10
0.0
 20
0.0
 30
0.0
  9
$PLIMMIN
 10
0.0
 20
0.0
  9
$PLIMMAX
 10
12.0
 20
9.0
  9
$UNITMODE
 70
     0
  9
$VISRETAIN
 70
     1
  9
$PLINEGEN
 70
     0
  9
$PSLTSCALE
 70
     1
  9
$TREEDEPTH
 70
  3020
  9
$CMLSTYLE
  2
SOLBET_IZOLACJA
  9
$CMLJUST
 70
     0
  9
$CMLSCALE
 40
20.0
  9
$PROXYGRAPHICS
 70
     1
  9
$MEASUREMENT
 70
     1
  9
$CELWEIGHT
370
    -1
  9
$ENDCAPS
280
     0
  9
$JOINSTYLE
280
     0
  9
$LWDISPLAY
290
     1
  9
$INSUNITS
 70
     4
  9
$HYPERLINKBASE
  1

  9
$STYLESHEET
  1

  9
$XEDIT
290
     1
  9
$CEPSNTYPE
380
     0
  9
$PSTYLEMODE
290
     1
  9
$FINGERPRINTGUID
  2
{6B12AB33-8E39-428E-8E85-461C8D99A3CB}
  9
$VERSIONGUID
  2
{DC266787-FAE0-4484-8DA4-F9BDDF9B6AAE}
  9
$EXTNAMES
290
     1
  9
$PSVPSCALE
 40
0.0
  9
$OLESTARTUP
290
     0
  0
ENDSEC
  0
SECTION
  2
CLASSES
  0
CLASS
  1
ACDBDICTIONARYWDFLT
  2
AcDbDictionaryWithDefault
  3
ObjectDBX Classes
 90
        0
280
     0
281
     0
  0
CLASS
  1
ACDBPLACEHOLDER
  2
AcDbPlaceHolder
  3
ObjectDBX Classes
 90
        0
280
     0
281
     0
  0
CLASS
  1
LAYOUT
  2
AcDbLayout
  3
ObjectDBX Classes
 90
        0
280
     0
281
     0
  0
CLASS
  1
DICTIONARYVAR
  2
AcDbDictionaryVar
  3
ObjectDBX Classes
 90
        0
280
     0
281
     0
  0
CLASS
  1
TABLESTYLE
  2
AcDbTableStyle
  3
ObjectDBX Classes
 90
     4095
280
     0
281
     0
  0
CLASS
  1
MATERIAL
  2
AcDbMaterial
  3
ObjectDBX Classes
 90
     1024
280
     0
281
     0
  0
CLASS
  1
VISUALSTYLE
  2
AcDbVisualStyle
  3
ObjectDBX Classes
 90
     4095
280
     0
281
     0
  0
CLASS
  1
SCALE
  2
AcDbScale
  3
ObjectDBX Classes
 90
     1153
280
     0
281
     0
  0
CLASS
  1
MLEADERSTYLE
  2
AcDbMLeaderStyle
  3
ACDB_MLEADERSTYLE_CLASS
 90
     4095
280
     0
281
     0
  0
CLASS
  1
CELLSTYLEMAP
  2
AcDbCellStyleMap
  3
ObjectDBX Classes
 90
     1152
280
     0
281
     0
  0
CLASS
  1
DIMASSOC
  2
AcDbDimAssoc
  3
"AcDbDimAssoc|Product Desc:     AcDim ARX App For Dimension|Company:          Autodesk, Inc.|WEB Address:      www.autodesk.com"
 90
    32768
280
     0
281
     0
  0
CLASS
  1
SORTENTSTABLE
  2
AcDbSortentsTable
  3
ObjectDBX Classes
 90
        0
280
     0
281
     0
  0
CLASS
  1
MULTILEADER
  2
AcDbMLeader
  3
ACDB_MLEADER_CLASS
 90
    33793
280
     0
281
     1
  0
CLASS
  1
ACDB_MTEXTOBJECTCONTEXTDATA_CLASS
  2
AcDbMTextObjectContextData
  3
ObjectDBX Classes
 90
    33921
280
     0
281
     0
  0
ENDSEC
  0
SECTION
  2
TABLES
  0
TABLE
  2
VPORT
  5
8
102
{ACAD_XDICTIONARY
360
443
102
}
330
0
100
AcDbSymbolTable
 70
     1
  0
VPORT
  5
EA
330
8
100
AcDbSymbolTableRecord
100
AcDbViewportTableRecord
  2
*Active
 70
     0
 10
0.0
 20
0.0
 11
1.0
 21
1.0
 12
105.0026575510085
 22
148.4995620393636
 13
0.0
 23
0.0
 14
10.0
 24
10.0
 15
10.0
 25
10.0
 16
0.0
 26
0.0
 36
1.0
 17
0.0
 27
0.0
 37
0.0
 40
300.3137379725664
 41
1.74582560296846
 42
50.0
 43
0.0
 44
0.0
 50
0.0
 51
0.0
 71
     0
 72
  1000
 73
     1
 74
     3
 75
     0
 76
     0
 77
     0
 78
     0
281
     0
 65
     1
110
0.0
120
0.0
130
0.0
111
1.0
121
0.0
131
0.0
112
0.0
122
1.0
132
0.0
 79
     0
146
0.0
  0
ENDTAB
  0
TABLE
  2
LTYPE
  5
5
330
0
100
AcDbSymbolTable
 70
     3
  0
LTYPE
  5
14
330
5
100
AcDbSymbolTableRecord
100
AcDbLinetypeTableRecord
  2
ByBlock
 70
     0
  3

 72
    65
 73
     0
 40
0.0
  0
LTYPE
  5
15
330
5
100
AcDbSymbolTableRecord
100
AcDbLinetypeTableRecord
  2
ByLayer
 70
     0
  3

 72
    65
 73
     0
 40
0.0
  0
LTYPE
  5
16
330
5
100
AcDbSymbolTableRecord
100
AcDbLinetypeTableRecord
  2
Continuous
 70
     0
  3
Solid line
 72
    65
 73
     0
 40
0.0
  0
LTYPE
  5
982
330
5
100
AcDbSymbolTableRecord
100
AcDbLinetypeTableRecord
  2
BATTING
 70
     0
  3
Batting SSSSSSSSSSSSSSSSSSSSSSSSSSSSSSSSSSSSSSSSSSSSSSS
 72
    65
 73
     4
 40
10.16254
 49
0.00254
 74
     0
 49
-2.54
 74
     4
 75
   134
340
7E7
 46
2.54
 50
0.0
 44
-2.54
 45
0.0
 49
-5.08
 74
     4
 75
   134
340
7E7
 46
2.54
 50
180.0
 44
2.54
 45
0.0
 49
-2.54
 74
     0
  0
LTYPE
  5
38D9
330
5
100
AcDbSymbolTableRecord
100
AcDbLinetypeTableRecord
  2
DASHED2
 70
     0
  3
Dashed (.5x) _ _ _ _ _ _ _ _ _ _ _ _ _ _ _ _ _
 72
    65
 73
     2
 40
9.524999999999998
 49
6.349999999999999
 74
     0
 49
-3.174999999999999
 74
     0
  0
ENDTAB
  0
TABLE
  2
LAYER
  5
2
102
{ACAD_XDICTIONARY
360
3E5
102
}
330
0
100
AcDbSymbolTable
 70
    13
  0
LAYER
  5
10
102
{ACAD_XDICTIONARY
360
13C
102
}
330
2
100
AcDbSymbolTableRecord
100
AcDbLayerTableRecord
  2
0
 70
     0
 62
     7
  6
Continuous
370
    -3
390
F
  0
LAYER
  5
2BB
330
2
100
AcDbSymbolTableRecord
100
AcDbLayerTableRecord
  2
DEFPOINTS
 70
     0
 62
     7
  6
Continuous
290
     0
370
    -3
390
F
  0
LAYER
  5
3DD
102
{ACAD_XDICTIONARY
360
403
102
}
330
2
100
AcDbSymbolTableRecord
100
AcDbLayerTableRecord
  2
SOLBET_Bloczki
 70
     0
 62
   140
  6
Continuous
370
    -3
390
F
1001
AcAecLayerStandard
1000

1000

  0
LAYER
  5
3DF
102
{ACAD_XDICTIONARY
360
405
102
}
330
2
100
AcDbSymbolTableRecord
100
AcDbLayerTableRecord
  2
SOLBET_Wymiary_Opisy
 70
     0
 62
     1
  6
Continuous
370
    -3
390
F
1001
AcAecLayerStandard
1000

1000

  0
LAYER
  5
3E1
102
{ACAD_XDICTIONARY
360
409
102
}
330
2
100
AcDbSymbolTableRecord
100
AcDbLayerTableRecord
  2
SOLBET_Izolacja
 70
     0
 62
    40
  6
Continuous
370
    -3
390
F
1001
AcAecLayerStandard
1000

1000

  0
LAYER
  5
3E2
102
{ACAD_XDICTIONARY
360
40B
102
}
330
2
100
AcDbSymbolTableRecord
100
AcDbLayerTableRecord
  2
SOLBET_Zbrojenie_Konstrukcja
 70
     0
 62
     7
  6
Continuous
370
    -3
390
F
1001
AcAecLayerStandard
1000

1000

  0
LAYER
  5
3E4
102
{ACAD_XDICTIONARY
360
40F
102
}
330
2
100
AcDbSymbolTableRecord
100
AcDbLayerTableRecord
  2
SOLBET_Tynki_Posadzki
 70
     0
 62
     3
  6
Continuous
370
    -3
390
F
1001
AcAecLayerStandard
1000

1000

  0
LAYER
  5
3E8
102
{ACAD_XDICTIONARY
360
411
102
}
330
2
100
AcDbSymbolTableRecord
100
AcDbLayerTableRecord
  2
SOLBET_Ramka_05
 70
     0
 62
     2
  6
Continuous
370
    -3
390
F
1001
AcAecLayerStandard
1000

1000

  0
LAYER
  5
472
330
2
100
AcDbSymbolTableRecord
100
AcDbLayerTableRecord
  2
SOLBET_Zaprawy
 70
     0
 62
     4
  6
Continuous
370
    -3
390
F
1001
AcAecLayerStandard
1000

1000

  0
LAYER
  5
4E2
330
2
100
AcDbSymbolTableRecord
100
AcDbLayerTableRecord
  2
SOLBET_Emulsje_Folie
 70
     0
 62
     6
  6
Continuous
370
    -3
390
F
1001
AcAecLayerStandard
1000

1000

  0
LAYER
  5
2316
330
2
100
AcDbSymbolTableRecord
100
AcDbLayerTableRecord
  2
SOLBET_Stolarka_Okna
 70
     0
 62
     2
  6
Continuous
370
    -3
390
F
1001
AcAecLayerStandard
1000

1000

  0
LAYER
  5
34AB
330
2
100
AcDbSymbolTableRecord
100
AcDbLayerTableRecord
  2
SOLBET_Beton
 70
     0
 62
     9
  6
Continuous
370
    -3
390
F
1001
AcAecLayerStandard
1000

1000

  0
LAYER
  5
3A33
102
{ACAD_XDICTIONARY
360
3A34
102
}
330
2
100
AcDbSymbolTableRecord
100
AcDbLayerTableRecord
  2
SOLBET_Wymiary_Opisy @ 1
 70
     0
 62
     1
  6
Continuous
370
    -3
390
F
1001
AcAecLayerStandard
1000

1000

1001
AcadAnnotativeDecomposition
1000
AnnotativeData
1002
{
1070
     1
1070
     1
1002
}
  0
ENDTAB
  0
TABLE
  2
STYLE
  5
3
330
0
100
AcDbSymbolTable
 70
     5
  0
STYLE
  5
11
330
3
100
AcDbSymbolTableRecord
100
AcDbTextStyleTableRecord
  2
Standard
 70
     0
 40
0.0
 41
1.0
 50
0.0
 71
     0
 42
2.5
  3
txt.shx
  4

  0
STYLE
  5
7D7
330
3
100
AcDbSymbolTableRecord
100
AcDbTextStyleTableRecord
  2
Solbet_5
 70
     0
 40
5.0
 41
1.0
 50
0.0
 71
     0
 42
5.0
  3
isocpeur.ttf
  4

1001
ACAD
1000
ISOCPEUR
1071
       34
  0
STYLE
  5
7D9
330
3
100
AcDbSymbolTableRecord
100
AcDbTextStyleTableRecord
  2
Solbet_2_5
 70
     0
 40
2.5
 41
1.0
 50
0.0
 71
     0
 42
2.5
  3
isocpeur.ttf
  4

1001
ACAD
1000
ISOCPEUR
1071
       34
  0
STYLE
  5
7E7
330
3
100
AcDbSymbolTableRecord
100
AcDbTextStyleTableRecord
  2

 70
     1
 40
0.0
 41
1.0
 50
0.0
 71
     0
 42
2.5
  3
ltypeshp.shx
  4

  0
STYLE
  5
28D1
330
3
100
AcDbSymbolTableRecord
100
AcDbTextStyleTableRecord
  2
Solbet_1
 70
     0
 40
1.0
 41
1.0
 50
0.0
 71
     0
 42
2.5
  3
isocpeur.ttf
  4

1001
ACAD
1000
ISOCPEUR
1071
       34
  0
ENDTAB
  0
TABLE
  2
VIEW
  5
6
330
0
100
AcDbSymbolTable
 70
     0
  0
ENDTAB
  0
TABLE
  2
UCS
  5
7
330
0
100
AcDbSymbolTable
 70
     0
  0
ENDTAB
  0
TABLE
  2
APPID
  5
9
330
0
100
AcDbSymbolTable
 70
    13
  0
APPID
  5
12
330
9
100
AcDbSymbolTableRecord
100
AcDbRegAppTableRecord
  2
ACAD
 70
     0
  0
APPID
  5
9E
330
9
100
AcDbSymbolTableRecord
100
AcDbRegAppTableRecord
  2
ACAD_PSEXT
 70
     0
  0
APPID
  5
133
330
9
100
AcDbSymbolTableRecord
100
AcDbRegAppTableRecord
  2
AcadAnnoPO
 70
     0
  0
APPID
  5
134
330
9
100
AcDbSymbolTableRecord
100
AcDbRegAppTableRecord
  2
AcadAnnotative
 70
     0
  0
APPID
  5
135
330
9
100
AcDbSymbolTableRecord
100
AcDbRegAppTableRecord
  2
ACAD_DSTYLE_DIMJAG
 70
     0
  0
APPID
  5
136
330
9
100
AcDbSymbolTableRecord
100
AcDbRegAppTableRecord
  2
ACAD_DSTYLE_DIMTALN
 70
     0
  0
APPID
  5
165
330
9
100
AcDbSymbolTableRecord
100
AcDbRegAppTableRecord
  2
ACAD_MLEADERVER
 70
     0
  0
APPID
  5
2C4
330
9
100
AcDbSymbolTableRecord
100
AcDbRegAppTableRecord
  2
ASO_SCHRAFF
 70
     0
  0
APPID
  5
3DE
330
9
100
AcDbSymbolTableRecord
100
AcDbRegAppTableRecord
  2
AcAecLayerStandard
 70
     0
  0
APPID
  5
7DE
330
9
100
AcDbSymbolTableRecord
100
AcDbRegAppTableRecord
  2
ACAD_EXEMPT_FROM_CAD_STANDARDS
 70
     0
  0
APPID
  5
948
330
9
100
AcDbSymbolTableRecord
100
AcDbRegAppTableRecord
  2
ACAD_DSTYLE_DIMBREAK
 70
     0
  0
APPID
  5
1D0A
330
9
100
AcDbSymbolTableRecord
100
AcDbRegAppTableRecord
  2
AcadAnnotativeDecomposition
 70
     0
  0
APPID
  5
2274
330
9
100
AcDbSymbolTableRecord
100
AcDbRegAppTableRecord
  2
AcDbAttr
 70
     0
  0
ENDTAB
  0
TABLE
  2
DIMSTYLE
  5
A
330
0
100
AcDbSymbolTable
 70
     2
100
AcDbDimStyleTable
 71
     1
340
949
  0
DIMSTYLE
105
949
330
A
100
AcDbSymbolTableRecord
100
AcDbDimStyleTableRecord
  2
Solbet
 70
     0
 41
2.5
 42
0.0
 43
3.75
 44
1.25
 73
     0
 74
     0
 77
     1
 78
     8
140
2.5
141
2.5
143
0.03937007874016
147
0.625
171
     3
172
     1
271
     2
272
     2
274
     3
278
    44
283
     0
284
     8
340
7D9
1001
ACAD_DSTYLE_DIMBREAK
1070
   391
1040
3.75
1001
ACAD_DSTYLE_DIMJAG
1070
   388
1040
1.5
1001
ACAD_DSTYLE_DIMTALN
1070
   392
1070
     0
  0
DIMSTYLE
105
954
330
A
100
AcDbSymbolTableRecord
100
AcDbDimStyleTableRecord
  2
Solbet$7
 70
     0
 41
2.5
 42
0.0
 43
3.75
 44
1.25
 73
     0
 74
     0
 77
     1
 78
     8
140
2.5
141
2.5
143
0.03937007874016
147
0.625
171
     3
172
     1
271
     2
272
     2
274
     3
278
    44
283
     0
284
     8
340
7D9
341
958
1001
ACAD_DSTYLE_DIMBREAK
1070
   391
1040
3.75
1001
ACAD_DSTYLE_DIMJAG
1070
   388
1040
1.5
1001
ACAD_DSTYLE_DIMTALN
1070
   392
1070
     0
  0
ENDTAB
  0
TABLE
  2
BLOCK_RECORD
  5
1
330
0
100
AcDbSymbolTable
 70
     9
  0
BLOCK_RECORD
  5
1F
102
{ACAD_XDICTIONARY
360
4A3
102
}
330
1
100
AcDbSymbolTableRecord
100
AcDbBlockTableRecord
  2
*Model_Space
340
22
  0
BLOCK_RECORD
  5
D2
330
1
100
AcDbSymbolTableRecord
100
AcDbBlockTableRecord
  2
*Paper_Space
340
D3
  0
BLOCK_RECORD
  5
D6
330
1
100
AcDbSymbolTableRecord
100
AcDbBlockTableRecord
  2
*Paper_Space0
340
D7
  0
BLOCK_RECORD
  5
958
330
1
100
AcDbSymbolTableRecord
100
AcDbBlockTableRecord
  2
_DotSmall
340
0
102
{BLKREFS
331
31E6
331
31EC
331
3201
331
3911
331
3916
102
}
  0
BLOCK_RECORD
  5
24E6
330
1
100
AcDbSymbolTableRecord
100
AcDbBlockTableRecord
  2
*X2
340
0
102
{BLKREFS
331
31B4
102
}
  0
BLOCK_RECORD
  5
2F25
330
1
100
AcDbSymbolTableRecord
100
AcDbBlockTableRecord
  2
*U3
340
0
102
{BLKREFS
331
30A8
102
}
  0
BLOCK_RECORD
  5
31CC
102
{ACAD_XDICTIONARY
360
31D7
102
}
330
1
100
AcDbSymbolTableRecord
100
AcDbBlockTableRecord
  2
SOLBET_Bloczek_OPTIMAL_240x240x590_PRA
340
0
1001
ACAD
1000
DesignCenter Data
1002
{
1070
     1
1070
     4
1002
}
  0
BLOCK_RECORD
  5
37C8
102
{ACAD_XDICTIONARY
360
37D4
102
}
330
1
100
AcDbSymbolTableRecord
100
AcDbBlockTableRecord
  2
SOLBET_Bloczek_Optimal_420x240x590_P+W_PRA
340
0
1001
ACAD
1000
DesignCenter Data
1002
{
1070
     1
1070
     4
1002
}
  0
BLOCK_RECORD
  5
37FF
102
{ACAD_XDICTIONARY
360
380B
102
}
330
1
100
AcDbSymbolTableRecord
100
AcDbBlockTableRecord
  2
SOLBET_Bloczek_OPTIMAL_240x240x590_P+W_PRA
340
0
1001
ACAD
1000
DesignCenter Data
1002
{
1070
     1
1070
     4
1002
}
  0
BLOCK_RECORD
  5
3A67
102
{ACAD_XDICTIONARY
360
3A73
102
}
330
1
100
AcDbSymbolTableRecord
100
AcDbBlockTableRecord
  2
SOLBET_Bloczek_Optimal_240x240x590_P+W_KG600_PRA
340
0
102
{BLKREFS
331
3A77
331
3A78
331
3A79
102
}
1001
ACAD
1000
DesignCenter Data
1002
{
1070
     1
1070
     4
1002
}
  0
ENDTAB
  0
ENDSEC
  0
SECTION
  2
BLOCKS
  0
BLOCK
  5
20
330
1F
100
AcDbEntity
  8
0
100
AcDbBlockBegin
  2
*Model_Space
 70
     0
 10
0.0
 20
0.0
 30
0.0
  3
*Model_Space
  1

  0
ENDBLK
  5
21
330
1F
100
AcDbEntity
  8
0
100
AcDbBlockEnd
  0
BLOCK
  5
D4
330
D2
100
AcDbEntity
 67
     1
  8
0
100
AcDbBlockBegin
  2
*Paper_Space
 70
     0
 10
0.0
 20
0.0
 30
0.0
  3
*Paper_Space
  1

  0
ENDBLK
  5
D5
330
D2
100
AcDbEntity
 67
     1
  8
0
100
AcDbBlockEnd
  0
BLOCK
  5
D8
330
D6
100
AcDbEntity
 67
     1
  8
0
100
AcDbBlockBegin
  2
*Paper_Space0
 70
     0
 10
0.0
 20
0.0
 30
0.0
  3
*Paper_Space0
  1

  0
ENDBLK
  5
D9
330
D6
100
AcDbEntity
 67
     1
  8
0
100
AcDbBlockEnd
  0
BLOCK
  5
95A
330
958
100
AcDbEntity
  8
0
100
AcDbBlockBegin
  2
_DotSmall
 70
     0
 10
0.0
 20
0.0
 30
0.0
  3
_DotSmall
  1

  0
LWPOLYLINE
  5
959
330
958
100
AcDbEntity
  8
0
  6
ByBlock
 62
     0
100
AcDbPolyline
 90
        2
 70
     1
 43
0.5
 10
-0.0625
 20
0.0
 42
1.0
 10
0.0625
 20
0.0
 42
1.0
  0
ENDBLK
  5
95B
330
958
100
AcDbEntity
  8
0
100
AcDbBlockEnd
  0
BLOCK
  5
24E7
330
24E6
100
AcDbEntity
  8
0
100
AcDbBlockBegin
  2
*X2
 70
     1
 10
0.0
 20
0.0
 30
0.0
  3
*X2
  1
ASOWDBLK
  0
LINE
  5
24E8
330
24E6
100
AcDbEntity
  8
0
 62
     0
100
AcDbLine
 10
12.3679971441842
 20
9.463695206850969
 30
0.0
 11
12.37947492774574
 21
9.477373896645453
 31
0.0
  0
LINE
  5
24E9
330
24E6
100
AcDbEntity
  8
0
 62
     0
100
AcDbLine
 10
12.54731218983439
 20
9.448007173105322
 30
0.0
 11
12.55936445751601
 21
9.462370506413803
 31
0.0
  0
LINE
  5
24EA
330
24E6
100
AcDbEntity
  8
0
 62
     0
100
AcDbLine
 10
12.36799714853588
 20
9.463695209658894
 30
0.0
 11
12.38294006900726
 21
9.462387873517679
 31
0.0
  0
LINE
  5
24EB
330
24E6
100
AcDbEntity
  8
0
 62
     0
100
AcDbLine
 10
12.54731219419239
 20
9.448007175964315
 30
0.0
 11
12.56225511466377
 21
9.4466998398231
 31
0.0
  0
LINE
  5
24EC
330
24E6
100
AcDbEntity
  8
0
 62
     0
100
AcDbLine
 10
12.38294734493005
 20
9.4623781245925
 30
0.0
 11
12.38018119759329
 21
9.477373896645453
 31
0.0
  0
LINE
  5
24ED
330
24E6
100
AcDbEntity
  8
0
 62
     0
100
AcDbLine
 10
12.56226237690854
 20
9.446689950037018
 30
0.0
 11
12.55937173644585
 21
9.462360621258849
 31
0.0
  0
LINE
  5
24EE
330
24E6
100
AcDbEntity
  8
0
 62
     0
100
AcDbLine
 10
11.75616891039773
 20
9.427373896645452
 30
0.0
 11
11.76738393501053
 21
9.439062362340582
 31
0.0
  0
LINE
  5
24EF
330
24E6
100
AcDbEntity
  8
0
 62
     0
100
AcDbLine
 10
11.7687499570032
 20
9.427373896645452
 30
0.0
 11
11.76739122001888
 21
9.43905355256455
 31
0.0
  0
LINE
  5
24F0
330
24E6
100
AcDbEntity
  8
0
 62
     0
100
AcDbLine
 10
12.14321939628071
 20
9.427373896645452
 30
0.0
 11
12.16009382309612
 21
9.433851382211726
 31
0.0
  0
LINE
  5
24F1
330
24E6
100
AcDbEntity
  8
0
 62
     0
100
AcDbLine
 10
11.78330683110781
 20
9.447153917176395
 30
0.0
 11
11.80081146410463
 21
9.453873316230369
 31
0.0
  0
LINE
  5
24F2
330
24E6
100
AcDbEntity
  8
0
 62
     0
100
AcDbLine
 10
11.78330683628649
 20
9.447153915051121
 30
0.0
 11
11.79574239987482
 21
9.438766021499059
 31
0.0
  0
LINE
  5
24F3
330
24E6
100
AcDbEntity
  8
0
 62
     0
100
AcDbLine
 10
12.15793081287172
 20
9.427373896645452
 30
0.0
 11
12.16010106960009
 21
9.433841872497813
 31
0.0
  0
LINE
  5
24F4
330
24E6
100
AcDbEntity
  8
0
 62
     0
100
AcDbLine
 10
11.79574964859947
 20
9.438756799333843
 30
0.0
 11
11.8008187296486
 21
9.453864087513544
 31
0.0
  0
LINE
  5
24F5
330
24E6
100
AcDbEntity
  8
0
 62
     0
100
AcDbLine
 10
12.20471516834098
 20
9.445898146433325
 30
0.0
 11
12.20471516834098
 21
9.445898146433325
 31
0.0
  0
LINE
  5
24F6
330
24E6
100
AcDbEntity
  8
0
 62
     0
100
AcDbLine
 10
12.07635598518457
 20
9.428295498211584
 30
0.0
 11
12.07635598518457
 21
9.428295498211584
 31
0.0
  0
LINE
  5
24F7
330
24E6
100
AcDbEntity
  8
0
 62
     0
100
AcDbLine
 10
11.82327259770628
 20
9.476770236297685
 30
0.0
 11
11.82327259770628
 21
9.476770236297685
 31
0.0
  0
LINE
  5
24F8
330
24E6
100
AcDbEntity
  8
0
 62
     0
100
AcDbLine
 10
11.69491341454987
 20
9.459167588075944
 30
0.0
 11
11.69491341454987
 21
9.459167588075944
 31
0.0
  0
LINE
  5
24F9
330
24E6
100
AcDbEntity
  8
0
 62
     0
100
AcDbLine
 10
11.56506669388041
 20
9.44042351217481
 30
0.0
 11
11.56506669388041
 21
9.44042351217481
 31
0.0
  0
LINE
  5
24FA
330
24E6
100
AcDbEntity
  8
0
 62
     0
100
AcDbLine
 10
12.33099179897913
 20
9.461902795903919
 30
0.0
 11
12.33099179897913
 21
9.461902795903919
 31
0.0
  0
LINE
  5
24FB
330
24E6
100
AcDbEntity
  8
0
 62
     0
100
AcDbLine
 10
12.27744372398571
 20
9.441526547948372
 30
0.0
 11
12.27744372398571
 21
9.441526547948372
 31
0.0
  0
LINE
  5
24FC
330
24E6
100
AcDbEntity
  8
0
 62
     0
100
AcDbLine
 10
12.34002868085993
 20
9.449766013832263
 30
0.0
 11
12.34002868085993
 21
9.449766013832263
 31
0.0
  0
LINE
  5
24FD
330
24E6
100
AcDbEntity
  8
0
 62
     0
100
AcDbLine
 10
12.43471166512113
 20
9.462231265189277
 30
0.0
 11
12.43471166512113
 21
9.462231265189277
 31
0.0
  0
LINE
  5
24FE
330
24E6
100
AcDbEntity
  8
0
 62
     0
100
AcDbLine
 10
11.55501244355407
 20
9.436361153104019
 30
0.0
 11
11.55501244355407
 21
9.436361153104019
 31
0.0
  0
LINE
  5
24FF
330
24E6
100
AcDbEntity
  8
0
 62
     0
100
AcDbLine
 10
11.71290003772785
 20
9.457147449215062
 30
0.0
 11
11.71290003772785
 21
9.457147449215062
 31
0.0
  0
LINE
  5
2500
330
24E6
100
AcDbEntity
  8
0
 62
     0
100
AcDbLine
 10
11.77548499460207
 20
9.465386915098953
 30
0.0
 11
11.77548499460207
 21
9.465386915098953
 31
0.0
  0
LINE
  5
2501
330
24E6
100
AcDbEntity
  8
0
 62
     0
100
AcDbLine
 10
12.00720232847171
 20
9.461538266747048
 30
0.0
 11
12.00720232847171
 21
9.461538266747048
 31
0.0
  0
LINE
  5
2502
330
24E6
100
AcDbEntity
  8
0
 62
     0
100
AcDbLine
 10
12.14065793751482
 20
9.455899548813453
 30
0.0
 11
12.14065793751482
 21
9.455899548813453
 31
0.0
  0
LINE
  5
2503
330
24E6
100
AcDbEntity
  8
0
 62
     0
100
AcDbLine
 10
12.27411354655792
 20
9.450260830879859
 30
0.0
 11
12.27411354655792
 21
9.450260830879859
 31
0.0
  0
LINE
  5
2504
330
24E6
100
AcDbEntity
  8
0
 62
     0
100
AcDbLine
 10
12.40756915560102
 20
9.444622112946266
 30
0.0
 11
12.40756915560102
 21
9.444622112946266
 31
0.0
  0
LINE
  5
2505
330
24E6
100
AcDbEntity
  8
0
 62
     0
100
AcDbLine
 10
12.54102476464413
 20
9.438983395012668
 30
0.0
 11
12.54102476464413
 21
9.438983395012668
 31
0.0
  0
LINE
  5
2506
330
24E6
100
AcDbEntity
  8
0
 62
     0
100
AcDbLine
 10
12.67448037368723
 20
9.433344677079073
 30
0.0
 11
12.67448037368723
 21
9.433344677079073
 31
0.0
  0
LINE
  5
2507
330
24E6
100
AcDbEntity
  8
0
 62
     0
100
AcDbLine
 10
11.87374671942861
 20
9.467176984680643
 30
0.0
 11
11.87374671942861
 21
9.467176984680643
 31
0.0
  0
LINE
  5
2508
330
24E6
100
AcDbEntity
  8
0
 62
     0
100
AcDbLine
 10
11.74029111038551
 20
9.472815702614237
 30
0.0
 11
11.74029111038551
 21
9.472815702614237
 31
0.0
  0
LINE
  5
2509
330
24E6
100
AcDbEntity
  8
0
 62
     0
100
AcDbLine
 10
12.47470767275208
 20
9.433432165767177
 30
0.0
 11
12.47470767275208
 21
9.433432165767177
 31
0.0
  0
LINE
  5
250A
330
24E6
100
AcDbEntity
  8
0
 62
     0
100
AcDbLine
 10
12.62050421508768
 20
9.458458411350253
 30
0.0
 11
12.62050421508768
 21
9.458458411350253
 31
0.0
  0
LINE
  5
250B
330
24E6
100
AcDbEntity
  8
0
 62
     0
100
AcDbLine
 10
11.75604679277084
 20
9.457466884084235
 30
0.0
 11
11.75604679277084
 21
9.457466884084235
 31
0.0
  0
LINE
  5
250C
330
24E6
100
AcDbEntity
  8
0
 62
     0
100
AcDbLine
 10
11.61025025043524
 20
9.432440638501157
 30
0.0
 11
11.61025025043524
 21
9.432440638501157
 31
0.0
  0
ENDBLK
  5
250D
330
24E6
100
AcDbEntity
  8
0
100
AcDbBlockEnd
  0
BLOCK
  5
2F26
330
2F25
100
AcDbEntity
  8
0
100
AcDbBlockBegin
  2
*U3
 70
     1
 10
0.0
 20
0.0
 30
0.0
  3
*U3
  1
*ANON
  0
ARC
  5
2F27
330
2F25
100
AcDbEntity
  8
0
  6
ByBlock
 62
     0
100
AcDbCircle
 10
3.497306662820999
 20
9.701238865957224
 30
0.0
 40
0.0606666666666669
100
AcDbArc
 50
230.2848627681367
 51
270.0
  0
ARC
  5
2F28
330
2F25
100
AcDbEntity
  8
0
  6
ByBlock
 62
     0
100
AcDbCircle
 10
3.497306662820999
 20
9.701238865957224
 30
0.0
 40
0.0886666666666669
100
AcDbArc
 50
211.7568638592842
 51
270.0
  0
ARC
  5
2F29
330
2F25
100
AcDbEntity
  8
0
  6
ByBlock
 62
     0
100
AcDbCircle
 10
3.497306662820999
 20
9.701238865957224
 30
0.0
 40
0.1166666666666668
100
AcDbArc
 50
203.5781784781894
 51
270.0
  0
ARC
  5
2F2A
330
2F25
100
AcDbEntity
  8
0
  6
ByBlock
 62
     0
100
AcDbCircle
 10
3.497306662820999
 20
9.701238865957224
 30
0.0
 40
0.1446666666666668
100
AcDbArc
 50
198.8190633689818
 51
270.0
  0
ARC
  5
2F2B
330
2F25
100
AcDbEntity
  8
0
  6
ByBlock
 62
     0
100
AcDbCircle
 10
3.497306662820999
 20
9.701238865957224
 30
0.0
 40
0.1726666666666669
100
AcDbArc
 50
215.8247743686515
 51
270.0
  0
ARC
  5
2F2C
330
2F25
100
AcDbEntity
  8
0
  6
ByBlock
 62
     0
100
AcDbCircle
 10
3.497306662820999
 20
9.701238865957224
 30
0.0
 40
0.2006666666666669
100
AcDbArc
 50
225.7592812097981
 51
248.4710955944323
  0
ARC
  5
2F2D
330
2F25
100
AcDbEntity
  8
0
  6
ByBlock
 62
     0
100
AcDbCircle
 10
3.497306662820999
 20
9.701238865957224
 30
0.0
 40
0.2286666666666668
100
AcDbArc
 50
232.2479986938277
 51
234.7187381727332
  0
ENDBLK
  5
2F2E
330
2F25
100
AcDbEntity
  8
0
100
AcDbBlockEnd
  0
BLOCK
  5
31D9
330
31CC
100
AcDbEntity
  8
0
100
AcDbBlockBegin
  2
SOLBET_Bloczek_OPTIMAL_240x240x590_PRA
 70
     2
 10
0.0
 20
0.0
 30
0.0
  3
SOLBET_Bloczek_OPTIMAL_240x240x590_PRA
  1

  0
ATTDEF
  5
31CD
330
31CC
100
AcDbEntity
  8
SOLBET_Wymiary_Opisy
100
AcDbText
 10
0.0000001757484824
 20
4.927022981232882
 30
0.0
 40
0.9913121336814832
  1
240x240x590
  7
Solbet_1
100
AcDbAttributeDefinition
  3

  2
WYMIARY
 70
     3
1001
AcDbAttr
1070
     0
1070
     1
  0
ATTDEF
  5
31CE
330
31CC
100
AcDbEntity
  8
SOLBET_Wymiary_Opisy
100
AcDbText
 10
0.0000001757484824
 20
3.414503573516785
 30
0.0
 40
0.9913121336814832
  1
400, 500, 600, 700
  7
Solbet_1
100
AcDbAttributeDefinition
  3

  2
KLASA_GĘSTOŚCI
 70
     9
1001
AcDbAttr
1070
     0
1070
     1
  0
ATTDEF
  5
31CF
330
31CC
100
AcDbEntity
  8
SOLBET_Wymiary_Opisy
100
AcDbText
 10
-0.0000000878742412
 20
0.2448647517692188
 30
0.0
 40
0.9913121336814832
  1
SOLBET
  7
Solbet_1
100
AcDbAttributeDefinition
  3

  2
FIRMA
 70
     3
1001
AcDbAttr
1070
     0
1070
     1
  0
ATTDEF
  5
31D0
330
31CC
100
AcDbEntity
  8
SOLBET_Wymiary_Opisy
100
AcDbText
 10
0.0000001757484824
 20
7.957332979580714
 30
0.0
 40
0.9913121336814832
  1
Bloczek
  7
Solbet_1
100
AcDbAttributeDefinition
  3
Nazwa
  2
NAZWA
 70
     3
1001
AcDbAttr
1070
     0
1070
     1
  0
ATTDEF
  5
31D1
330
31CC
100
AcDbEntity
  8
SOLBET_Wymiary_Opisy
100
AcDbText
 10
0.0000001757484824
 20
6.418284799346509
 30
0.0
 40
0.9913121336814832
  1
SOLBET OPTIMAL
  7
Solbet_1
100
AcDbAttributeDefinition
  3

  2
SYSTEM
 70
     3
1001
AcDbAttr
1070
     0
1070
     1
  0
ATTDEF
  5
31D2
330
31CC
100
AcDbEntity
  8
SOLBET_Wymiary_Opisy
100
AcDbText
 10
-0.0000000878742412
 20
1.744181511296331
 30
0.0
 40
0.9913121336814832
  1
Prawo
  7
Solbet_1
100
AcDbAttributeDefinition
  3

  2
WIDOK
 70
    11
1001
AcDbAttr
1070
     0
1070
     1
  0
LINE
  5
31D3
330
31CC
100
AcDbEntity
  8
SOLBET_Bloczki
100
AcDbLine
 10
12.00000017574848
 20
11.99999995881262
 30
0.0
 11
12.00000017574848
 21
-0.0000000411874908
 31
0.0
  0
LINE
  5
31D4
330
31CC
100
AcDbEntity
  8
SOLBET_Bloczki
100
AcDbLine
 10
12.00000017574848
 20
11.99999995881262
 30
0.0
 11
0.0000001757484824
 21
11.99999995881262
 31
0.0
  0
LINE
  5
31D5
330
31CC
100
AcDbEntity
  8
SOLBET_Bloczki
100
AcDbLine
 10
0.0000001757484824
 20
11.99999995881262
 30
0.0
 11
0.0000001757484824
 21
-0.0000000411873771
 31
0.0
  0
LINE
  5
31D6
330
31CC
100
AcDbEntity
  8
SOLBET_Bloczki
100
AcDbLine
 10
0.0000001757484824
 20
-0.0000000411873771
 30
0.0
 11
12.00000017574848
 21
-0.0000000411874908
 31
0.0
  0
ENDBLK
  5
31DA
330
31CC
100
AcDbEntity
  8
0
100
AcDbBlockEnd
  0
BLOCK
  5
37D6
330
37C8
100
AcDbEntity
  8
0
100
AcDbBlockBegin
  2
SOLBET_Bloczek_Optimal_420x240x590_P+W_PRA
 70
     2
 10
0.0
 20
0.0
 30
0.0
  3
SOLBET_Bloczek_Optimal_420x240x590_P+W_PRA
  1

  0
ATTDEF
  5
37D8
330
37C8
100
AcDbEntity
  8
SOLBET_Wymiary_Opisy
100
AcDbText
 10
-0.0000000703746536
 20
6.303237281370451
 30
0.0
 40
0.9913121336814832
  1
420x240x590
  7
Solbet_1
100
AcDbAttributeDefinition
  3

  2
WYMIARY
 70
     3
1001
AcDbAttr
1070
     0
1070
     1
  0
ATTDEF
  5
37D9
330
37C8
100
AcDbEntity
  8
SOLBET_Wymiary_Opisy
100
AcDbText
 10
-0.0000000703746536
 20
4.790717873654354
 30
0.0
 40
0.9913121336814832
  1
400
  7
Solbet_1
100
AcDbAttributeDefinition
  3

  2
KLASA_GĘSTOŚCI
 70
     9
1001
AcDbAttr
1070
     0
1070
     1
  0
ATTDEF
  5
37DA
330
37C8
100
AcDbEntity
  8
SOLBET_Wymiary_Opisy
100
AcDbText
 10
-0.0000000703746536
 20
3.269569038442127
 30
0.0
 40
0.9913121336814832
  1
Pióra+Wpusty
  7
Solbet_1
100
AcDbAttributeDefinition
  3

  2
PROFILOWANIE
 70
     3
1001
AcDbAttr
1070
     0
1070
     1
  0
ATTDEF
  5
37DB
330
37C8
100
AcDbEntity
  8
SOLBET_Wymiary_Opisy
100
AcDbText
 10
-0.0000000703746536
 20
0.2448646291013483
 30
0.0
 40
0.9913121336814832
  1
SOLBET
  7
Solbet_1
100
AcDbAttributeDefinition
  3

  2
FIRMA
 70
     3
1001
AcDbAttr
1070
     0
1070
     1
  0
ATTDEF
  5
37DC
330
37C8
100
AcDbEntity
  8
SOLBET_Wymiary_Opisy
100
AcDbText
 10
-0.0000000703746536
 20
9.333547279718283
 30
0.0
 40
0.9913121336814832
  1
Bloczek
  7
Solbet_1
100
AcDbAttributeDefinition
  3
Nazwa
  2
NAZWA
 70
     3
1001
AcDbAttr
1070
     0
1070
     1
  0
ATTDEF
  5
37DD
330
37C8
100
AcDbEntity
  8
SOLBET_Wymiary_Opisy
100
AcDbText
 10
-0.0000000703746536
 20
7.794499099484078
 30
0.0
 40
0.9913121336814832
  1
OPTIMAL
  7
Solbet_1
100
AcDbAttributeDefinition
  3

  2
SYSTEM
 70
     3
1001
AcDbAttr
1070
     0
1070
     1
  0
ATTDEF
  5
37DE
330
37C8
100
AcDbEntity
  8
SOLBET_Wymiary_Opisy
100
AcDbText
 10
-0.0000000703746536
 20
1.74418138862846
 30
0.0
 40
0.9913121336814832
  1
Prawo
  7
Solbet_1
100
AcDbAttributeDefinition
  3

  2
WIDOK
 70
    11
1001
AcDbAttr
1070
     0
1070
     1
  0
LINE
  5
37DF
330
37C8
100
AcDbEntity
  8
SOLBET_Bloczki
100
AcDbLine
 10
21.00000014074931
 20
12.00000020414847
 30
0.0
 11
21.00000014074931
 21
0.000000204148364
 31
0.0
  0
LINE
  5
37E0
330
37C8
100
AcDbEntity
  8
SOLBET_Bloczki
100
AcDbLine
 10
21.00000014074931
 20
12.00000020414847
 30
0.0
 11
0.0000001407493072
 21
12.00000020414847
 31
0.0
  0
LINE
  5
37E1
330
37C8
100
AcDbEntity
  8
SOLBET_Bloczki
100
AcDbLine
 10
0.0000001407493072
 20
12.00000020414847
 30
0.0
 11
0.0000001407493072
 21
0.000000204148364
 31
0.0
  0
LINE
  5
37E2
330
37C8
100
AcDbEntity
  8
SOLBET_Bloczki
100
AcDbLine
 10
0.0000001407493072
 20
0.000000204148364
 30
0.0
 11
21.00000014074931
 21
0.000000204148364
 31
0.0
  0
ENDBLK
  5
37D7
330
37C8
100
AcDbEntity
  8
0
100
AcDbBlockEnd
  0
BLOCK
  5
380D
330
37FF
100
AcDbEntity
  8
0
100
AcDbBlockBegin
  2
SOLBET_Bloczek_OPTIMAL_240x240x590_P+W_PRA
 70
     2
 10
0.0
 20
0.0
 30
0.0
  3
SOLBET_Bloczek_OPTIMAL_240x240x590_P+W_PRA
  1

  0
ATTDEF
  5
3800
330
37FF
100
AcDbEntity
  8
SOLBET_Wymiary_Opisy
100
AcDbText
 10
-0.0000000878742412
 20
6.303237404038322
 30
0.0
 40
0.9913121336814832
  1
240x240x590
  7
Solbet_1
100
AcDbAttributeDefinition
  3

  2
WYMIARY
 70
     3
1001
AcDbAttr
1070
     0
1070
     1
  0
ATTDEF
  5
3801
330
37FF
100
AcDbEntity
  8
SOLBET_Wymiary_Opisy
100
AcDbText
 10
-0.0000000878742412
 20
4.790717996322224
 30
0.0
 40
0.9913121336814832
  1
400, 500, 600, 700
  7
Solbet_1
100
AcDbAttributeDefinition
  3

  2
KLASA_GĘSTOŚCI
 70
     9
1001
AcDbAttr
1070
     0
1070
     1
  0
ATTDEF
  5
3802
330
37FF
100
AcDbEntity
  8
SOLBET_Wymiary_Opisy
100
AcDbText
 10
-0.0000000878742412
 20
3.269569161109998
 30
0.0
 40
0.9913121336814832
  1
pióra+wpusty
  7
Solbet_1
100
AcDbAttributeDefinition
  3

  2
PROFILOWANIE
 70
    11
1001
AcDbAttr
1070
     0
1070
     1
  0
ATTDEF
  5
3803
330
37FF
100
AcDbEntity
  8
SOLBET_Wymiary_Opisy
100
AcDbText
 10
-0.0000000878742412
 20
0.2448647517692188
 30
0.0
 40
0.9913121336814832
  1
SOLBET
  7
Solbet_1
100
AcDbAttributeDefinition
  3

  2
FIRMA
 70
     3
1001
AcDbAttr
1070
     0
1070
     1
  0
ATTDEF
  5
3804
330
37FF
100
AcDbEntity
  8
SOLBET_Wymiary_Opisy
100
AcDbText
 10
-0.0000000878742412
 20
9.333547402386153
 30
0.0
 40
0.9913121336814832
  1
Bloczek
  7
Solbet_1
100
AcDbAttributeDefinition
  3
Nazwa
  2
NAZWA
 70
     3
1001
AcDbAttr
1070
     0
1070
     1
  0
ATTDEF
  5
3805
330
37FF
100
AcDbEntity
  8
SOLBET_Wymiary_Opisy
100
AcDbText
 10
-0.0000000878742412
 20
7.794499222151949
 30
0.0
 40
0.9913121336814832
  1
SOLBET OPTIMAL
  7
Solbet_1
100
AcDbAttributeDefinition
  3

  2
SYSTEM
 70
     3
1001
AcDbAttr
1070
     0
1070
     1
  0
ATTDEF
  5
3806
330
37FF
100
AcDbEntity
  8
SOLBET_Wymiary_Opisy
100
AcDbText
 10
-0.0000000878742412
 20
1.744181511296331
 30
0.0
 40
0.9913121336814832
  1
Prawo
  7
Solbet_1
100
AcDbAttributeDefinition
  3

  2
WIDOK
 70
    11
1001
AcDbAttr
1070
     0
1070
     1
  0
LINE
  5
3807
330
37FF
100
AcDbEntity
  8
SOLBET_Bloczki
100
AcDbLine
 10
12.00000017574848
 20
11.99999995881262
 30
0.0
 11
12.00000017574848
 21
-0.0000000411874908
 31
0.0
  0
LINE
  5
3808
330
37FF
100
AcDbEntity
  8
SOLBET_Bloczki
100
AcDbLine
 10
12.00000017574848
 20
11.99999995881262
 30
0.0
 11
0.0000001757484824
 21
11.99999995881262
 31
0.0
  0
LINE
  5
3809
330
37FF
100
AcDbEntity
  8
SOLBET_Bloczki
100
AcDbLine
 10
0.0000001757484824
 20
11.99999995881262
 30
0.0
 11
0.0000001757484824
 21
-0.0000000411873771
 31
0.0
  0
LINE
  5
380A
330
37FF
100
AcDbEntity
  8
SOLBET_Bloczki
100
AcDbLine
 10
0.0000001757484824
 20
-0.0000000411873771
 30
0.0
 11
12.00000017574848
 21
-0.0000000411874908
 31
0.0
  0
ENDBLK
  5
380E
330
37FF
100
AcDbEntity
  8
0
100
AcDbBlockEnd
  0
BLOCK
  5
3A75
330
3A67
100
AcDbEntity
  8
0
100
AcDbBlockBegin
  2
SOLBET_Bloczek_Optimal_240x240x590_P+W_KG600_PRA
 70
     2
 10
0.0
 20
0.0
 30
0.0
  3
SOLBET_Bloczek_Optimal_240x240x590_P+W_KG600_PRA
  1

  0
ATTDEF
  5
3A68
330
3A67
100
AcDbEntity
  8
SOLBET_Wymiary_Opisy
100
AcDbText
 10
-0.0000000878742412
 20
6.303237404038322
 30
0.0
 40
0.9913121336814832
  1
240x240x590
  7
Solbet_1
100
AcDbAttributeDefinition
  3

  2
WYMIARY
 70
    11
1001
AcDbAttr
1070
     0
1070
     1
  0
ATTDEF
  5
3A69
330
3A67
100
AcDbEntity
  8
SOLBET_Wymiary_Opisy
100
AcDbText
 10
-0.0000000878742412
 20
4.790717996322224
 30
0.0
 40
0.9913121336814832
  1
600
  7
Solbet_1
100
AcDbAttributeDefinition
  3

  2
KLASA_GĘSTOŚCI
 70
    11
1001
AcDbAttr
1070
     0
1070
     1
  0
ATTDEF
  5
3A6A
330
3A67
100
AcDbEntity
  8
SOLBET_Wymiary_Opisy
100
AcDbText
 10
-0.0000000878742412
 20
3.269569161109998
 30
0.0
 40
0.9913121336814832
  1
Pióra+Wpusty
  7
Solbet_1
100
AcDbAttributeDefinition
  3

  2
PROFILOWANIE
 70
    11
1001
AcDbAttr
1070
     0
1070
     1
  0
ATTDEF
  5
3A6B
330
3A67
100
AcDbEntity
  8
SOLBET_Wymiary_Opisy
100
AcDbText
 10
-0.0000000878742412
 20
0.2448647517692188
 30
0.0
 40
0.9913121336814832
  1
SOLBET
  7
Solbet_1
100
AcDbAttributeDefinition
  3

  2
FIRMA
 70
    11
1001
AcDbAttr
1070
     0
1070
     1
  0
ATTDEF
  5
3A6C
330
3A67
100
AcDbEntity
  8
SOLBET_Wymiary_Opisy
100
AcDbText
 10
-0.0000000878742412
 20
9.333547402386153
 30
0.0
 40
0.9913121336814832
  1
Bloczek
  7
Solbet_1
100
AcDbAttributeDefinition
  3
Nazwa
  2
NAZWA
 70
    11
1001
AcDbAttr
1070
     0
1070
     1
  0
ATTDEF
  5
3A6D
330
3A67
100
AcDbEntity
  8
SOLBET_Wymiary_Opisy
100
AcDbText
 10
-0.0000000878742412
 20
7.794499222151949
 30
0.0
 40
0.9913121336814832
  1
SOLBET Optimal
  7
Solbet_1
100
AcDbAttributeDefinition
  3

  2
SYSTEM
 70
    11
1001
AcDbAttr
1070
     0
1070
     1
  0
ATTDEF
  5
3A6E
330
3A67
100
AcDbEntity
  8
SOLBET_Wymiary_Opisy
100
AcDbText
 10
-0.0000000878742412
 20
1.744181511296331
 30
0.0
 40
0.9913121336814832
  1
Prawo
  7
Solbet_1
100
AcDbAttributeDefinition
  3

  2
WIDOK
 70
    11
1001
AcDbAttr
1070
     0
1070
     1
  0
LINE
  5
3A6F
330
3A67
100
AcDbEntity
  8
SOLBET_Bloczki
100
AcDbLine
 10
12.00000017574848
 20
11.99999995881262
 30
0.0
 11
12.00000017574848
 21
-0.0000000411874908
 31
0.0
  0
LINE
  5
3A70
330
3A67
100
AcDbEntity
  8
SOLBET_Bloczki
100
AcDbLine
 10
12.00000017574848
 20
11.99999995881262
 30
0.0
 11
0.0000001757484824
 21
11.99999995881262
 31
0.0
  0
LINE
  5
3A71
330
3A67
100
AcDbEntity
  8
SOLBET_Bloczki
100
AcDbLine
 10
0.0000001757484824
 20
11.99999995881262
 30
0.0
 11
0.0000001757484824
 21
-0.0000000411873771
 31
0.0
  0
LINE
  5
3A72
330
3A67
100
AcDbEntity
  8
SOLBET_Bloczki
100
AcDbLine
 10
0.0000001757484824
 20
-0.0000000411873771
 30
0.0
 11
12.00000017574848
 21
-0.0000000411874908
 31
0.0
  0
ENDBLK
  5
3A76
330
3A67
100
AcDbEntity
  8
0
100
AcDbBlockEnd
  0
ENDSEC
  0
SECTION
  2
ENTITIES
  0
LINE
  5
3059
330
1F
100
AcDbEntity
  8
SOLBET_Izolacja
100
AcDbLine
 10
83.17564622902091
 20
148.7123104914967
 30
0.0
 11
157.3696755754817
 21
184.4012128279132
 31
0.0
  0
LINE
  5
3061
330
1F
100
AcDbEntity
  8
SOLBET_Izolacja
100
AcDbLine
 10
91.37075409957743
 20
138.783377952765
 30
0.0
 11
157.3696755754817
 21
170.5302595227531
 31
0.0
  0
LINE
  5
3064
330
1F
100
AcDbEntity
  8
SOLBET_Izolacja
100
AcDbLine
 10
85.70954129495204
 20
143.4445697492783
 30
0.0
 11
83.17564622902045
 21
148.7123104914976
 31
0.0
  0
LWPOLYLINE
  5
3065
330
1F
100
AcDbEntity
  8
SOLBET_Wymiary_Opisy
100
AcDbPolyline
 90
        4
 70
     0
 43
0.0
 10
157.3696755754817
 20
190.2215836214081
 10
139.8974944525352
 20
184.2284665378547
 10
139.7352679840905
 20
184.7014174580731
 10
157.3696755754817
 20
190.7501796962074
  0
LWPOLYLINE
  5
3066
330
1F
100
AcDbEntity
  8
SOLBET_Wymiary_Opisy
100
AcDbPolyline
 90
        3
 70
     0
 43
0.0
 10
157.3696755754817
 20
189.8506566561941
 10
156.4879460727961
 20
189.5482154149745
 10
156.3741083534323
 20
189.8800950067748
  0
LWPOLYLINE
  5
3067
330
1F
100
AcDbEntity
  8
SOLBET_Wymiary_Opisy
100
AcDbPolyline
 90
        4
 70
     0
 43
0.0
 10
157.3696755754817
 20
190.8989736212934
 10
140.9291362284448
 20
185.2597190525462
 10
140.7669097600001
 20
185.7326699727646
 10
157.3696755754817
 20
191.4275696960926
  0
LWPOLYLINE
  5
3068
330
1F
100
AcDbEntity
  8
SOLBET_Wymiary_Opisy
100
AcDbPolyline
 90
        5
 70
     0
 43
0.0
 10
155.3312806095409
 20
188.0813419099404
 10
156.6830262024768
 20
188.7315602209651
 10
156.1845254973586
 20
189.7678985088787
 10
154.8327799044264
 20
189.117680197854
 10
155.3312806095409
 20
188.0813419099404
  0
LWPOLYLINE
  5
3069
330
1F
100
AcDbEntity
  8
SOLBET_Wymiary_Opisy
100
AcDbPolyline
 90
        5
 70
     0
 43
0.0
 10
144.0667340017889
 20
182.6628559847327
 10
145.4184795947176
 20
183.3130742957578
 10
144.9199788895994
 20
184.349412583671
 10
143.5682332966707
 20
183.6991942726463
 10
144.0667340017889
 20
182.6628559847327
  0
LWPOLYLINE
  5
306A
330
1F
100
AcDbEntity
  8
SOLBET_Wymiary_Opisy
100
AcDbPolyline
 90
        7
 70
     0
 43
0.0
 10
146.2778249657485
 20
184.8623339946766
 10
128.6329478447833
 20
178.8099806126474
 10
128.4707213763313
 20
179.2829315328658
 10
146.1155984973038
 20
185.3352849148946
 10
146.3916626851087
 20
184.5304544028758
 10
145.2233994650369
 20
184.1297294897667
 10
145.1095617456731
 20
184.4616090815675
  0
LWPOLYLINE
  5
306B
330
1F
100
AcDbEntity
  8
SOLBET_Wymiary_Opisy
100
AcDbPolyline
 90
        7
 70
     0
 43
0.0
 10
147.3094667416581
 20
185.8935865093681
 10
129.6645896206928
 20
179.8412331273389
 10
129.5023631522408
 20
180.3141840475568
 10
147.1472402732133
 20
186.366537429586
 10
147.4233044610218
 20
185.5617069175669
 10
146.2550412409464
 20
185.1609820044582
 10
146.1412035215826
 20
185.492861596259
  0
LWPOLYLINE
  5
306C
330
1F
100
AcDbEntity
  8
SOLBET_Wymiary_Opisy
100
AcDbPolyline
 90
        5
 70
     0
 43
0.0
 10
132.8021873940297
 20
177.2443700595249
 10
134.153932986962
 20
177.89458837055
 10
133.6554322818438
 20
178.9309266584637
 10
132.3036866889115
 20
178.280708347439
 10
132.8021873940297
 20
177.2443700595249
  0
LWPOLYLINE
  5
306D
330
1F
100
AcDbEntity
  8
SOLBET_Wymiary_Opisy
100
AcDbPolyline
 90
        7
 70
     0
 43
0.0
 10
135.0132783579929
 20
179.4438480694694
 10
117.3684012370204
 20
173.3914946874397
 10
117.206174768572
 20
173.8644456076581
 10
134.8510518895446
 20
179.9167989896868
 10
135.1271160773567
 20
179.1119684776681
 10
133.9588528572813
 20
178.7112435645594
 10
133.8450151379211
 20
179.0431231563598
  0
LWPOLYLINE
  5
306E
330
1F
100
AcDbEntity
  8
SOLBET_Wymiary_Opisy
100
AcDbPolyline
 90
        7
 70
     0
 43
0.0
 10
136.0449201339024
 20
180.4751005841604
 10
118.4000430129335
 20
174.4227472021312
 10
118.2378165444888
 20
174.8956981223496
 10
135.8826936654541
 20
180.9480515043787
 10
136.1587578532662
 20
180.1432209923596
 10
134.9904946331908
 20
179.7424960792505
 10
134.8766569138306
 20
180.0743756710517
  0
LWPOLYLINE
  5
306F
330
1F
100
AcDbEntity
  8
SOLBET_Wymiary_Opisy
100
AcDbPolyline
 90
        5
 70
     0
 43
0.0
 10
121.5376407862741
 20
171.8258841343176
 10
122.8893863792027
 20
172.4761024453428
 10
122.3908856740845
 20
173.512440733256
 10
121.0391400811522
 20
172.8622224222313
 10
121.5376407862741
 20
171.8258841343176
  0
LWPOLYLINE
  5
3070
330
1F
100
AcDbEntity
  8
SOLBET_Wymiary_Opisy
100
AcDbPolyline
 90
        7
 70
     0
 43
0.0
 10
123.7487317502337
 20
174.0253621442616
 10
106.1038546292611
 20
167.9730087622324
 10
105.9416281608164
 20
168.4459596824508
 10
123.5865052817889
 20
174.4983130644795
 10
123.8625694695975
 20
173.6934825524608
 10
122.694306249522
 20
173.2927576393517
 10
122.5804685301582
 20
173.6246372311525
  0
LWPOLYLINE
  5
3071
330
1F
100
AcDbEntity
  8
SOLBET_Wymiary_Opisy
100
AcDbPolyline
 90
        7
 70
     0
 43
0.0
 10
124.7803735261432
 20
175.0566146589531
 10
107.1354964051743
 20
169.0042612769239
 10
106.9732699367296
 20
169.4772121971418
 10
124.6181470577021
 20
175.529565579171
 10
124.894211245507
 20
174.7247350671518
 10
123.7259480254315
 20
174.3240101540432
 10
123.6121103060713
 20
174.655889745844
  0
LWPOLYLINE
  5
3072
330
1F
100
AcDbEntity
  8
SOLBET_Wymiary_Opisy
100
AcDbPolyline
 90
        5
 70
     0
 43
0.0
 10
110.2730941785148
 20
166.4073982091104
 10
111.6248397714471
 20
167.057616520135
 10
111.1263390663252
 20
168.0939548080487
 10
109.7745934733966
 20
167.4437364970235
 10
110.2730941785148
 20
166.4073982091104
  0
LWPOLYLINE
  5
3073
330
1F
100
AcDbEntity
  8
SOLBET_Wymiary_Opisy
100
AcDbPolyline
 90
        7
 70
     0
 43
0.0
 10
112.4841851424817
 20
168.6068762190543
 10
94.83930802150917
 20
162.5545228370247
 10
94.67708155305718
 20
163.0274737572431
 10
112.3219586740297
 20
169.0798271392718
 10
112.5980228618382
 20
168.2749966272531
 10
111.4297596417627
 20
167.8742717141444
 10
111.3159219224062
 20
168.2061513059448
  0
LWPOLYLINE
  5
3074
330
1F
100
AcDbEntity
  8
SOLBET_Wymiary_Opisy
100
AcDbPolyline
 90
        7
 70
     0
 43
0.0
 10
113.5158269183912
 20
169.6381287337453
 10
95.87094979741868
 20
163.5857753517161
 10
95.70872332897033
 20
164.0587262719341
 10
113.3536004499392
 20
170.1110796539637
 10
113.6296646377477
 20
169.3062491419446
 10
112.4614014176723
 20
168.9055242288354
 10
112.3475636983157
 20
169.2374038206367
  0
LWPOLYLINE
  5
3075
330
1F
100
AcDbEntity
  8
SOLBET_Wymiary_Opisy
100
AcDbPolyline
 90
        5
 70
     0
 43
0.0
 10
99.00854757076286
 20
160.9889122839026
 10
100.3602931636878
 20
161.6391305949278
 10
99.86179245857329
 20
162.6754688828409
 10
98.51004686563738
 20
162.0252505718163
 10
99.00854757076286
 20
160.9889122839026
  0
LWPOLYLINE
  5
3076
330
1F
100
AcDbEntity
  8
SOLBET_Wymiary_Opisy
100
AcDbPolyline
 90
        7
 70
     0
 43
0.0
 10
101.2196385347224
 20
163.1883902938466
 10
83.57476141374991
 20
157.1360369118174
 10
83.41253494530519
 20
157.6089878320354
 10
101.0574120662777
 20
163.6613412140645
 10
101.3334762540826
 20
162.8565107020458
 10
100.1652130340108
 20
162.4557857889367
 10
100.051375314647
 20
162.7876653807375
  0
LWPOLYLINE
  5
3077
330
1F
100
AcDbEntity
  8
SOLBET_Wymiary_Opisy
100
AcDbPolyline
 90
        7
 70
     0
 43
0.0
 10
102.2512803106319
 20
164.2196428085376
 10
84.60640318965943
 20
158.1672894265089
 10
84.44417672121472
 20
158.6402403467264
 10
102.0890538421872
 20
164.692593728756
 10
102.3651180299957
 20
163.8877632167368
 10
101.1968548099203
 20
163.4870383036282
 10
101.0830170905565
 20
163.8189178954289
  0
LWPOLYLINE
  5
3078
330
1F
100
AcDbEntity
  8
SOLBET_Wymiary_Opisy
100
AcDbPolyline
 90
        7
 70
     0
 43
0.0
 10
57.06963527665266
 20
142.7217684061306
 10
39.93230151969238
 20
135.3539694283063
 10
39.73481602389347
 20
135.8133162242557
 10
56.87214978085376
 20
143.18111520208
 10
57.20821499587964
 20
142.3994351139899
 10
56.07355610417562
 20
141.9116148532039
 10
55.934976384945
 20
142.2339481453441
  0
LWPOLYLINE
  5
3079
330
1F
100
AcDbEntity
  8
SOLBET_Wymiary_Opisy
100
AcDbPolyline
 90
        7
 70
     0
 43
0.0
 10
56.11883191535071
 20
141.6155408205963
 10
38.98149815839042
 20
134.2477418427715
 10
38.78401266258789
 20
134.7070886387214
 10
55.92134641954817
 20
142.0748876165457
 10
56.25741163457769
 20
141.2932075284561
 10
55.12275274287367
 20
140.8053872676692
 10
54.98417302363941
 20
141.1277205598098
  0
LWPOLYLINE
  5
307A
330
1F
100
AcDbEntity
  8
SOLBET_Wymiary_Opisy
100
AcDbPolyline
 90
        7
 70
     0
 43
0.0
 10
68.45764048736509
 20
147.9641850329149
 10
50.81276336639257
 20
141.9118316508857
 10
50.65053689794059
 20
142.3847825711041
 10
68.29541401891311
 20
148.4371359531333
 10
68.57147820672162
 20
147.6323054411145
 10
67.40321498664616
 20
147.231580528005
 10
67.28937726728964
 20
147.5634601198062
  0
LWPOLYLINE
  5
307B
330
1F
100
AcDbEntity
  8
SOLBET_Wymiary_Opisy
100
AcDbPolyline
 90
        7
 70
     0
 43
0.0
 10
67.42599871145557
 20
146.9329325182239
 10
49.78112159048305
 20
140.8805791361947
 10
49.61889512203106
 20
141.3535300564126
 10
67.26377224300359
 20
147.4058834384418
 10
67.5398364308121
 20
146.6010529264231
 10
66.37157321073664
 20
146.200328013314
 10
66.25773549138012
 20
146.5322076051147
  0
LWPOLYLINE
  5
307C
330
1F
100
AcDbEntity
  8
SOLBET_Wymiary_Opisy
100
AcDbPolyline
 90
        7
 70
     0
 43
0.0
 10
79.72218709511707
 20
153.3826709581226
 10
62.07730997414455
 20
147.3303175760938
 10
61.91508350570348
 20
147.8032684963118
 10
79.55996062667236
 20
153.855621878341
 10
79.83602481448087
 20
153.0507913663218
 10
78.66776159440542
 20
152.6500664532127
 10
78.55392387504526
 20
152.9819460450135
  0
LWPOLYLINE
  5
307D
330
1F
100
AcDbEntity
  8
SOLBET_Wymiary_Opisy
100
AcDbPolyline
 90
        7
 70
     0
 43
0.0
 10
78.69054531920756
 20
152.3514184434311
 10
61.04566819823503
 20
146.2990650614024
 10
60.88344172979032
 20
146.7720159816203
 10
78.52831885076284
 20
152.8243693636495
 10
78.80438303857136
 20
152.0195388516304
 10
77.6361198184959
 20
151.6188139385217
 10
77.5222820991321
 20
151.9506935303225
  0
LWPOLYLINE
  5
307E
330
1F
100
AcDbEntity
  8
SOLBET_Wymiary_Opisy
100
AcDbPolyline
 90
        7
 70
     0
 43
0.0
 10
90.98673370287633
 20
158.8011568833299
 10
73.34185658190381
 20
152.7488035013011
 10
73.17963011345546
 20
153.2217544215191
 10
90.82450723442798
 20
159.2741078035487
 10
91.10057142223286
 20
158.4692772915295
 10
89.93230820216103
 20
158.0685523784204
 10
89.81847048280451
 20
158.4004319702217
  0
LWPOLYLINE
  5
307F
330
1F
100
AcDbEntity
  8
SOLBET_Wymiary_Opisy
100
AcDbPolyline
 90
        7
 70
     0
 43
0.0
 10
89.95509192696681
 20
157.7699043686389
 10
72.31021480599429
 20
151.7175509866097
 10
72.14798833754594
 20
152.1905019068281
 10
89.79286545851847
 20
158.2428552888568
 10
90.06892964632333
 20
157.4380247768381
 10
88.90066642625152
 20
157.0372998637294
 10
88.78682870689136
 20
157.3691794555297
  0
LWPOLYLINE
  5
3080
330
1F
100
AcDbEntity
  8
SOLBET_Wymiary_Opisy
100
AcDbPolyline
 90
        5
 70
     0
 43
0.0
 10
87.74400096300359
 20
155.5704263586949
 10
89.09574655593587
 20
156.22064466972
 10
88.59724585081403
 20
157.2569829576337
 10
87.24550025788539
 20
156.6067646466085
 10
87.74400096300359
 20
155.5704263586949
  0
LWPOLYLINE
  5
3081
330
1F
100
AcDbEntity
  8
SOLBET_Wymiary_Opisy
100
AcDbPolyline
 90
        5
 70
     0
 43
0.0
 10
76.47945435524434
 20
150.1519404334876
 10
77.83119994817662
 20
150.8021587445128
 10
77.33269924305841
 20
151.8384970324259
 10
75.98095365012614
 20
151.1882787214013
 10
76.47945435524434
 20
150.1519404334876
  0
LWPOLYLINE
  5
3082
330
1F
100
AcDbEntity
  8
SOLBET_Wymiary_Opisy
100
AcDbPolyline
 90
        5
 70
     0
 43
0.0
 10
65.21490774748873
 20
144.7334545082799
 10
66.566653340421
 20
145.3836728193046
 10
66.06815263529916
 20
146.4200111072186
 10
64.71640704237052
 20
145.7697927961935
 10
65.21490774748873
 20
144.7334545082799
  0
LWPOLYLINE
  5
3083
330
1F
100
AcDbEntity
  8
SOLBET_Zbrojenie_Konstrukcja
100
AcDbPolyline
 90
       15
 70
     0
 43
0.0
 10
40.74887245912305
 20
134.4628353804778
 10
45.24925136029469
 20
136.627613119273
 10
47.90220648436934
 20
136.627613119273
 10
52.09757995559539
 20
138.6456767747759
 10
52.01088418079144
 20
138.8259095204994
 10
47.85660505956821
 20
136.8276131192729
 10
45.20364993549356
 20
136.8276131192729
 10
40.66217668431909
 20
134.6430681262018
 10
40.66217668431909
 20
129.9355835865704
 42
-1.013424621101684
 10
33.16351025477252
 20
130.0355835865707
 10
32.91583941543922
 20
130.0355835865707
 10
32.91583941543922
 20
129.9355835865704
 10
33.06217668431691
 20
129.9355835865704
 42
1.0
 10
40.76217668431763
 20
129.9355835865704
 10
40.76217668431763
 20
134.6430681262018
  0
LINE
  5
3084
330
1F
100
AcDbEntity
  8
SOLBET_Wymiary_Opisy
100
AcDbLine
 10
46.33838828726493
 20
134.3773204290087
 30
0.0
 11
45.83988758214672
 21
135.4136587169228
 31
0.0
  0
LINE
  5
3085
330
1F
100
AcDbEntity
  8
SOLBET_Wymiary_Opisy
100
AcDbLine
 10
40.835568233927
 20
134.2826026347534
 30
0.0
 11
53.45186043461126
 21
140.3513068709862
 31
0.0
  0
LWPOLYLINE
  5
3086
330
1F
100
AcDbEntity
  8
SOLBET_Wymiary_Opisy
100
AcDbPolyline
 90
        5
 70
     0
 43
0.0
 10
41.33406893904157
 20
133.2462643468398
 10
45.83988758214672
 20
135.4136587169228
 10
45.34138687702852
 20
136.4499970048364
 10
40.835568233927
 20
134.2826026347534
 10
41.33406893904157
 20
133.2462643468398
  0
LINE
  5
3087
330
1F
100
AcDbEntity
  8
SOLBET_Wymiary_Opisy
100
AcDbLine
 10
67.87075409957743
 20
123.1390142938935
 30
0.0
 11
67.87075409957743
 21
133.0277606607442
 31
0.0
  0
LINE
  5
3088
330
1F
100
AcDbEntity
  8
SOLBET_Wymiary_Opisy
100
AcDbLine
 10
72.87075409957747
 20
121.9890142938947
 30
0.0
 11
72.87075409957743
 21
135.4328667488471
 31
0.0
  0
LINE
  5
3089
330
1F
100
AcDbEntity
  8
SOLBET_Izolacja
100
AcDbLine
 10
89.52636659014661
 20
143.4445697492783
 30
0.0
 11
157.3696755754817
 21
176.0786408448175
 31
0.0
  0
LINE
  5
308B
330
1F
100
AcDbEntity
  8
SOLBET_Wymiary_Opisy
100
AcDbLine
 10
41.83256964416705
 20
132.2099260589261
 30
0.0
 11
41.33406893904157
 21
133.2462643468398
 31
0.0
  0
LINE
  5
308C
330
1F
100
AcDbEntity
  8
SOLBET_Wymiary_Opisy
100
AcDbLine
 10
42.50446189888953
 20
121.9890142938934
 30
0.0
 11
42.50446189888953
 21
130.8131222795641
 31
0.0
  0
LINE
  5
308D
330
1F
100
AcDbEntity
  8
SOLBET_Wymiary_Opisy
100
AcDbLine
 10
42.50446189888953
 20
130.8131222795641
 30
0.0
 11
42.00596119377133
 21
131.8494605674777
 31
0.0
  0
LINE
  5
308E
330
1F
100
AcDbEntity
  8
SOLBET_Wymiary_Opisy
100
AcDbLine
 10
48.81260799923166
 20
133.8474743976803
 30
0.0
 11
48.31410729411709
 21
134.8838126855939
 31
0.0
  0
LINE
  5
308F
330
1F
100
AcDbEntity
  8
SOLBET_Wymiary_Opisy
100
AcDbLine
 10
57.39565199956178
 20
127.9890142938939
 30
0.0
 11
72.87075409957743
 21
127.9890142938943
 31
0.0
  0
LINE
  5
3090
330
1F
100
AcDbEntity
  8
SOLBET_Wymiary_Opisy
100
AcDbLine
 10
42.50446189888953
 20
121.9890142938934
 30
0.0
 11
72.87075409957743
 21
121.9890142938943
 31
0.0
  0
LWPOLYLINE
  5
3091
330
1F
100
AcDbEntity
  8
SOLBET_Wymiary_Opisy
100
AcDbPolyline
 90
        5
 70
     0
 43
0.0
 10
53.95036113972946
 20
139.3149685830722
 10
55.30210673266174
 20
139.9651868940973
 10
54.80360602754354
 20
141.0015251820109
 10
53.45186043461126
 20
140.3513068709862
 10
53.95036113972946
 20
139.3149685830722
  0
LINE
  5
3092
330
1F
100
AcDbEntity
  8
SOLBET_Wymiary_Opisy
100
AcDbLine
 10
41.33406893904157
 20
133.2462643468398
 30
0.0
 11
157.3696755754817
 21
189.0618531384475
 31
0.0
  0
LINE
  5
3093
330
1F
100
AcDbEntity
  8
SOLBET_Wymiary_Opisy
100
AcDbLine
 10
41.83256964416705
 20
132.2099260589261
 30
0.0
 11
157.3696755754817
 21
187.785725434373
 31
0.0
  0
LINE
  5
3094
330
1F
100
AcDbEntity
  8
SOLBET_Wymiary_Opisy
100
AcDbLine
 10
41.91926541896736
 20
132.0296933132017
 30
0.0
 11
157.3696755754817
 21
187.5637901814902
 31
0.0
  0
LINE
  5
3095
330
1F
100
AcDbEntity
  8
SOLBET_Wymiary_Opisy
100
AcDbLine
 10
156.0510917050769
 20
185.4314604056567
 30
0.0
 11
155.5525909999587
 21
186.4677986935703
 31
0.0
  0
LINE
  5
3096
330
1F
100
AcDbEntity
  8
SOLBET_Wymiary_Opisy
100
AcDbLine
 10
149.7429456047348
 20
182.3971082875409
 30
0.0
 11
149.2444448996166
 21
183.4334465754541
 31
0.0
  0
LINE
  5
3097
330
1F
100
AcDbEntity
  8
SOLBET_Wymiary_Opisy
100
AcDbLine
 10
143.4347995043927
 20
179.3627561694243
 30
0.0
 11
142.9362987992744
 21
180.3990944573375
 31
0.0
  0
LINE
  5
3098
330
1F
100
AcDbEntity
  8
SOLBET_Wymiary_Opisy
100
AcDbLine
 10
137.1266534040469
 20
176.3284040513081
 30
0.0
 11
136.6281526989287
 21
177.3647423392217
 31
0.0
  0
LINE
  5
3099
330
1F
100
AcDbEntity
  8
SOLBET_Wymiary_Opisy
100
AcDbLine
 10
130.8185073037048
 20
173.2940519331919
 30
0.0
 11
130.3200065985866
 21
174.330390221105
 31
0.0
  0
LINE
  5
309A
330
1F
100
AcDbEntity
  8
SOLBET_Wymiary_Opisy
100
AcDbLine
 10
124.510361203359
 20
170.2596998150752
 30
0.0
 11
124.0118604982372
 21
171.2960381029893
 31
0.0
  0
LINE
  5
309B
330
1F
100
AcDbEntity
  8
SOLBET_Wymiary_Opisy
100
AcDbLine
 10
118.2022151030169
 20
167.225347696959
 30
0.0
 11
117.703714397895
 21
168.2616859848726
 31
0.0
  0
LINE
  5
309C
330
1F
100
AcDbEntity
  8
SOLBET_Wymiary_Opisy
100
AcDbLine
 10
111.8940690026748
 20
164.1909955788428
 30
0.0
 11
111.3955682975493
 21
165.2273338667569
 31
0.0
  0
LINE
  5
309D
330
1F
100
AcDbEntity
  8
SOLBET_Wymiary_Opisy
100
AcDbLine
 10
105.585922902329
 20
161.1566434607266
 30
0.0
 11
105.0874221972071
 21
162.1929817486402
 31
0.0
  0
LINE
  5
309E
330
1F
100
AcDbEntity
  8
SOLBET_Wymiary_Opisy
100
AcDbLine
 10
99.2777768019796
 20
158.1222913426104
 30
0.0
 11
98.77927609686503
 21
159.158629630524
 31
0.0
  0
LINE
  5
309F
330
1F
100
AcDbEntity
  8
SOLBET_Wymiary_Opisy
100
AcDbLine
 10
92.96963070163746
 20
155.0879392244942
 30
0.0
 11
92.47112999651927
 21
156.1242775124078
 31
0.0
  0
LINE
  5
30A0
330
1F
100
AcDbEntity
  8
SOLBET_Wymiary_Opisy
100
AcDbLine
 10
86.66148460129534
 20
152.053587106378
 30
0.0
 11
86.16298389617714
 21
153.0899253942916
 31
0.0
  0
LINE
  5
30A1
330
1F
100
AcDbEntity
  8
SOLBET_Wymiary_Opisy
100
AcDbLine
 10
80.35333850094957
 20
149.0192349882618
 30
0.0
 11
79.85483779583137
 21
150.055573276175
 31
0.0
  0
LINE
  5
30A2
330
1F
100
AcDbEntity
  8
SOLBET_Wymiary_Opisy
100
AcDbLine
 10
74.04519240060745
 20
145.9848828701456
 30
0.0
 11
73.54669169548924
 21
147.0212211580587
 31
0.0
  0
LINE
  5
30A3
330
1F
100
AcDbEntity
  8
SOLBET_Wymiary_Opisy
100
AcDbLine
 10
67.73704630026168
 20
142.9505307520294
 30
0.0
 11
67.23854559514712
 21
143.9868690399426
 31
0.0
  0
LINE
  5
30A4
330
1F
100
AcDbEntity
  8
SOLBET_Wymiary_Opisy
100
AcDbLine
 10
61.42890019991956
 20
139.9161786339132
 30
0.0
 11
60.93039949480135
 21
140.9525169218263
 31
0.0
  0
LINE
  5
30A5
330
1F
100
AcDbEntity
  8
SOLBET_Wymiary_Opisy
100
AcDbLine
 10
42.00596119377133
 20
131.8494605674777
 30
0.0
 11
157.3696755754817
 21
187.3418549286075
 31
0.0
  0
LINE
  5
30A6
330
1F
100
AcDbEntity
  8
SOLBET_Wymiary_Opisy
100
AcDbLine
 10
42.50446189888953
 20
130.8131222795641
 30
0.0
 11
157.3696755754817
 21
186.0657272245325
 31
0.0
  0
LINE
  5
30A7
330
1F
100
AcDbEntity
  8
SOLBET_Wymiary_Opisy
100
AcDbLine
 10
47.31293667987079
 20
123.1390142938935
 30
0.0
 11
84.37075409957742
 21
140.9646107514845
 31
0.0
  0
INSERT
  5
30A8
330
1F
100
AcDbEntity
  8
SOLBET_Stolarka_Okna
100
AcDbBlockReference
  2
*U3
 10
-83.49457904147584
 20
-339.2840402152497
 30
0.0
 41
50.0
 42
50.0
 43
50.0
1001
ASO_SCHRAFF
1005
0
1070
     0
1005
0
  0
LWPOLYLINE
  5
30AA
330
1F
100
AcDbEntity
  8
SOLBET_Zbrojenie_Konstrukcja
100
AcDbPolyline
 90
        4
 70
     0
 43
0.0
 10
87.87075409957379
 20
144.3397417716542
 10
87.87075409957379
 20
130.0897417716614
 42
1.0
 10
88.89435435128598
 20
130.0897417716614
 10
88.89435435128598
 20
132.5454785853271
  0
LINE
  5
30AB
330
1F
100
AcDbEntity
  8
SOLBET_Zbrojenie_Konstrukcja
100
AcDbLine
 10
86.84821064166227
 20
143.8342789942944
 30
0.0
 11
88.89329755748894
 21
143.8342789942944
 31
0.0
  0
LWPOLYLINE
  5
30AC
330
1F
100
AcDbEntity
  8
SOLBET_Stolarka_Okna
100
AcDbPolyline
 90
        4
 70
     1
 43
0.0
 10
84.37075409957742
 20
136.484569749286
 10
91.37075409957743
 20
136.484569749286
 10
91.37075409957743
 20
143.4445697492783
 10
84.37075409957742
 20
143.4445697492783
  0
LWPOLYLINE
  5
30AF
330
1F
100
AcDbEntity
  8
SOLBET_Zbrojenie_Konstrukcja
100
AcDbPolyline
 90
        5
 70
     0
 43
0.0
 10
93.20969668879389
 20
125.2190620111382
 10
93.20969668879389
 20
135.2913980300313
 10
82.92630139315134
 20
135.2913980300313
 10
82.92630139315134
 20
125.2190620111382
 10
93.20969668879389
 20
125.2190620111382
  0
LINE
  5
30B0
330
1F
100
AcDbEntity
  8
SOLBET_Zbrojenie_Konstrukcja
100
AcDbLine
 10
84.34051495552466
 20
132.6771844676582
 30
0.0
 11
82.92630139315134
 21
134.0913980300311
 31
0.0
  0
LINE
  5
30B1
330
1F
100
AcDbEntity
  8
SOLBET_Zbrojenie_Konstrukcja
100
AcDbLine
 10
85.5405149555254
 20
133.8771844676585
 30
0.0
 11
84.12630139315206
 21
135.2913980300313
 31
0.0
  0
LWPOLYLINE
  5
30B2
330
1F
100
AcDbEntity
  8
SOLBET_Zbrojenie_Konstrukcja
100
AcDbPolyline
 90
        2
 70
     1
 43
0.3
 10
83.09559488425566
 20
125.5352834114583
 42
1.0
 10
83.39559488425493
 20
125.5352834114583
 42
1.0
  0
LWPOLYLINE
  5
30B3
330
1F
100
AcDbEntity
  8
SOLBET_Zbrojenie_Konstrukcja
100
AcDbPolyline
 90
        2
 70
     1
 43
0.3
 10
92.76800284900946
 20
125.4842812746624
 42
1.0
 10
93.06800284901237
 20
125.4842812746624
 42
1.0
  0
LWPOLYLINE
  5
30B4
330
1F
100
AcDbEntity
  8
SOLBET_Zbrojenie_Konstrukcja
100
AcDbPolyline
 90
        2
 70
     1
 43
0.3
 10
92.76800284900946
 20
134.8935291686166
 42
1.0
 10
93.06800284901237
 20
134.8935291686166
 42
1.0
  0
LWPOLYLINE
  5
30B5
330
1F
100
AcDbEntity
  8
SOLBET_Zbrojenie_Konstrukcja
100
AcDbPolyline
 90
        2
 70
     1
 43
0.3
 10
83.09559488425566
 20
134.9661509804937
 42
1.0
 10
83.39559488425493
 20
134.9661509804937
 42
1.0
  0
LINE
  5
30BB
330
1F
100
AcDbEntity
  8
SOLBET_Wymiary_Opisy
100
AcDbLine
 10
69.76686510679702
 20
67.18687409869017
 30
0.0
 11
157.3696755754817
 21
67.18687409869062
 31
0.0
  0
LINE
  5
30C3
330
1F
100
AcDbEntity
  8
SOLBET_Tynki_Posadzki
100
AcDbLine
 10
94.37075409957378
 20
75.7445697492858
 30
0.0
 11
93.87274726710439
 21
76.2445697492858
 31
0.0
  0
LINE
  5
30C4
330
1F
100
AcDbEntity
  8
SOLBET_Tynki_Posadzki
100
AcDbLine
 10
94.37075409957378
 20
75.7445697492858
 30
0.0
 11
157.3696755754817
 21
75.7445697492858
 31
0.0
  0
LINE
  5
30C5
330
1F
100
AcDbEntity
  8
SOLBET_Tynki_Posadzki
100
AcDbLine
 10
94.37075409957378
 20
75.7445697492858
 30
0.0
 11
94.37075409957378
 21
67.18687409869017
 31
0.0
  0
LINE
  5
30CD
330
1F
100
AcDbEntity
  8
SOLBET_Tynki_Posadzki
100
AcDbLine
 10
94.37075409957378
 20
93.61787658284084
 30
0.0
 11
94.37075409957378
 21
136.2445697492858
 31
0.0
  0
LINE
  5
30D9
330
1F
100
AcDbEntity
  8
SOLBET_Wymiary_Opisy
100
AcDbLine
 10
157.3696755754817
 20
198.4245726953895
 30
0.0
 11
157.3696755754817
 21
67.18687409869062
 31
0.0
  0
LWPOLYLINE
  5
30DB
330
1F
100
AcDbEntity
  8
SOLBET_Zbrojenie_Konstrukcja
  6
Continuous
100
AcDbPolyline
 90
        2
 70
     1
 43
0.3
 10
82.91115435276788
 20
86.12718097353853
 42
1.0
 10
83.21115435277079
 20
86.12718097353853
 42
1.0
  0
LWPOLYLINE
  5
30DC
330
1F
100
AcDbEntity
  8
SOLBET_Zbrojenie_Konstrukcja
  6
Continuous
100
AcDbPolyline
 90
        2
 70
     1
 43
0.3
 10
82.91115435276788
 20
77.3107911496054
 42
1.0
 10
83.21115435277079
 20
77.3107911496054
 42
1.0
  0
LINE
  5
30DD
330
1F
100
AcDbEntity
  8
SOLBET_Zbrojenie_Konstrukcja
  6
Continuous
100
AcDbLine
 10
85.35607442403398
 20
85.03821446070332
 30
0.0
 11
83.94186086166428
 21
86.4524280230762
 31
0.0
  0
LINE
  5
30DE
330
1F
100
AcDbEntity
  8
SOLBET_Zbrojenie_Konstrukcja
  6
Continuous
100
AcDbLine
 10
84.15607442403688
 20
83.83821446070351
 30
0.0
 11
82.74186086166356
 21
85.25242802307639
 31
0.0
  0
LWPOLYLINE
  5
30DF
330
1F
100
AcDbEntity
  8
SOLBET_Zbrojenie_Konstrukcja
  6
Continuous
100
AcDbPolyline
 90
        5
 70
     0
 43
0.0
 10
88.74749215576867
 20
76.99456974928534
 10
88.74749215576867
 20
86.4524280230762
 10
82.74186086166356
 20
86.4524280230762
 10
82.74186086166356
 20
76.99456974928534
 10
88.74749215576867
 20
76.99456974928534
  0
LINE
  5
30F1
330
1F
100
AcDbEntity
  8
SOLBET_Izolacja
100
AcDbLine
 10
74.37075409957742
 20
144.4769705583749
 30
0.0
 11
74.37075409957742
 21
67.18687409869017
 31
0.0
  0
LINE
  5
30F2
330
1F
100
AcDbEntity
  8
SOLBET_Zaprawy
100
AcDbLine
 10
74.08743229304218
 20
67.18687409869017
 30
0.0
 11
74.08743229304218
 21
144.3406867580174
 31
0.0
  0
LINE
  5
30F3
330
1F
100
AcDbEntity
  8
SOLBET_Tynki_Posadzki
100
AcDbLine
 10
73.62075409957743
 20
67.18687409869017
 30
0.0
 11
73.62075409957743
 21
144.1162046451591
 31
0.0
  0
LINE
  5
30F4
330
1F
100
AcDbEntity
  8
SOLBET_Zbrojenie_Konstrukcja
100
AcDbLine
 10
74.68421358237447
 20
107.5798463385658
 30
0.0
 11
74.68421358237447
 21
104.3306317043834
 31
0.0
  0
LINE
  5
30F5
330
1F
100
AcDbEntity
  8
SOLBET_Zbrojenie_Konstrukcja
100
AcDbLine
 10
74.30916220003109
 20
105.9552390214744
 30
0.0
 11
88.06103606878151
 21
105.9552390214744
 31
0.0
  0
LINE
  5
30F6
330
1F
100
AcDbEntity
  8
SOLBET_Zbrojenie_Konstrukcja
100
AcDbLine
 10
74.68421358237447
 20
71.1769391037883
 30
0.0
 11
74.68421358237447
 21
67.92772446960634
 31
0.0
  0
LINE
  5
30F7
330
1F
100
AcDbEntity
  8
SOLBET_Zbrojenie_Konstrukcja
100
AcDbLine
 10
74.27083602901848
 20
69.55233178669733
 30
0.0
 11
88.27100377042029
 21
69.55233178669733
 31
0.0
  0
LINE
  5
30F9
330
1F
100
AcDbEntity
  8
SOLBET_Izolacja
100
AcDbLine
 10
81.87075409957378
 20
67.18687409869017
 30
0.0
 11
81.87075409957378
 21
148.0846296905292
 31
0.0
  0
LWPOLYLINE
  5
30FB
330
1F
100
AcDbEntity
  8
SOLBET_Zbrojenie_Konstrukcja
  6
Continuous
100
AcDbPolyline
 90
        2
 70
     1
 43
0.3
 10
88.57819866466071
 20
86.12718097353853
 42
-1.0
 10
88.27819866466143
 20
86.12718097353853
 42
-1.0
  0
LWPOLYLINE
  5
30FC
330
1F
100
AcDbEntity
  8
SOLBET_Zbrojenie_Konstrukcja
  6
Continuous
100
AcDbPolyline
 90
        2
 70
     1
 43
0.3
 10
88.57819866466071
 20
77.3107911496054
 42
-1.0
 10
88.27819866466143
 20
77.3107911496054
 42
-1.0
  0
LINE
  5
3102
330
1F
100
AcDbEntity
  8
SOLBET_Emulsje_Folie
100
AcDbLine
 10
91.47912381807964
 20
138.5580870206095
 30
0.0
 11
157.478045293984
 21
170.304968590598
 31
0.0
  0
LINE
  5
3103
330
1F
100
AcDbEntity
  8
SOLBET_Zaprawy
100
AcDbLine
 10
93.87075409957379
 20
139.43109286461
 30
0.0
 11
157.5864150124898
 21
170.0796776584425
 31
0.0
  0
LINE
  5
3104
330
1F
100
AcDbEntity
  8
SOLBET_Tynki_Posadzki
100
AcDbLine
 10
93.87075409957379
 20
138.8762547324036
 30
0.0
 11
157.8031544494979
 21
169.6290957941323
 31
0.0
  0
LINE
  5
3105
330
1F
100
AcDbEntity
  8
SOLBET_Tynki_Posadzki
100
AcDbLine
 10
94.37075409957378
 20
136.2445697492858
 30
0.0
 11
94.37075409957378
 21
139.1167653412139
 31
0.0
  0
LINE
  5
3106
330
1F
100
AcDbEntity
  8
SOLBET_Bloczki
100
AcDbLine
 10
93.87075409957379
 20
136.2445697492858
 30
0.0
 11
93.87075409957379
 21
139.43109286461
 31
0.0
  0
MTEXT
  5
3107
102
{ACAD_XDICTIONARY
360
3108
102
}
330
1F
100
AcDbEntity
  8
SOLBET_Wymiary_Opisy @ 1
100
AcDbMText
 10
10.36686329877307
 20
290.7299988460193
 30
0.0
 40
5.0
 41
124.2624847080697
 71
     1
 72
     5
  1
{\LDETAL 92\P}Wieniec pod mur\U+0142at\U+0119 w \U+015Bcianie warstwowej
  7
Solbet_5
 73
     1
 44
1.0
1001
AcadAnnotative
1000
AnnotativeData
1002
{
1070
     1
1070
     0
1002
}
1001
ACAD
1000
MTEXTBEGIN
1070
    73
1070
     1
1070
    44
1040
1.0
1070
    74
1070
     0
1000
MTEXTEND
  0
LWPOLYLINE
  5
310C
330
1F
100
AcDbEntity
  8
SOLBET_Ramka_05
100
AcDbPolyline
 90
        4
 70
     1
 43
0.0
 10
0.0
 20
0.0
 10
210.0
 20
0.0
 10
210.0
 20
297.0
 10
0.0
 20
297.0
  0
LINE
  5
3165
330
1F
100
AcDbEntity
  8
SOLBET_Izolacja
  6
BATTING
 48
0.36
100
AcDbLine
 10
84.80119200658208
 20
145.332946509171
 30
0.0
 11
156.8582161947431
 21
179.9939040222794
 31
0.0
  0
LINE
  5
3166
330
1F
100
AcDbEntity
  8
SOLBET_Izolacja
  6
BATTING
 48
0.24
100
AcDbLine
 10
92.10391521559637
 20
141.9198359072959
 30
0.0
 11
156.9002790448454
 21
172.9768140809451
 31
0.0
  0
LINE
  5
316D
330
1F
100
AcDbEntity
  8
SOLBET_Izolacja
100
AcDbLine
 10
92.10391521559637
 20
141.9198359072959
 30
0.0
 11
91.37075409957743
 21
141.568430867995
 31
0.0
  0
LINE
  5
316E
330
1F
100
AcDbEntity
  8
SOLBET_Izolacja
100
AcDbLine
 10
73.62075409957743
 20
144.1162046451591
 30
0.0
 11
83.17564622902091
 21
148.7123104914967
 31
0.0
  0
LINE
  5
316F
330
1F
100
AcDbEntity
  8
SOLBET_Izolacja
100
AcDbLine
 10
81.8707540995747
 20
148.0846296776266
 30
0.0
 11
81.8707540995747
 21
136.2445697492858
 31
0.0
  0
LINE
  5
3170
330
1F
100
AcDbEntity
  8
SOLBET_Izolacja
100
AcDbLine
 10
84.37075409957742
 20
136.484569749286
 30
0.0
 11
81.8707540995747
 21
136.484569749286
 31
0.0
  0
LINE
  5
3171
330
1F
100
AcDbEntity
  8
SOLBET_Izolacja
  6
BATTING
 48
0.12
100
AcDbLine
 10
83.12075409957605
 20
136.484569749286
 30
0.0
 11
83.12075409957595
 21
146.4848988172494
 31
0.0
  0
LINE
  5
3173
330
1F
100
AcDbEntity
  8
SOLBET_Izolacja
100
AcDbLine
 10
84.1653480991958
 20
146.6548090052407
 30
0.0
 11
81.8707540995747
 21
146.6548090052407
 31
0.0
  0
LINE
  5
3174
330
1F
100
AcDbEntity
  8
SOLBET_Izolacja
100
AcDbLine
 10
83.12075409957595
 20
146.4848988172494
 30
0.0
 11
83.120754099576
 21
146.6548090052407
 31
0.0
  0
LINE
  5
3175
330
1F
100
AcDbEntity
  8
SOLBET_Izolacja
100
AcDbLine
 10
74.37075409957469
 20
144.476970522278
 30
0.0
 11
81.87075409957385
 21
144.476970522278
 31
0.0
  0
LINE
  5
3176
330
1F
100
AcDbEntity
  8
SOLBET_Izolacja
  6
BATTING
 48
0.365
100
AcDbLine
 10
78.12075409957424
 20
144.476970522278
 30
0.0
 11
78.12075409957424
 21
67.18687409869017
 31
0.0
  0
LWPOLYLINE
  5
31A7
330
1F
100
AcDbEntity
  8
SOLBET_Zbrojenie_Konstrukcja
100
AcDbPolyline
 90
        4
 70
     1
 43
0.0
 10
81.87075409957378
 20
136.2445697492858
 10
93.87075409957379
 20
136.2445697492858
 10
93.87075409957379
 20
124.2445697492858
 10
81.87075409957378
 20
124.2445697492858
  0
ARC
  5
31AE
330
1F
100
AcDbEntity
  8
SOLBET_Tynki_Posadzki
100
AcDbCircle
 10
94.37075409957015
 20
94.11787658284083
 30
0.0
 40
1.5000521396288
100
AcDbArc
 50
0.0
 51
90.0
  0
LINE
  5
31AF
330
1F
100
AcDbEntity
  8
SOLBET_Tynki_Posadzki
100
AcDbLine
 10
95.1688202907635
 20
94.11787658284083
 30
0.0
 11
157.3696755754817
 21
94.11787658284083
 31
0.0
  0
LINE
  5
31B0
330
1F
100
AcDbEntity
  8
SOLBET_Emulsje_Folie
100
AcDbLine
 10
94.98557014923699
 20
93.86787658284083
 30
0.0
 11
94.98557014923699
 21
91.19040906285773
 31
0.0
  0
LINE
  5
31B1
330
1F
100
AcDbEntity
  8
SOLBET_Emulsje_Folie
100
AcDbLine
 10
95.23557014923699
 20
90.94040906285773
 30
0.0
 11
157.3696755754817
 21
90.94040906285773
 31
0.0
  0
ARC
  5
31B2
330
1F
100
AcDbEntity
  8
SOLBET_Emulsje_Folie
100
AcDbCircle
 10
95.23557014923699
 20
91.19040906285773
 30
0.0
 40
0.25
100
AcDbArc
 50
180.0
 51
270.0
  0
LWPOLYLINE
  5
31B3
330
1F
100
AcDbEntity
  8
SOLBET_Tynki_Posadzki
100
AcDbPolyline
 90
        5
 70
     1
 43
0.0
 10
94.98557014923699
 20
91.19040906285773
 42
0.0737237824442244
 10
94.99632333245518
 20
91.11787658284084
 10
157.3696755754817
 20
91.11787658284084
 10
157.3696755754817
 20
93.61787658284084
 10
94.98557014923699
 20
93.61787658284084
1001
ASO_SCHRAFF
1005
0
1070
     1
1002
{
1070
     1
1005
0
1002
}
1002
{
1070
     2
1005
0
1002
}
1002
{
1070
     4
1000
AR-CONC
1040
0.01
1040
0.0
1070
     0
1000
T__SCHR
1070
   256
1000
_bylayer
1040
50.0
1070
     1
1002
}
  0
INSERT
  5
31B4
330
1F
100
AcDbEntity
  8
SOLBET_Tynki_Posadzki
100
AcDbBlockReference
  2
*X2
 10
-479.8301617813859
 20
-380.2508182494316
 30
0.0
 41
50.0
 42
50.0
 43
50.0
1001
ASO_SCHRAFF
1005
0
1070
     0
1005
0
1001
ACAD
1000
HATCH
1002
{
1070
    16
1000
AR-CONC
1040
0.025
1040
0.0
1002
}
  0
LINE
  5
31B6
330
1F
100
AcDbEntity
  8
SOLBET_Izolacja
100
AcDbLine
 10
93.87075409957015
 20
93.61787658284084
 30
0.0
 11
94.87075409957373
 21
93.61787658284084
 31
0.0
  0
LINE
  5
31B7
330
1F
100
AcDbEntity
  8
SOLBET_Izolacja
100
AcDbLine
 10
94.87075409957373
 20
93.61787658284084
 30
0.0
 11
94.87075409851263
 21
88.2445697757463
 31
0.0
  0
LINE
  5
31B8
330
1F
100
AcDbEntity
  8
SOLBET_Izolacja
  6
BATTING
 48
0.048
100
AcDbLine
 10
94.37075409957197
 20
88.29781081007604
 30
0.0
 11
94.37075409957197
 21
93.61787658284084
 31
0.0
  0
LINE
  5
31B9
330
1F
100
AcDbEntity
  8
SOLBET_Izolacja
100
AcDbLine
 10
94.87075416572514
 20
88.2445697757463
 30
0.0
 11
157.3696755754817
 21
88.2445697034068
 31
0.0
  0
LINE
  5
31BA
330
1F
100
AcDbEntity
  8
SOLBET_Izolacja
100
AcDbLine
 10
157.3696755754817
 20
90.7445697492858
 30
0.0
 11
94.87075409957384
 21
90.74456817491199
 31
0.0
  0
LINE
  5
31BB
330
1F
100
AcDbEntity
  8
SOLBET_Izolacja
  6
BATTING
 48
0.12
100
AcDbLine
 10
94.8707541326495
 20
89.49456976251605
 30
0.0
 11
157.1057594707972
 21
89.49456976251605
 31
0.0
  0
INSERT
  5
31E6
330
1F
100
AcDbEntity
  8
SOLBET_Wymiary_Opisy
100
AcDbBlockReference
  2
_DotSmall
 10
88.89435435128598
 20
140.8305890154956
 30
0.0
 41
2.500000000000004
 42
2.5
 43
2.5
 50
144.3732643216744
1001
ACAD
1000
DSTYLE
1002
{
1070
   147
1040
0.625
1070
    77
1070
     1
1002
}
  0
LWPOLYLINE
  5
31E7
330
1F
100
AcDbEntity
  8
SOLBET_Wymiary_Opisy
100
AcDbPolyline
 90
        3
 70
     0
 43
0.0
 10
88.89435435128598
 20
140.8305890154956
 10
101.1566615793167
 20
132.042981694904
 10
146.1206485124344
 20
132.042981694904
1001
ACAD
1000
DSTYLE
1002
{
1070
   147
1040
0.625
1070
    77
1070
     1
1002
}
  0
MTEXT
  5
31E8
102
{ACAD_XDICTIONARY
360
3B25
102
}
330
1F
100
AcDbEntity
  8
SOLBET_Wymiary_Opisy
100
AcDbMText
 10
102.2332429205384
 20
139.7096483615707
 30
0.0
 40
2.5
 41
45.61266565198366
 71
     1
 72
     1
  1
Mur\U+0142ata przymocowana \P\U+015Brubami kotwionymi w wie\U+0144cu
  7
Solbet_2_5
 73
     1
 44
1.0
1001
ACAD
1000
MTEXTBEGIN
1070
    73
1070
     1
1070
    44
1040
1.0
1070
    74
1070
     0
1000
MTEXTEND
  0
INSERT
  5
31EC
330
1F
100
AcDbEntity
  8
SOLBET_Wymiary_Opisy
100
AcDbBlockReference
  2
_DotSmall
 10
88.79711251024753
 20
126.377478701997
 30
0.0
 41
2.500000000000004
 42
2.5
 43
2.5
 50
144.3732643216744
1001
ACAD
1000
DSTYLE
1002
{
1070
   147
1040
0.625
1070
    77
1070
     1
1002
}
  0
LWPOLYLINE
  5
31ED
330
1F
100
AcDbEntity
  8
SOLBET_Wymiary_Opisy
100
AcDbPolyline
 90
        3
 70
     0
 43
0.0
 10
88.79711251024753
 20
126.377478701997
 10
101.4183071058486
 20
116.2450493941641
 10
140.4518812325347
 20
116.2450493941641
1001
ACAD
1000
DSTYLE
1002
{
1070
   147
1040
0.625
1070
    77
1070
     1
1002
}
  0
MTEXT
  5
31EE
102
{ACAD_XDICTIONARY
360
3B27
102
}
330
1F
100
AcDbEntity
  8
SOLBET_Wymiary_Opisy
100
AcDbMText
 10
102.2332429205384
 20
123.7549147682562
 30
0.0
 40
2.5
 41
45.61266565198366
 71
     1
 72
     1
  1
Wieniec pod mur\U+0142at\U+0119 \Pw kszta\U+0142tkach U SOLBET
  7
Solbet_2_5
 73
     1
 44
1.0
1001
ACAD
1000
MTEXTBEGIN
1070
    73
1070
     1
1070
    44
1040
1.0
1070
    74
1070
     0
1000
MTEXTEND
  0
LEADER
  5
31F0
330
1F
100
AcDbEntity
  8
SOLBET_Wymiary_Opisy
100
AcDbLeader
  3
Solbet$7
 73
     0
 74
     0
 75
     1
 40
3.25
 41
32.5
 76
     3
 10
90.9128353271617
 20
86.86585531204173
 30
0.0
 10
101.3270592838626
 20
98.65647065377608
 30
0.0
 10
103.8270592838625
 20
98.65647065377608
 30
0.0
213
0.0
223
-0.2322806831707567
233
0.0
1001
ACAD
1000
DSTYLE
1002
{
1070
   147
1040
0.625
1070
    77
1070
     1
1002
}
  0
MTEXT
  5
31F1
102
{ACAD_XDICTIONARY
360
3B29
102
}
102
{ACAD_REACTORS
330
31F0
102
}
330
1F
100
AcDbEntity
  8
SOLBET_Wymiary_Opisy
100
AcDbMText
 10
102.6194424189227
 20
106.6090850912162
 30
0.0
 40
2.5
 41
37.73157436816473
 71
     1
 72
     1
  1
Zbrojenie g\U+00F3rne strefy przypodporowej
  7
Solbet_2_5
 73
     1
 44
1.0
1001
ACAD
1000
MTEXTBEGIN
1070
    73
1070
     1
1070
    44
1040
1.0
1070
    74
1070
     0
1000
MTEXTEND
1000
ACAD_MTEXT_DEFINED_HEIGHT_BEGIN
1070
    46
1040
8.726348223906139
1000
ACAD_MTEXT_DEFINED_HEIGHT_END
  0
MTEXT
  5
31F8
102
{ACAD_XDICTIONARY
360
3B2B
102
}
330
1F
100
AcDbEntity
  8
SOLBET_Wymiary_Opisy
100
AcDbMText
 10
63.88094635384255
 20
89.48554296639144
 30
0.0
 40
2.5
 41
0.0
 71
     3
 72
     1
  1
Wieniec \U+017Celbetowy
  7
Solbet_2_5
 73
     1
 44
1.0
1001
ACAD
1000
MTEXTBEGIN
1070
    73
1070
     1
1070
    44
1040
1.0
1070
    74
1070
     0
1000
MTEXTEND
  0
INSERT
  5
3201
330
1F
100
AcDbEntity
  8
SOLBET_Wymiary_Opisy
100
AcDbBlockReference
  2
_DotSmall
 10
84.70786182011124
 20
77.87154142519603
 30
0.0
 41
2.499999999999997
 42
2.5
 43
2.5
 50
330.0983732086725
1001
ACAD
1000
DSTYLE
1002
{
1070
   147
1040
0.625
1070
    77
1070
     1
1002
}
  0
LWPOLYLINE
  5
3202
330
1F
100
AcDbEntity
  8
SOLBET_Wymiary_Opisy
100
AcDbPolyline
 90
        3
 70
     0
 43
0.0
 10
84.70786182011124
 20
77.87154142519603
 10
70.16337297379959
 20
86.23554296639145
 10
36.11492442631539
 20
86.23554296639145
1001
ACAD
1000
DSTYLE
1002
{
1070
   147
1040
0.625
1070
    77
1070
     1
1002
}
  0
LINE
  5
3491
330
1F
100
AcDbEntity
  8
SOLBET_Bloczki
100
AcDbLine
 10
93.87075409957379
 20
139.43109286461
 30
0.0
 11
91.37075409957743
 21
138.2285398205602
 31
0.0
  0
LINE
  5
3492
330
1F
100
AcDbEntity
  8
SOLBET_Bloczki
100
AcDbLine
 10
91.37075409957743
 20
138.2285398205602
 30
0.0
 11
91.37075409957743
 21
136.484569749286
 31
0.0
  0
LINE
  5
3493
330
1F
100
AcDbEntity
  8
SOLBET_Bloczki
100
AcDbLine
 10
91.37075409957743
 20
136.484569749286
 30
0.0
 11
93.87075409957379
 21
136.484569749286
 31
0.0
  0
LINE
  5
35E4
330
1F
100
AcDbEntity
  8
SOLBET_Zbrojenie_Konstrukcja
  6
Continuous
100
AcDbLine
 10
157.3696755754817
 20
84.74456967867608
 30
0.0
 11
90.59790203030491
 21
84.74456967867572
 31
0.0
  0
LWPOLYLINE
  5
35E7
330
1F
100
AcDbEntity
  8
SOLBET_Beton
100
AcDbPolyline
 90
        5
 70
     1
 43
0.0
 10
91.87075427531864
 20
76.24456967867581
 10
95.87075427531852
 20
76.24456967867581
 10
157.3696755754817
 20
76.24456967867581
 10
157.3696755754817
 20
78.24456969338689
 10
91.87075427531864
 20
78.24456967867577
1001
ASO_SCHRAFF
1005
0
1070
     1
1002
{
1070
     1
1005
0
1002
}
1002
{
1070
     2
1005
0
1002
}
1002
{
1070
     4
1000
NET
1040
0.1
1040
45.0
1070
     0
1000
T__SCHR
1070
   256
1000
VONLAYER
1040
50.0
1070
     1
1002
}
  0
LWPOLYLINE
  5
35E9
330
1F
100
AcDbEntity
  8
SOLBET_Beton
100
AcDbPolyline
 90
        6
 70
     1
 43
0.0
 10
81.87075427532226
 20
88.24456970809842
 10
81.87075427532226
 20
76.24456969338689
 10
91.87075427531864
 20
76.24456969338689
 10
91.87075427531864
 20
78.24456969338689
 10
157.3696755754817
 20
78.24456969338689
 10
157.3696755754817
 20
88.2445697034068
  0
LINE
  5
35EA
330
1F
100
AcDbEntity
  8
SOLBET_Beton
100
AcDbLine
 10
106.6064264885904
 20
81.74456967867582
 30
0.0
 11
118.6064264885904
 21
81.74456967867582
 31
0.0
  0
LINE
  5
35EC
330
1F
100
AcDbEntity
  8
SOLBET_Beton
100
AcDbLine
 10
130.6064264885904
 20
81.74456967867582
 30
0.0
 11
142.6064264885904
 21
81.74456967867582
 31
0.0
  0
LINE
  5
35EE
330
1F
100
AcDbEntity
  8
SOLBET_Beton
100
AcDbLine
 10
118.6064264885904
 20
81.74456967867582
 30
0.0
 11
130.6064264885904
 21
81.74456967867582
 31
0.0
  0
LINE
  5
35F0
330
1F
100
AcDbEntity
  8
SOLBET_Beton
100
AcDbLine
 10
142.6064264885904
 20
81.74456967867582
 30
0.0
 11
154.6064264885904
 21
81.74456967867582
 31
0.0
  0
LINE
  5
35F2
330
1F
100
AcDbEntity
  8
SOLBET_Beton
100
AcDbLine
 10
94.60642648858675
 20
81.74456967867582
 30
0.0
 11
106.6064264885867
 21
81.74456967867582
 31
0.0
  0
LINE
  5
35F4
330
1F
100
AcDbEntity
  8
SOLBET_Beton
100
AcDbLine
 10
154.6064264885867
 20
81.74456967867582
 30
0.0
 11
157.3696755754817
 21
81.74456967867582
 31
0.0
  0
LWPOLYLINE
  5
35F6
330
1F
100
AcDbEntity
  8
SOLBET_Zbrojenie_Konstrukcja
  6
Continuous
100
AcDbPolyline
 90
        6
 70
     0
 43
0.0
 10
131.4965564665695
 20
86.86585524143174
 10
82.99655646657312
 20
86.86585524143174
 42
0.4142135623730951
 10
82.49655646656947
 20
86.36585524143175
 10
82.49655646656947
 20
78.86585524143175
 42
0.4142135623730964
 10
82.99655646657312
 20
78.36585524143174
 10
101.4965564665731
 20
78.36585524143174
  0
LINE
  5
35F8
330
1F
100
AcDbEntity
  8
SOLBET_Beton
 62
     0
100
AcDbLine
 10
121.8222443773066
 20
76.24456967867581
 30
0.0
 11
123.8222443773065
 21
78.2445696786757
 31
0.0
  0
LINE
  5
35F9
330
1F
100
AcDbEntity
  8
SOLBET_Beton
 62
     0
100
AcDbLine
 10
119.6125356860986
 20
76.24456967867581
 30
0.0
 11
121.6125356860985
 21
78.2445696786757
 31
0.0
  0
LINE
  5
35FA
330
1F
100
AcDbEntity
  8
SOLBET_Beton
 62
     0
100
AcDbLine
 10
117.4028269948906
 20
76.24456967867581
 30
0.0
 11
119.4028269948905
 21
78.2445696786757
 31
0.0
  0
LINE
  5
35FB
330
1F
100
AcDbEntity
  8
SOLBET_Beton
 62
     0
100
AcDbLine
 10
115.1931183036826
 20
76.24456967867581
 30
0.0
 11
117.1931183036826
 21
78.2445696786757
 31
0.0
  0
LINE
  5
35FC
330
1F
100
AcDbEntity
  8
SOLBET_Beton
 62
     0
100
AcDbLine
 10
112.9834096124746
 20
76.24456967867581
 30
0.0
 11
114.9834096124746
 21
78.2445696786757
 31
0.0
  0
LINE
  5
35FD
330
1F
100
AcDbEntity
  8
SOLBET_Beton
 62
     0
100
AcDbLine
 10
110.7737009212667
 20
76.24456967867581
 30
0.0
 11
112.7737009212666
 21
78.2445696786757
 31
0.0
  0
LINE
  5
35FE
330
1F
100
AcDbEntity
  8
SOLBET_Beton
 62
     0
100
AcDbLine
 10
108.5639922300589
 20
76.24456967867581
 30
0.0
 11
110.5639922300586
 21
78.2445696786757
 31
0.0
  0
LINE
  5
35FF
330
1F
100
AcDbEntity
  8
SOLBET_Beton
 62
     0
100
AcDbLine
 10
106.3542835388509
 20
76.24456967867581
 30
0.0
 11
108.3542835388508
 21
78.2445696786757
 31
0.0
  0
LINE
  5
3600
330
1F
100
AcDbEntity
  8
SOLBET_Beton
 62
     0
100
AcDbLine
 10
104.1445748476429
 20
76.24456967867581
 30
0.0
 11
106.1445748476428
 21
78.2445696786757
 31
0.0
  0
LINE
  5
3601
330
1F
100
AcDbEntity
  8
SOLBET_Beton
 62
     0
100
AcDbLine
 10
101.934866156435
 20
76.24456967867581
 30
0.0
 11
103.9348661564348
 21
78.2445696786757
 31
0.0
  0
LINE
  5
3602
330
1F
100
AcDbEntity
  8
SOLBET_Beton
 62
     0
100
AcDbLine
 10
99.72515746522702
 20
76.24456967867581
 30
0.0
 11
101.7251574652269
 21
78.2445696786757
 31
0.0
  0
LINE
  5
3603
330
1F
100
AcDbEntity
  8
SOLBET_Beton
 62
     0
100
AcDbLine
 10
97.51544877401904
 20
76.24456967867581
 30
0.0
 11
99.51544877401893
 21
78.2445696786757
 31
0.0
  0
LINE
  5
3604
330
1F
100
AcDbEntity
  8
SOLBET_Beton
 62
     0
100
AcDbLine
 10
95.30574008281105
 20
76.24456967867581
 30
0.0
 11
97.30574008281104
 21
78.2445696786757
 31
0.0
  0
LINE
  5
3605
330
1F
100
AcDbEntity
  8
SOLBET_Beton
 62
     0
100
AcDbLine
 10
93.09603139160316
 20
76.24456967867581
 30
0.0
 11
95.09603139160304
 21
78.2445696786757
 31
0.0
  0
LINE
  5
3606
330
1F
100
AcDbEntity
  8
SOLBET_Beton
 62
     0
100
AcDbLine
 10
91.87075427531857
 20
77.22900125359922
 30
0.0
 11
92.88632270039505
 21
78.2445696786757
 31
0.0
  0
LINE
  5
3607
330
1F
100
AcDbEntity
  8
SOLBET_Beton
 62
     0
100
AcDbLine
 10
124.0319530685145
 20
76.24456967867581
 30
0.0
 11
126.0319530685145
 21
78.2445696786757
 31
0.0
  0
LINE
  5
3608
330
1F
100
AcDbEntity
  8
SOLBET_Beton
 62
     0
100
AcDbLine
 10
126.2416617597225
 20
76.24456967867581
 30
0.0
 11
128.2416617597225
 21
78.2445696786757
 31
0.0
  0
LINE
  5
3609
330
1F
100
AcDbEntity
  8
SOLBET_Beton
 62
     0
100
AcDbLine
 10
128.4513704509305
 20
76.24456967867581
 30
0.0
 11
130.4513704509304
 21
78.2445696786757
 31
0.0
  0
LINE
  5
360A
330
1F
100
AcDbEntity
  8
SOLBET_Beton
 62
     0
100
AcDbLine
 10
130.6610791421384
 20
76.24456967867581
 30
0.0
 11
132.6610791421383
 21
78.2445696786757
 31
0.0
  0
LINE
  5
360B
330
1F
100
AcDbEntity
  8
SOLBET_Beton
 62
     0
100
AcDbLine
 10
132.8707878333464
 20
76.24456967867581
 30
0.0
 11
134.8707878333462
 21
78.2445696786757
 31
0.0
  0
LINE
  5
360C
330
1F
100
AcDbEntity
  8
SOLBET_Beton
 62
     0
100
AcDbLine
 10
135.0804965245543
 20
76.24456967867581
 30
0.0
 11
137.0804965245542
 21
78.2445696786757
 31
0.0
  0
LINE
  5
360D
330
1F
100
AcDbEntity
  8
SOLBET_Beton
 62
     0
100
AcDbLine
 10
137.2902052157623
 20
76.24456967867581
 30
0.0
 11
139.2902052157622
 21
78.2445696786757
 31
0.0
  0
LINE
  5
360E
330
1F
100
AcDbEntity
  8
SOLBET_Beton
 62
     0
100
AcDbLine
 10
139.4999139069702
 20
76.24456967867581
 30
0.0
 11
141.4999139069701
 21
78.2445696786757
 31
0.0
  0
LINE
  5
360F
330
1F
100
AcDbEntity
  8
SOLBET_Beton
 62
     0
100
AcDbLine
 10
141.7096225981782
 20
76.24456967867581
 30
0.0
 11
143.7096225981781
 21
78.2445696786757
 31
0.0
  0
LINE
  5
3610
330
1F
100
AcDbEntity
  8
SOLBET_Beton
 62
     0
100
AcDbLine
 10
143.9193312893862
 20
76.24456967867581
 30
0.0
 11
145.9193312893861
 21
78.2445696786757
 31
0.0
  0
LINE
  5
3611
330
1F
100
AcDbEntity
  8
SOLBET_Beton
 62
     0
100
AcDbLine
 10
146.1290399805941
 20
76.24456967867581
 30
0.0
 11
148.1290399805941
 21
78.2445696786757
 31
0.0
  0
LINE
  5
3612
330
1F
100
AcDbEntity
  8
SOLBET_Beton
 62
     0
100
AcDbLine
 10
148.338748671802
 20
76.24456967867581
 30
0.0
 11
150.338748671802
 21
78.2445696786757
 31
0.0
  0
LINE
  5
3613
330
1F
100
AcDbEntity
  8
SOLBET_Beton
 62
     0
100
AcDbLine
 10
150.5484573630101
 20
76.24456967867581
 30
0.0
 11
152.5484573630099
 21
78.2445696786757
 31
0.0
  0
LINE
  5
3614
330
1F
100
AcDbEntity
  8
SOLBET_Beton
 62
     0
100
AcDbLine
 10
152.758166054218
 20
76.24456967867581
 30
0.0
 11
154.758166054218
 21
78.2445696786757
 31
0.0
  0
LINE
  5
3615
330
1F
100
AcDbEntity
  8
SOLBET_Beton
 62
     0
100
AcDbLine
 10
154.9678747454261
 20
76.24456967867581
 30
0.0
 11
156.3696757512239
 21
77.6463706844737
 31
0.0
  0
LINE
  5
3616
330
1F
100
AcDbEntity
  8
SOLBET_Beton
 62
     0
100
AcDbLine
 10
124.5989604285481
 20
76.24456967867581
 30
0.0
 11
122.598960428548
 21
78.2445696786757
 31
0.0
  0
LINE
  5
3617
330
1F
100
AcDbEntity
  8
SOLBET_Beton
 62
     0
100
AcDbLine
 10
122.3892517373401
 20
76.24456967867581
 30
0.0
 11
120.3892517373402
 21
78.2445696786757
 31
0.0
  0
LINE
  5
3618
330
1F
100
AcDbEntity
  8
SOLBET_Beton
 62
     0
100
AcDbLine
 10
120.1795430461322
 20
76.24456967867581
 30
0.0
 11
118.1795430461323
 21
78.2445696786757
 31
0.0
  0
LINE
  5
3619
330
1F
100
AcDbEntity
  8
SOLBET_Beton
 62
     0
100
AcDbLine
 10
117.9698343549242
 20
76.24456967867581
 30
0.0
 11
115.9698343549243
 21
78.2445696786757
 31
0.0
  0
LINE
  5
361A
330
1F
100
AcDbEntity
  8
SOLBET_Beton
 62
     0
100
AcDbLine
 10
115.7601256637162
 20
76.24456967867581
 30
0.0
 11
113.7601256637163
 21
78.2445696786757
 31
0.0
  0
LINE
  5
361B
330
1F
100
AcDbEntity
  8
SOLBET_Beton
 62
     0
100
AcDbLine
 10
113.5504169725082
 20
76.24456967867581
 30
0.0
 11
111.5504169725083
 21
78.2445696786757
 31
0.0
  0
LINE
  5
361C
330
1F
100
AcDbEntity
  8
SOLBET_Beton
 62
     0
100
AcDbLine
 10
111.3407082813003
 20
76.24456967867581
 30
0.0
 11
109.3407082813004
 21
78.2445696786757
 31
0.0
  0
LINE
  5
361D
330
1F
100
AcDbEntity
  8
SOLBET_Beton
 62
     0
100
AcDbLine
 10
109.1309995900923
 20
76.24456967867581
 30
0.0
 11
107.1309995900924
 21
78.2445696786757
 31
0.0
  0
LINE
  5
361E
330
1F
100
AcDbEntity
  8
SOLBET_Beton
 62
     0
100
AcDbLine
 10
106.9212908988845
 20
76.24456967867581
 30
0.0
 11
104.9212908988845
 21
78.2445696786757
 31
0.0
  0
LINE
  5
361F
330
1F
100
AcDbEntity
  8
SOLBET_Beton
 62
     0
100
AcDbLine
 10
104.7115822076765
 20
76.24456967867581
 30
0.0
 11
102.7115822076765
 21
78.2445696786757
 31
0.0
  0
LINE
  5
3620
330
1F
100
AcDbEntity
  8
SOLBET_Beton
 62
     0
100
AcDbLine
 10
102.5018735164685
 20
76.24456967867581
 30
0.0
 11
100.5018735164685
 21
78.2445696786757
 31
0.0
  0
LINE
  5
3621
330
1F
100
AcDbEntity
  8
SOLBET_Beton
 62
     0
100
AcDbLine
 10
100.2921648252605
 20
76.24456967867581
 30
0.0
 11
98.29216482526062
 21
78.2445696786757
 31
0.0
  0
LINE
  5
3622
330
1F
100
AcDbEntity
  8
SOLBET_Beton
 62
     0
100
AcDbLine
 10
98.08245613405251
 20
76.24456967867581
 30
0.0
 11
96.08245613405262
 21
78.2445696786757
 31
0.0
  0
LINE
  5
3623
330
1F
100
AcDbEntity
  8
SOLBET_Beton
 62
     0
100
AcDbLine
 10
95.87274744284462
 20
76.24456967867581
 30
0.0
 11
93.87274744284463
 21
78.2445696786757
 31
0.0
  0
LINE
  5
3624
330
1F
100
AcDbEntity
  8
SOLBET_Beton
 62
     0
100
AcDbLine
 10
93.66303875163675
 20
76.24456967867581
 30
0.0
 11
91.87075427531857
 21
78.03685415499399
 31
0.0
  0
LINE
  5
3625
330
1F
100
AcDbEntity
  8
SOLBET_Beton
 62
     0
100
AcDbLine
 10
126.8086691197561
 20
76.24456967867581
 30
0.0
 11
124.808669119756
 21
78.2445696786757
 31
0.0
  0
LINE
  5
3626
330
1F
100
AcDbEntity
  8
SOLBET_Beton
 62
     0
100
AcDbLine
 10
129.0183778109638
 20
76.24456967867581
 30
0.0
 11
127.0183778109639
 21
78.2445696786757
 31
0.0
  0
LINE
  5
3627
330
1F
100
AcDbEntity
  8
SOLBET_Beton
 62
     0
100
AcDbLine
 10
131.2280865021718
 20
76.24456967867581
 30
0.0
 11
129.2280865021719
 21
78.2445696786757
 31
0.0
  0
LINE
  5
3628
330
1F
100
AcDbEntity
  8
SOLBET_Beton
 62
     0
100
AcDbLine
 10
133.4377951933798
 20
76.24456967867581
 30
0.0
 11
131.4377951933798
 21
78.2445696786757
 31
0.0
  0
LINE
  5
3629
330
1F
100
AcDbEntity
  8
SOLBET_Beton
 62
     0
100
AcDbLine
 10
135.6475038845878
 20
76.24456967867581
 30
0.0
 11
133.6475038845878
 21
78.2445696786757
 31
0.0
  0
LINE
  5
362A
330
1F
100
AcDbEntity
  8
SOLBET_Beton
 62
     0
100
AcDbLine
 10
137.8572125757957
 20
76.24456967867581
 30
0.0
 11
135.8572125757958
 21
78.2445696786757
 31
0.0
  0
LINE
  5
362B
330
1F
100
AcDbEntity
  8
SOLBET_Beton
 62
     0
100
AcDbLine
 10
140.0669212670037
 20
76.24456967867581
 30
0.0
 11
138.0669212670038
 21
78.2445696786757
 31
0.0
  0
LINE
  5
362C
330
1F
100
AcDbEntity
  8
SOLBET_Beton
 62
     0
100
AcDbLine
 10
142.2766299582117
 20
76.24456967867581
 30
0.0
 11
140.2766299582117
 21
78.2445696786757
 31
0.0
  0
LINE
  5
362D
330
1F
100
AcDbEntity
  8
SOLBET_Beton
 62
     0
100
AcDbLine
 10
144.4863386494197
 20
76.24456967867581
 30
0.0
 11
142.4863386494197
 21
78.2445696786757
 31
0.0
  0
LINE
  5
362E
330
1F
100
AcDbEntity
  8
SOLBET_Beton
 62
     0
100
AcDbLine
 10
146.6960473406275
 20
76.24456967867581
 30
0.0
 11
144.6960473406276
 21
78.2445696786757
 31
0.0
  0
LINE
  5
362F
330
1F
100
AcDbEntity
  8
SOLBET_Beton
 62
     0
100
AcDbLine
 10
148.9057560318356
 20
76.24456967867581
 30
0.0
 11
146.9057560318356
 21
78.2445696786757
 31
0.0
  0
LINE
  5
3630
330
1F
100
AcDbEntity
  8
SOLBET_Beton
 62
     0
100
AcDbLine
 10
151.1154647230435
 20
76.24456967867581
 30
0.0
 11
149.1154647230437
 21
78.2445696786757
 31
0.0
  0
LINE
  5
3631
330
1F
100
AcDbEntity
  8
SOLBET_Beton
 62
     0
100
AcDbLine
 10
153.3251734142513
 20
76.24456967867581
 30
0.0
 11
151.3251734142516
 21
78.2445696786757
 31
0.0
  0
LINE
  5
3632
330
1F
100
AcDbEntity
  8
SOLBET_Beton
 62
     0
100
AcDbLine
 10
155.5348821054594
 20
76.24456967867581
 30
0.0
 11
153.5348821054594
 21
78.2445696786757
 31
0.0
  0
LINE
  5
3633
330
1F
100
AcDbEntity
  8
SOLBET_Beton
 62
     0
100
AcDbLine
 10
156.3696757512239
 20
77.61948472411944
 30
0.0
 11
155.7445907966673
 21
78.2445696786757
 31
0.0
  0
LINE
  5
3634
330
1F
100
AcDbEntity
  8
SOLBET_Beton
 62
     0
100
AcDbLine
 10
154.9678747454261
 20
76.24456967867581
 30
0.0
 11
156.9678747454261
 21
78.2445696786757
 31
0.0
  0
LINE
  5
3635
330
1F
100
AcDbEntity
  8
0
 62
     0
100
AcDbLine
 10
157.1775834366342
 20
76.24456967867581
 30
0.0
 11
157.3696755754817
 21
76.43666181752343
 31
0.0
  0
LINE
  5
3636
330
1F
100
AcDbEntity
  8
SOLBET_Beton
 62
     0
100
AcDbLine
 10
157.3696755754817
 20
76.61948489986165
 30
0.0
 11
155.7445907966676
 21
78.2445696786757
 31
0.0
  0
LINE
  5
3780
330
1F
100
AcDbEntity
  8
SOLBET_Beton
100
AcDbLine
 10
92.60642631284554
 20
81.74456974928537
 30
0.0
 11
104.6064263128455
 21
81.74456974928537
 31
0.0
  0
LWPOLYLINE
  5
3781
330
1F
100
AcDbEntity
  8
SOLBET_Beton
100
AcDbPolyline
 90
        4
 70
     1
 43
0.0
 10
92.60642631284554
 20
78.24456974928534
 10
104.6064263128455
 20
78.24456974928534
 10
104.6064263128455
 20
86.74456974928526
 10
92.60642631284554
 20
86.74456974928526
  0
LINE
  5
3782
330
1F
100
AcDbEntity
  8
SOLBET_Zbrojenie_Konstrukcja
100
AcDbLine
 10
99.90408743291062
 20
78.24456974928576
 30
0.0
 11
103.3707540995774
 21
84.74456974928589
 31
0.0
  0
LINE
  5
3783
330
1F
100
AcDbEntity
  8
SOLBET_Zbrojenie_Konstrukcja
100
AcDbLine
 10
91.90408743291072
 20
78.24456974928576
 30
0.0
 11
95.37075409957742
 21
84.74456974928589
 31
0.0
  0
LINE
  5
3784
330
1F
100
AcDbEntity
  8
SOLBET_Zbrojenie_Konstrukcja
100
AcDbLine
 10
95.37075409957742
 20
84.74456974928589
 30
0.0
 11
98.837420766244
 21
78.24456974928576
 31
0.0
  0
LINE
  5
3785
330
1F
100
AcDbEntity
  8
SOLBET_Zbrojenie_Konstrukcja
100
AcDbLine
 10
103.3707540995774
 20
84.74456974928589
 30
0.0
 11
106.837420766244
 21
78.24456974928576
 31
0.0
  0
LINE
  5
3795
330
1F
100
AcDbEntity
  8
SOLBET_Zbrojenie_Konstrukcja
100
AcDbLine
 10
107.9040873962141
 20
78.24456968048007
 30
0.0
 11
111.3707540628809
 21
84.7445696804802
 31
0.0
  0
LINE
  5
3796
330
1F
100
AcDbEntity
  8
SOLBET_Zbrojenie_Konstrukcja
100
AcDbLine
 10
99.90408739621427
 20
78.24456968048007
 30
0.0
 11
103.3707540628809
 21
84.7445696804802
 31
0.0
  0
LINE
  5
3797
330
1F
100
AcDbEntity
  8
SOLBET_Zbrojenie_Konstrukcja
100
AcDbLine
 10
103.3707540628809
 20
84.7445696804802
 30
0.0
 11
106.8374207295475
 21
78.24456968048007
 31
0.0
  0
LINE
  5
3798
330
1F
100
AcDbEntity
  8
SOLBET_Zbrojenie_Konstrukcja
100
AcDbLine
 10
111.3707540628809
 20
84.7445696804802
 30
0.0
 11
114.8374207295476
 21
78.24456968048007
 31
0.0
  0
LINE
  5
3799
330
1F
100
AcDbEntity
  8
SOLBET_Zbrojenie_Konstrukcja
100
AcDbLine
 10
115.904087396214
 20
78.24456968048007
 30
0.0
 11
119.3707540628808
 21
84.7445696804802
 31
0.0
  0
LINE
  5
379A
330
1F
100
AcDbEntity
  8
SOLBET_Zbrojenie_Konstrukcja
100
AcDbLine
 10
107.9040873962141
 20
78.24456968048007
 30
0.0
 11
111.3707540628808
 21
84.7445696804802
 31
0.0
  0
LINE
  5
379B
330
1F
100
AcDbEntity
  8
SOLBET_Zbrojenie_Konstrukcja
100
AcDbLine
 10
111.3707540628808
 20
84.7445696804802
 30
0.0
 11
114.8374207295474
 21
78.24456968048007
 31
0.0
  0
LINE
  5
379C
330
1F
100
AcDbEntity
  8
SOLBET_Zbrojenie_Konstrukcja
100
AcDbLine
 10
119.3707540628808
 20
84.7445696804802
 30
0.0
 11
122.8374207295475
 21
78.24456968048007
 31
0.0
  0
LINE
  5
379D
330
1F
100
AcDbEntity
  8
SOLBET_Zbrojenie_Konstrukcja
100
AcDbLine
 10
123.9040874030975
 20
78.24456969338689
 30
0.0
 11
127.3707540697643
 21
84.74456969338701
 31
0.0
  0
LINE
  5
379E
330
1F
100
AcDbEntity
  8
SOLBET_Zbrojenie_Konstrukcja
100
AcDbLine
 10
115.9040874030976
 20
78.24456969338689
 30
0.0
 11
119.3707540697643
 21
84.74456969338701
 31
0.0
  0
LINE
  5
379F
330
1F
100
AcDbEntity
  8
SOLBET_Zbrojenie_Konstrukcja
100
AcDbLine
 10
119.3707540697643
 20
84.74456969338701
 30
0.0
 11
122.8374207364309
 21
78.24456969338689
 31
0.0
  0
LINE
  5
37A0
330
1F
100
AcDbEntity
  8
SOLBET_Zbrojenie_Konstrukcja
100
AcDbLine
 10
127.3707540697643
 20
84.74456969338701
 30
0.0
 11
130.837420736431
 21
78.24456969338689
 31
0.0
  0
LINE
  5
37A1
330
1F
100
AcDbEntity
  8
SOLBET_Zbrojenie_Konstrukcja
100
AcDbLine
 10
131.9040873990886
 20
78.24456968587049
 30
0.0
 11
135.3707540657554
 21
84.74456968587061
 31
0.0
  0
LINE
  5
37A2
330
1F
100
AcDbEntity
  8
SOLBET_Zbrojenie_Konstrukcja
100
AcDbLine
 10
123.9040873990888
 20
78.24456968587049
 30
0.0
 11
127.3707540657555
 21
84.74456968587061
 31
0.0
  0
LINE
  5
37A3
330
1F
100
AcDbEntity
  8
SOLBET_Zbrojenie_Konstrukcja
100
AcDbLine
 10
127.3707540657555
 20
84.74456968587061
 30
0.0
 11
130.837420732422
 21
78.24456968587049
 31
0.0
  0
LINE
  5
37A4
330
1F
100
AcDbEntity
  8
SOLBET_Zbrojenie_Konstrukcja
100
AcDbLine
 10
135.3707540657554
 20
84.74456968587061
 30
0.0
 11
138.8374207324221
 21
78.24456968587049
 31
0.0
  0
LINE
  5
37A5
330
1F
100
AcDbEntity
  8
SOLBET_Zbrojenie_Konstrukcja
100
AcDbLine
 10
139.9040874030973
 20
78.24456969338689
 30
0.0
 11
143.3707540697641
 21
84.74456969338701
 31
0.0
  0
LINE
  5
37A6
330
1F
100
AcDbEntity
  8
SOLBET_Zbrojenie_Konstrukcja
100
AcDbLine
 10
131.9040874030974
 20
78.24456969338689
 30
0.0
 11
135.3707540697641
 21
84.74456969338701
 31
0.0
  0
LINE
  5
37A7
330
1F
100
AcDbEntity
  8
SOLBET_Zbrojenie_Konstrukcja
100
AcDbLine
 10
135.3707540697641
 20
84.74456969338701
 30
0.0
 11
138.8374207364307
 21
78.24456969338689
 31
0.0
  0
LINE
  5
37A8
330
1F
100
AcDbEntity
  8
SOLBET_Zbrojenie_Konstrukcja
100
AcDbLine
 10
143.3707540697641
 20
84.74456969338701
 30
0.0
 11
146.8374207364307
 21
78.24456969338689
 31
0.0
  0
LINE
  5
37A9
330
1F
100
AcDbEntity
  8
SOLBET_Zbrojenie_Konstrukcja
100
AcDbLine
 10
147.904087401005
 20
78.2445696894641
 30
0.0
 11
151.3707540676719
 21
84.74456968946423
 31
0.0
  0
LINE
  5
37AA
330
1F
100
AcDbEntity
  8
SOLBET_Zbrojenie_Konstrukcja
100
AcDbLine
 10
139.9040874010051
 20
78.2445696894641
 30
0.0
 11
143.3707540676718
 21
84.74456968946423
 31
0.0
  0
LINE
  5
37AB
330
1F
100
AcDbEntity
  8
SOLBET_Zbrojenie_Konstrukcja
100
AcDbLine
 10
143.3707540676718
 20
84.74456968946423
 30
0.0
 11
146.8374207343384
 21
78.2445696894641
 31
0.0
  0
LINE
  5
37AC
330
1F
100
AcDbEntity
  8
SOLBET_Zbrojenie_Konstrukcja
100
AcDbLine
 10
151.3707540676719
 20
84.74456968946423
 30
0.0
 11
154.8374207343385
 21
78.2445696894641
 31
0.0
  0
LINE
  5
37AD
330
1F
100
AcDbEntity
  8
SOLBET_Zbrojenie_Konstrukcja
100
AcDbLine
 10
155.9040874010048
 20
78.2445696894641
 30
0.0
 11
157.3696755754817
 21
80.99254751660835
 31
0.0
  0
LINE
  5
37AE
330
1F
100
AcDbEntity
  8
SOLBET_Zbrojenie_Konstrukcja
100
AcDbLine
 10
147.904087401005
 20
78.2445696894641
 30
0.0
 11
151.3707540676716
 21
84.74456968946423
 31
0.0
  0
LINE
  5
37AF
330
1F
100
AcDbEntity
  8
SOLBET_Zbrojenie_Konstrukcja
100
AcDbLine
 10
151.3707540676716
 20
84.74456968946423
 30
0.0
 11
154.8374207343382
 21
78.2445696894641
 31
0.0
  0
LWPOLYLINE
  5
37B1
330
1F
100
AcDbEntity
  8
SOLBET_Beton
100
AcDbPolyline
 90
        4
 70
     1
 43
0.0
 10
104.6064263128455
 20
78.24456974928534
 10
116.6064263128455
 20
78.24456974928534
 10
116.6064263128455
 20
86.74456974928526
 10
104.6064263128455
 20
86.74456974928526
  0
LWPOLYLINE
  5
37B2
330
1F
100
AcDbEntity
  8
SOLBET_Beton
100
AcDbPolyline
 90
        4
 70
     1
 43
0.0
 10
116.6064263128455
 20
78.24456974928534
 10
128.6064263128455
 20
78.24456974928534
 10
128.6064263128455
 20
86.74456974928526
 10
116.6064263128455
 20
86.74456974928526
  0
LWPOLYLINE
  5
37B3
330
1F
100
AcDbEntity
  8
SOLBET_Beton
100
AcDbPolyline
 90
        4
 70
     1
 43
0.0
 10
128.6064263128455
 20
78.24456974928534
 10
140.6064263128455
 20
78.24456974928534
 10
140.6064263128455
 20
86.74456974928526
 10
128.6064263128455
 20
86.74456974928526
  0
LWPOLYLINE
  5
37B4
330
1F
100
AcDbEntity
  8
SOLBET_Beton
100
AcDbPolyline
 90
        4
 70
     1
 43
0.0
 10
140.6064263128455
 20
78.24456974928534
 10
152.6064263128455
 20
78.24456974928534
 10
152.6064263128455
 20
86.74456974928526
 10
140.6064263128455
 20
86.74456974928526
  0
LWPOLYLINE
  5
37B5
330
1F
100
AcDbEntity
  8
SOLBET_Beton
100
AcDbPolyline
 90
        4
 70
     0
 43
0.0
 10
157.3696755754817
 20
86.74456974928526
 10
152.6064263128455
 20
86.74456974928526
 10
152.6064263128455
 20
78.24456974928534
 10
157.3696755754817
 20
78.24456974928534
  0
LINE
  5
3819
330
1F
100
AcDbEntity
  8
SOLBET_Bloczki
100
AcDbLine
 10
93.87075427532227
 20
76.24456969338689
 30
0.0
 11
93.87075427532222
 21
67.1868740986903
 31
0.0
  0
LINE
  5
381A
330
1F
100
AcDbEntity
  8
SOLBET_Bloczki
100
AcDbLine
 10
93.87075427532227
 20
76.24456969338689
 30
0.0
 11
81.87075427532226
 21
76.24456969338689
 31
0.0
  0
LINE
  5
381B
330
1F
100
AcDbEntity
  8
SOLBET_Bloczki
100
AcDbLine
 10
81.87075427532226
 20
76.24456969338689
 30
0.0
 11
81.87075427532226
 21
67.18687409869024
 31
0.0
  0
POINT
  5
38A5
330
1F
100
AcDbEntity
  8
SOLBET_Zbrojenie_Konstrukcja
100
AcDbPoint
 10
0.0
 20
0.0
 30
0.0
  0
LEADER
  5
38FC
330
1F
100
AcDbEntity
  8
SOLBET_Wymiary_Opisy
100
AcDbLeader
  3
Solbet$7
 73
     0
 75
     1
 40
3.25
 41
33.25
 76
     3
 10
83.89355843362324
 20
136.484569749286
 30
0.0
 10
57.56942255226983
 20
151.551302564945
 30
0.0
 10
55.06942255226983
 20
151.551302564945
 30
0.0
340
38FD
213
0.1101187331678943
223
0.625
233
0.0
1001
ACAD
1000
DSTYLE
1002
{
1070
   147
1040
0.625
1070
    77
1070
     1
1002
}
  0
MTEXT
  5
38FD
102
{ACAD_REACTORS
330
38FC
102
}
330
1F
100
AcDbEntity
  8
SOLBET_Wymiary_Opisy
100
AcDbMText
 10
54.33430381910193
 20
154.801302564945
 30
0.0
 40
2.5
 41
0.0
 71
     3
 72
     1
  1
Warstwa hydroizolacji
  7
Solbet_2_5
 73
     1
 44
1.0
1001
ACAD
1000
MTEXTBEGIN
1070
    73
1070
     1
1070
    44
1040
1.0
1070
    74
1070
     0
1000
MTEXTEND
  0
LINE
  5
38FE
330
1F
100
AcDbEntity
  8
SOLBET_Wymiary_Opisy
100
AcDbLine
 10
43.65446189888956
 20
131.3662966798289
 30
0.0
 11
43.65446189888956
 21
121.9890142938935
 31
0.0
  0
LINE
  5
38FF
330
1F
100
AcDbEntity
  8
SOLBET_Wymiary_Opisy
100
AcDbLine
 10
51.87075409957742
 20
123.1390142938935
 30
0.0
 11
51.87075409957742
 21
121.9890142938935
 31
0.0
  0
LINE
  5
3902
330
1F
100
AcDbEntity
  8
SOLBET_Wymiary_Opisy
100
AcDbLine
 10
43.65446189888956
 20
123.1390142938935
 30
0.0
 11
72.87075409957747
 21
123.1390142938935
 31
0.0
  0
LINE
  5
3903
330
1F
100
AcDbEntity
  8
SOLBET_Zbrojenie_Konstrukcja
100
AcDbLine
 10
59.6354702875892
 20
123.1187773411787
 30
0.0
 11
59.6354702875892
 21
121.9687773411787
 31
0.0
  0
LINE
  5
3904
330
1F
100
AcDbEntity
  8
SOLBET_Zbrojenie_Konstrukcja
100
AcDbLine
 10
61.65446189888957
 20
121.9890142938935
 30
0.0
 11
68.65446189888956
 21
121.9890142938935
 31
0.0
  0
LINE
  5
3905
330
1F
100
AcDbEntity
  8
SOLBET_Zbrojenie_Konstrukcja
100
AcDbLine
 10
66.63547028758921
 20
121.9687773411787
 30
0.0
 11
66.63547028758921
 21
123.1187773411787
 31
0.0
  0
LINE
  5
3907
330
1F
100
AcDbEntity
  8
SOLBET_Zbrojenie_Konstrukcja
100
AcDbLine
 10
59.63547028758921
 20
123.1187773411787
 30
0.0
 11
66.63547028758921
 21
121.9687773411787
 31
0.0
  0
LINE
  5
3908
330
1F
100
AcDbEntity
  8
SOLBET_Zbrojenie_Konstrukcja
100
AcDbLine
 10
66.63547028758921
 20
123.1187773411787
 30
0.0
 11
59.63547028758921
 21
121.9687773411787
 31
0.0
  0
LWPOLYLINE
  5
3909
330
1F
100
AcDbEntity
  8
SOLBET_Emulsje_Folie
100
AcDbPolyline
 90
        4
 70
     1
 43
0.0
 10
83.34788351011139
 20
136.484569749286
 10
92.39362468903619
 20
136.484569749286
 10
92.39362468903619
 20
136.2445697492862
 10
83.34788351011139
 20
136.2445697492862
  0
LINE
  5
390A
330
1F
100
AcDbEntity
  8
SOLBET_Emulsje_Folie
  6
DASHED2
 48
0.3
370
    30
100
AcDbLine
 10
83.34788351011139
 20
136.364569749287
 30
0.0
 11
92.39362468903619
 21
136.364569749287
 31
0.0
  0
LINE
  5
390F
330
1F
100
AcDbEntity
  8
SOLBET_Wymiary_Opisy
100
AcDbLine
 10
42.50446189888953
 20
121.9890142938934
 30
0.0
 11
72.87075409957747
 21
121.9890142938947
 31
0.0
  0
INSERT
  5
3911
330
1F
100
AcDbEntity
  8
SOLBET_Wymiary_Opisy
100
AcDbBlockReference
  2
_DotSmall
 10
57.81572242534571
 20
122.6120496624389
 30
0.0
 41
2.499999999999993
 42
2.5
 43
2.5
 50
42.1178892405643
1001
ACAD
1000
DSTYLE
1002
{
1070
   147
1040
0.625
1070
    77
1070
     1
1002
}
  0
LINE
  5
3912
330
1F
100
AcDbEntity
  8
SOLBET_Wymiary_Opisy
100
AcDbLine
 10
57.81572242534571
 20
122.6120496624389
 30
0.0
 11
47.95664680337625
 21
113.0590419815209
 31
0.0
1001
ACAD
1000
DSTYLE
1002
{
1070
   147
1040
0.625
1070
    77
1070
     1
1002
}
  0
MTEXT
  5
3913
330
1F
100
AcDbEntity
  8
SOLBET_Wymiary_Opisy
100
AcDbMText
 10
46.37131813262988
 20
116.1733525106581
 30
0.0
 40
2.5
 41
0.0
 71
     3
 72
     1
  1
Podbitka
  7
Solbet_2_5
 73
     1
 44
1.0
1001
ACAD
1000
MTEXTBEGIN
1070
    73
1070
     1
1070
    44
1040
1.0
1070
    74
1070
     0
1000
MTEXTEND
  0
LWPOLYLINE
  5
3914
330
1F
100
AcDbEntity
  8
SOLBET_Wymiary_Opisy
100
AcDbPolyline
 90
        3
 70
     0
 43
0.0
 10
65.54799527509908
 20
122.7574182013006
 10
48.8713008165052
 20
108.1247182616691
 10
15.61389620542366
 20
108.1033080340197
1001
ACAD
1000
DSTYLE
1002
{
1070
   147
1040
0.625
1070
    77
1070
     1
1002
}
  0
MTEXT
  5
3915
330
1F
100
AcDbEntity
  8
SOLBET_Wymiary_Opisy
100
AcDbMText
 10
46.64560630290305
 20
111.2885009082906
 30
0.0
 40
2.5
 41
0.0
 71
     3
 72
     1
  1
Kratka wentylacyjna
  7
Solbet_2_5
 73
     1
 44
1.0
1001
ACAD
1000
MTEXTBEGIN
1070
    73
1070
     1
1070
    44
1040
1.0
1070
    74
1070
     0
1000
MTEXTEND
  0
INSERT
  5
3916
330
1F
100
AcDbEntity
  8
SOLBET_Wymiary_Opisy
100
AcDbBlockReference
  2
_DotSmall
 10
65.54799527509908
 20
122.7574182013006
 30
0.0
 41
2.499999999999993
 42
2.5
 43
2.5
 50
42.1178892405643
1001
ACAD
1000
DSTYLE
1002
{
1070
   147
1040
0.625
1070
    77
1070
     1
1002
}
  0
LINE
  5
3917
330
1F
100
AcDbEntity
  8
SOLBET_Wymiary_Opisy
100
AcDbLine
 10
47.95664680337625
 20
113.0590419815209
 30
0.0
 11
33.0822668878435
 21
113.0590419815209
 31
0.0
  0
LINE
  5
3924
330
1F
100
AcDbEntity
  8
SOLBET_Zbrojenie_Konstrukcja
100
AcDbLine
 10
59.63547028758921
 20
123.1187773411787
 30
0.0
 11
66.63547028758921
 21
123.1187773411787
 31
0.0
  0
LINE
  5
3925
330
1F
100
AcDbEntity
  8
SOLBET_Zbrojenie_Konstrukcja
100
AcDbLine
 10
66.63547028758921
 20
121.9687773411787
 30
0.0
 11
59.6354702875892
 21
121.9687773411787
 31
0.0
  0
INSERT
  5
3A77
330
1F
100
AcDbEntity
  8
SOLBET_Bloczki
100
AcDbBlockReference
  2
SOLBET_Bloczek_Optimal_240x240x590_P+W_KG600_PRA
 10
81.87075409957378
 20
112.2445697904732
 30
0.0
  0
INSERT
  5
3A78
330
1F
100
AcDbEntity
  8
SOLBET_Bloczki
100
AcDbBlockReference
  2
SOLBET_Bloczek_Optimal_240x240x590_P+W_KG600_PRA
 10
81.8707539238253
 20
100.2445697904732
 30
0.0
  0
INSERT
  5
3A79
330
1F
100
AcDbEntity
  8
SOLBET_Bloczki
100
AcDbBlockReference
  2
SOLBET_Bloczek_Optimal_240x240x590_P+W_KG600_PRA
 10
81.8707539238253
 20
88.24456979047317
 30
0.0
  0
MTEXT
  5
3AE6
102
{ACAD_XDICTIONARY
360
3AE7
102
}
330
1F
100
AcDbEntity
  8
SOLBET_Wymiary_Opisy
100
AcDbMText
 10
176.9024892334916
 20
7.273150535415538
 30
0.0
 40
5.0
 41
0.0
 71
     1
 72
     5
  1
Skala 1:20
  7
Solbet_5
 73
     1
 44
1.0
1001
ACAD
1000
MTEXTBEGIN
1070
    73
1070
     1
1070
    44
1040
1.0
1070
    74
1070
     0
1000
MTEXTEND
1000
ACAD_MTEXT_DEFINED_HEIGHT_BEGIN
1070
    46
1040
5.395147572682731
1000
ACAD_MTEXT_DEFINED_HEIGHT_END
  0
LWPOLYLINE
  5
3AE9
330
1F
100
AcDbEntity
  8
SOLBET_Ramka_05
100
AcDbPolyline
 90
        4
 70
     1
 43
0.0
 10
173.8838231125778
 20
9.804221198935465
 10
210.0
 20
9.804221198935465
 10
210.0
 20
0.0
 10
173.8838231125779
 20
0.0
  0
ENDSEC
  0
SECTION
  2
OBJECTS
  0
DICTIONARY
  5
C
330
0
100
AcDbDictionary
281
     1
  3
ACAD_COLOR
350
6B
  3
ACAD_GROUP
350
D
  3
ACAD_LAYOUT
350
1A
  3
ACAD_MATERIAL
350
6A
  3
ACAD_MLEADERSTYLE
350
12D
  3
ACAD_MLINESTYLE
350
17
  3
ACAD_PLOTSETTINGS
350
19
  3
ACAD_PLOTSTYLENAME
350
E
  3
ACAD_SCALELIST
350
10C
  3
ACAD_TABLESTYLE
350
7E
  3
ACAD_VISUALSTYLE
350
EF
  3
ACDB_RECOMPOSE_DATA
350
15D
  3
AcDbVariableDictionary
350
5E
  3
DWGPROPS
350
3B17
  0
DICTIONARY
  5
443
330
8
100
AcDbDictionary
280
     1
281
     1
  0
DICTIONARY
  5
3E5
330
2
100
AcDbDictionary
280
     1
281
     1
  3
ACAD_LAYERFILTERS
360
1883
  3
ACLYDICTIONARY
360
1882
  0
DICTIONARY
  5
13C
330
10
100
AcDbDictionary
280
     1
281
     1
  3
ADSK_XREC_LAYER_RECONCILED
360
3F4
  0
DICTIONARY
  5
403
330
3DD
100
AcDbDictionary
280
     1
281
     1
  3
ADSK_XREC_LAYER_RECONCILED
360
404
  0
DICTIONARY
  5
405
330
3DF
100
AcDbDictionary
280
     1
281
     1
  3
ADSK_XREC_LAYER_RECONCILED
360
406
  0
DICTIONARY
  5
409
330
3E1
100
AcDbDictionary
280
     1
281
     1
  3
ADSK_XREC_LAYER_RECONCILED
360
40A
  0
DICTIONARY
  5
40B
330
3E2
100
AcDbDictionary
280
     1
281
     1
  3
ADSK_XREC_LAYER_RECONCILED
360
40C
  0
DICTIONARY
  5
40F
330
3E4
100
AcDbDictionary
280
     1
281
     1
  3
ADSK_XREC_LAYER_RECONCILED
360
410
  0
DICTIONARY
  5
411
330
3E8
100
AcDbDictionary
280
     1
281
     1
  3
ADSK_XREC_LAYER_RECONCILED
360
412
  0
DICTIONARY
  5
3A34
330
3A33
100
AcDbDictionary
280
     1
281
     1
  3
ASDK_XREC_ANNO_SCALE_INFO
360
3A35
  0
DICTIONARY
  5
4A3
330
1F
100
AcDbDictionary
280
     1
281
     1
  3
ACAD_SORTENTS
360
4A4
  0
DICTIONARY
  5
31D7
330
31CC
100
AcDbDictionary
280
     1
281
     1
  3
ACAD_SORTENTS
360
31D8
  0
DICTIONARY
  5
37D4
330
37C8
100
AcDbDictionary
280
     1
281
     1
  3
ACAD_SORTENTS
360
37E3
  0
DICTIONARY
  5
380B
330
37FF
100
AcDbDictionary
280
     1
281
     1
  3
ACAD_SORTENTS
360
380C
  0
DICTIONARY
  5
3A73
330
3A67
100
AcDbDictionary
280
     1
281
     1
  3
ACAD_SORTENTS
360
3A74
  0
DICTIONARY
  5
3108
330
3107
100
AcDbDictionary
280
     1
281
     1
  3
ACAD_MTEXT_RT
360
3B24
  3
AcDbContextDataManager
360
3109
  0
DICTIONARY
  5
3B25
330
31E8
100
AcDbDictionary
280
     1
281
     1
  3
ACAD_MTEXT_RT
360
3B26
  0
DICTIONARY
  5
3B27
330
31EE
100
AcDbDictionary
280
     1
281
     1
  3
ACAD_MTEXT_RT
360
3B28
  0
DICTIONARY
  5
3B29
330
31F1
100
AcDbDictionary
280
     1
281
     1
  3
ACAD_MTEXT_RT
360
3B2A
  0
DICTIONARY
  5
3B2B
330
31F8
100
AcDbDictionary
280
     1
281
     1
  3
ACAD_MTEXT_RT
360
3B2C
  0
DICTIONARY
  5
3AE7
330
3AE6
100
AcDbDictionary
280
     1
281
     1
  3
ACAD_MTEXT_2008_RT
360
3AE8
  0
DICTIONARY
  5
6B
102
{ACAD_REACTORS
330
C
102
}
330
C
100
AcDbDictionary
281
     1
  0
DICTIONARY
  5
D
102
{ACAD_REACTORS
330
C
102
}
330
C
100
AcDbDictionary
281
     1
  0
DICTIONARY
  5
1A
102
{ACAD_REACTORS
330
C
102
}
330
C
100
AcDbDictionary
281
     1
  3
Arkusz1
350
D3
  3
Arkusz2
350
D7
  3
Model
350
22
  0
DICTIONARY
  5
6A
102
{ACAD_REACTORS
330
C
102
}
330
C
100
AcDbDictionary
281
     1
  3
ByBlock
350
ED
  3
ByLayer
350
EC
  3
Global
350
EE
  0
DICTIONARY
  5
12D
102
{ACAD_REACTORS
330
C
102
}
330
C
100
AcDbDictionary
281
     1
  3
Standard
350
12E
  0
DICTIONARY
  5
17
102
{ACAD_REACTORS
330
C
102
}
330
C
100
AcDbDictionary
281
     1
  3
SOLBET_IZOLACJA
350
7E9
  3
Standard
350
18
  0
DICTIONARY
  5
19
102
{ACAD_REACTORS
330
C
102
}
330
C
100
AcDbDictionary
281
     1
  0
ACDBDICTIONARYWDFLT
  5
E
102
{ACAD_REACTORS
330
C
102
}
330
C
100
AcDbDictionary
281
     1
  3
Normal
350
F
100
AcDbDictionaryWithDefault
340
F
  0
DICTIONARY
  5
10C
102
{ACAD_REACTORS
330
C
102
}
330
C
100
AcDbDictionary
281
     1
  3
A0
350
10D
  3
A1
350
188
  3
A2
350
189
  3
A3
350
18A
  3
A4
350
18B
  3
A5
350
18C
  3
A6
350
18D
  3
A7
350
18E
  3
A8
350
18F
  3
A9
350
190
  3
B0
350
191
  3
B1
350
192
  3
B2
350
193
  3
B3
350
194
  3
B4
350
195
  3
B5
350
196
  3
B6
350
197
  3
B7
350
198
  3
B8
350
199
  3
B9
350
19A
  3
C0
350
19B
  3
C1
350
19C
  3
C2
350
19D
  3
C3
350
19E
  3
C4
350
19F
  3
C5
350
1A0
  3
C6
350
1A1
  3
C7
350
1A2
  3
C8
350
1A3
  3
C9
350
1A4
  3
D0
350
1A5
  3
D1
350
1A6
  3
D2
350
1A7
  0
DICTIONARY
  5
7E
102
{ACAD_REACTORS
330
C
102
}
330
C
100
AcDbDictionary
281
     1
  3
Standard
350
7F
  0
DICTIONARY
  5
EF
102
{ACAD_REACTORS
330
C
102
}
330
C
100
AcDbDictionary
281
     1
  3
2dWireframe
350
F5
  3
3D Hidden
350
F7
  3
3dWireframe
350
F6
  3
Basic
350
F4
  3
Brighten
350
FB
  3
ColorChange
350
FF
  3
Conceptual
350
F8
  3
Dim
350
FA
  3
Facepattern
350
FE
  3
Flat
350
F0
  3
FlatWithEdges
350
F1
  3
Gouraud
350
F2
  3
GouraudWithEdges
350
F3
  3
Linepattern
350
FD
  3
Realistic
350
F9
  3
Thicken
350
FC
  0
XRECORD
  5
15D
102
{ACAD_REACTORS
330
C
102
}
330
C
100
AcDbXrecord
280
     1
 90
        1
330
7F
330
3107
  0
DICTIONARY
  5
5E
102
{ACAD_REACTORS
330
C
102
}
330
C
100
AcDbDictionary
281
     1
  3
CANNOSCALE
350
146
  3
CMLEADERSTYLE
350
145
  3
CTABLESTYLE
350
84
  3
DIMASSOC
350
5F
  3
HIDETEXT
350
63
  3
INDEXCTL
350
466
  3
LIGHTINGUNITS
350
464
  3
MSLTSCALE
350
463
  3
PSOLHEIGHT
350
3B16
  3
PSOLWIDTH
350
3B15
  3
SORTENTS
350
465
  0
XRECORD
  5
3B17
102
{ACAD_REACTORS
330
C
102
}
330
C
100
AcDbXrecord
280
     1
  1
DWGPROPS COOKIE
  2

  3

  4

  6

  7

  8
Olus
  9

300
=
301
=
302
=
303
=
304
=
305
=
306
=
307
=
308
=
309
=
 40
0.7141560416666667
 41
2454690.075573148
 42
2454848.887941354
  1

 90
        0
  0
DICTIONARY
  5
1883
102
{ACAD_REACTORS
330
3E5
102
}
330
3E5
100
AcDbDictionary
281
     1
  0
DICTIONARY
  5
1882
102
{ACAD_REACTORS
330
3E5
102
}
330
3E5
100
AcDbDictionary
281
     1
1001
ACAD
1000
<All
  0
XRECORD
  5
3F4
102
{ACAD_REACTORS
330
13C
102
}
330
13C
100
AcDbXrecord
280
     1
290
     1
  0
XRECORD
  5
404
102
{ACAD_REACTORS
330
403
102
}
330
403
100
AcDbXrecord
280
     1
290
     1
  0
XRECORD
  5
406
102
{ACAD_REACTORS
330
405
102
}
330
405
100
AcDbXrecord
280
     1
290
     1
  0
XRECORD
  5
40A
102
{ACAD_REACTORS
330
409
102
}
330
409
100
AcDbXrecord
280
     1
290
     1
  0
XRECORD
  5
40C
102
{ACAD_REACTORS
330
40B
102
}
330
40B
100
AcDbXrecord
280
     1
290
     1
  0
XRECORD
  5
410
102
{ACAD_REACTORS
330
40F
102
}
330
40F
100
AcDbXrecord
280
     1
290
     1
  0
XRECORD
  5
412
102
{ACAD_REACTORS
330
411
102
}
330
411
100
AcDbXrecord
280
     1
290
     1
  0
XRECORD
  5
3A35
102
{ACAD_REACTORS
330
3A34
102
}
330
3A34
100
AcDbXrecord
280
     1
 70
     1
340
10D
340
3DF
 70
    -1
  0
SORTENTSTABLE
  5
4A4
102
{ACAD_REACTORS
330
4A3
102
}
330
4A3
100
AcDbSortentsTable
330
1F
331
362A
  5
361C
331
31EC
  5
31EE
331
30F6
  5
318B
331
3064
  5
3064
331
30A3
  5
30A3
331
35FB
  5
35EC
331
3632
  5
3624
331
306C
  5
306C
331
30AB
  5
30AB
331
3782
  5
3782
331
3603
  5
35F4
331
3106
  5
3199
331
3074
  5
3074
331
30B3
  5
30B3
331
307C
  5
307C
331
379A
  5
379A
331
360B
  5
35FD
331
3166
  5
319D
331
3084
  5
3084
331
37A2
  5
37A2
331
3613
  5
3605
331
316E
  5
319F
331
308C
  5
308C
331
37AA
  5
37AA
331
35E4
  5
35E4
331
361B
  5
360D
331
3176
  5
31A6
331
3094
  5
3094
331
37B2
  5
37B2
331
3623
  5
3615
331
35EC
  5
3629
331
30DF
  5
316D
331
309C
  5
309C
331
3819
  5
3819
331
362B
  5
361D
331
35F4
  5
3631
331
31ED
  5
31EF
331
31AE
  5
31AE
331
30F7
  5
318C
331
3065
  5
3065
331
30A4
  5
30A4
331
35FC
  5
35ED
331
3633
  5
3625
331
31B6
  5
31B6
331
306D
  5
306D
331
30AC
  5
30AC
331
3783
  5
3783
331
3604
  5
35F5
331
3107
  5
319A
331
3075
  5
3075
331
30B4
  5
30B4
331
307D
  5
307D
331
379B
  5
379B
331
360C
  5
35FE
331
3085
  5
3085
331
37A3
  5
37A3
331
3614
  5
3606
331
316F
  5
31A0
331
308D
  5
308D
331
37AB
  5
37AB
331
361C
  5
360E
331
3095
  5
3095
331
37B3
  5
37B3
331
3624
  5
3616
331
31E6
  5
31E8
331
31A7
  5
31A7
331
309D
  5
309D
331
381A
  5
381A
331
362C
  5
361E
331
31EE
  5
31F0
331
31AF
  5
31AF
331
3066
  5
3066
331
30A5
  5
30A5
331
3634
  5
3634
331
35FD
  5
35EE
331
31B7
  5
31B7
331
306E
  5
306E
331
3784
  5
3784
331
3605
  5
35F6
331
3076
  5
3076
331
30B5
  5
30B5
331
307E
  5
307E
331
379C
  5
379C
331
360D
  5
35FF
331
3086
  5
3086
331
37A4
  5
37A4
331
3615
  5
3607
331
3170
  5
31A1
331
308E
  5
308E
331
37AC
  5
37AC
331
361D
  5
360F
331
30D9
  5
30EE
331
3096
  5
3096
331
37B4
  5
37B4
331
3625
  5
3617
331
35EE
  5
362B
331
31E7
  5
31EC
331
309E
  5
309E
331
30F1
  5
3186
331
381B
  5
381B
331
362D
  5
361F
331
35F6
  5
3633
331
31B0
  5
31B0
331
30F9
  5
318E
331
3067
  5
3067
331
30A6
  5
30A6
331
3635
  5
3635
331
35FE
  5
35EF
331
31B8
  5
31B8
331
306F
  5
306F
331
3785
  5
3785
331
3606
  5
35F8
331
3077
  5
3077
331
3795
  5
3795
331
307F
  5
307F
331
379D
  5
379D
331
360E
  5
3600
331
3087
  5
3087
331
37A5
  5
37A5
331
3616
  5
3608
331
3171
  5
31A2
331
308F
  5
308F
331
37AD
  5
37AD
331
35E7
  5
35E7
331
361E
  5
3610
331
3097
  5
3097
331
37B5
  5
37B5
331
3626
  5
3618
331
309F
  5
309F
331
31E8
  5
31ED
331
30F2
  5
3187
331
362E
  5
3620
331
31F0
  5
31F5
331
31B1
  5
31B1
331
3068
  5
3068
331
30A7
  5
30A7
331
35FF
  5
35F0
331
3636
  5
3637
331
31F8
  5
3204
331
3102
  5
3195
331
31B9
  5
31B9
331
3070
  5
3070
331
30AF
  5
30AF
331
3607
  5
35F9
331
3078
  5
3078
331
3796
  5
3796
331
30BB
  5
30BB
331
3080
  5
3080
331
379E
  5
379E
331
360F
  5
3601
331
30C3
  5
30D7
331
3088
  5
3088
331
37A6
  5
37A6
331
3617
  5
3609
331
3090
  5
3090
331
37AE
  5
37AE
331
361F
  5
3611
331
30DB
  5
3107
331
3059
  5
3059
331
3098
  5
3098
331
3627
  5
3619
331
35F0
  5
362D
331
30F3
  5
3188
331
3061
  5
3061
331
30A0
  5
30A0
331
35F8
  5
35E9
331
362F
  5
3621
331
31F1
  5
31F6
331
31B2
  5
31B2
331
30FB
  5
318F
331
3069
  5
3069
331
30A8
  5
30A8
331
3600
  5
35F1
331
3103
  5
3196
331
31BA
  5
31BA
331
3071
  5
3071
331
30B0
  5
30B0
331
3201
  5
3202
331
3079
  5
3079
331
3797
  5
3797
331
3608
  5
35FA
331
3491
  5
3491
331
3081
  5
3081
331
379F
  5
379F
331
3610
  5
3602
331
30C4
  5
30D8
331
3089
  5
3089
331
37A7
  5
37A7
331
3618
  5
360A
331
3173
  5
31A3
331
3091
  5
3091
331
37AF
  5
37AF
331
3620
  5
3612
331
35E9
  5
3626
331
30DC
  5
310C
331
3099
  5
3099
331
3628
  5
361A
331
30F4
  5
3189
331
30A1
  5
30A1
331
35F9
  5
35EA
331
3630
  5
3622
331
31B3
  5
31B3
331
30FC
  5
3190
331
306A
  5
306A
331
3780
  5
3780
331
3601
  5
35F2
331
3104
  5
3197
331
31BB
  5
31BB
331
3072
  5
3072
331
30B1
  5
30B1
331
3202
  5
3203
331
310C
  5
319B
331
307A
  5
307A
331
3798
  5
3798
331
3609
  5
35FB
331
3492
  5
3492
331
3082
  5
3082
331
37A0
  5
37A0
331
30C5
  5
30D9
331
3611
  5
3603
331
37A8
  5
37A8
331
3619
  5
360B
331
30CD
  5
30E2
331
3174
  5
31A4
331
3092
  5
3092
331
3621
  5
3613
331
35EA
  5
3627
331
30DD
  5
3165
331
309A
  5
309A
331
3629
  5
361B
331
35F2
  5
362F
331
30F5
  5
318A
331
30A2
  5
30A2
331
35FA
  5
35EB
331
3631
  5
3623
331
30AA
  5
30AA
331
31B4
  5
31B4
331
306B
  5
306B
331
3781
  5
3781
331
3602
  5
35F3
331
3105
  5
3198
331
3073
  5
3073
331
30B2
  5
30B2
331
307B
  5
307B
331
3799
  5
3799
331
3493
  5
3493
331
360A
  5
35FC
331
3165
  5
319C
331
3083
  5
3083
331
37A1
  5
37A1
331
3612
  5
3604
331
316D
  5
319E
331
308B
  5
308B
331
37A9
  5
37A9
331
361A
  5
360C
331
3175
  5
31A5
331
3093
  5
3093
331
37B1
  5
37B1
331
3622
  5
3614
331
30DE
  5
3166
331
309B
  5
309B
  0
SORTENTSTABLE
  5
31D8
102
{ACAD_REACTORS
330
31D7
102
}
330
31D7
100
AcDbSortentsTable
330
31CC
  0
SORTENTSTABLE
  5
37E3
102
{ACAD_REACTORS
330
37D4
102
}
330
37D4
100
AcDbSortentsTable
330
37C8
  0
SORTENTSTABLE
  5
380C
102
{ACAD_REACTORS
330
380B
102
}
330
380B
100
AcDbSortentsTable
330
37FF
  0
SORTENTSTABLE
  5
3A74
102
{ACAD_REACTORS
330
3A73
102
}
330
3A73
100
AcDbSortentsTable
330
3A67
  0
XRECORD
  5
3B24
102
{ACAD_REACTORS
330
3108
102
}
330
3108
100
AcDbXrecord
280
     1
 40
223419.0
  1
{\LDETAL 92\P}Wieniec pod murłatę w ścianie warstwowej
  0
DICTIONARY
  5
3109
102
{ACAD_REACTORS
330
3108
102
}
330
3108
100
AcDbDictionary
281
     1
  3
ACDB_ANNOTATIONSCALES
350
310A
  0
XRECORD
  5
3B26
102
{ACAD_REACTORS
330
3B25
102
}
330
3B25
100
AcDbXrecord
280
     1
 40
204950.0
  1
Murłata przymocowana \Pśrubami kotwionymi w wieńcu
  0
XRECORD
  5
3B28
102
{ACAD_REACTORS
330
3B27
102
}
330
3B27
100
AcDbXrecord
280
     1
 40
150430.0
  1
Wieniec pod murłatę \Pw kształtkach U SOLBET
  0
XRECORD
  5
3B2A
102
{ACAD_REACTORS
330
3B29
102
}
330
3B29
100
AcDbXrecord
280
     1
 40
94764.0
  1
Zbrojenie górne strefy przypodporowej
  0
XRECORD
  5
3B2C
102
{ACAD_REACTORS
330
3B2B
102
}
330
3B2B
100
AcDbXrecord
280
     1
 40
25446.0
  1
Wieniec żelbetowy
  0
XRECORD
  5
3AE8
102
{ACAD_REACTORS
330
3AE7
102
}
330
3AE7
100
AcDbXrecord
280
     1
 40
24748.0
  1
\pxqc;C\P(5 : 1)
  0
LAYOUT
  5
D3
102
{ACAD_XDICTIONARY
360
3B1B
102
}
102
{ACAD_REACTORS
330
1A
102
}
330
1A
100
AcDbPlotSettings
  1

  2
C:\Documents and Settings\basas\Application Data\Autodesk\AutoCAD 2005\R16.1\enu\plotters\Default Windows System Printer.pc3
  4

  6

 40
0.0
 41
0.0
 42
0.0
 43
0.0
 44
0.0
 45
0.0
 46
0.0
 47
0.0
 48
0.0
 49
0.0
140
0.0
141
0.0
142
1.0
143
1.0
 70
   688
 72
     0
 73
     0
 74
     5
  7

 75
    16
147
1.0
148
0.0
149
0.0
100
AcDbLayout
  1
Arkusz1
 70
     1
 71
     1
 10
0.0
 20
0.0
 11
12.0
 21
9.0
 12
0.0
 22
0.0
 32
0.0
 14
0.0
 24
0.0
 34
0.0
 15
0.0
 25
0.0
 35
0.0
146
0.0
 13
0.0
 23
0.0
 33
0.0
 16
1.0
 26
0.0
 36
0.0
 17
0.0
 27
1.0
 37
0.0
 76
     0
330
D2
  0
LAYOUT
  5
D7
102
{ACAD_XDICTIONARY
360
3B1D
102
}
102
{ACAD_REACTORS
330
1A
102
}
330
1A
100
AcDbPlotSettings
  1

  2
C:\Documents and Settings\basas\Application Data\Autodesk\AutoCAD 2005\R16.1\enu\plotters\Default Windows System Printer.pc3
  4

  6

 40
0.0
 41
0.0
 42
0.0
 43
0.0
 44
0.0
 45
0.0
 46
0.0
 47
0.0
 48
0.0
 49
0.0
140
0.0
141
0.0
142
1.0
143
1.0
 70
   688
 72
     0
 73
     0
 74
     5
  7

 75
    16
147
1.0
148
0.0
149
0.0
100
AcDbLayout
  1
Arkusz2
 70
     1
 71
     2
 10
0.0
 20
0.0
 11
12.0
 21
9.0
 12
0.0
 22
0.0
 32
0.0
 14
0.0
 24
0.0
 34
0.0
 15
0.0
 25
0.0
 35
0.0
146
0.0
 13
0.0
 23
0.0
 33
0.0
 16
1.0
 26
0.0
 36
0.0
 17
0.0
 27
1.0
 37
0.0
 76
     0
330
D6
  0
LAYOUT
  5
22
102
{ACAD_XDICTIONARY
360
3B18
102
}
102
{ACAD_REACTORS
330
1A
102
}
330
1A
100
AcDbPlotSettings
  1

  2
none_device
  4
Letter_(8.50_x_11.00_Inches)
  6

 40
6.349999904632568
 41
6.349999904632568
 42
6.350006103515625
 43
6.350006103515625
 44
215.8999938964844
 45
279.3999938964844
 46
11.54999923706054
 47
-13.65000009536743
 48
0.0
 49
0.0
140
210.0
141
297.0
142
1.0
143
1.0
 70
 11936
 72
     1
 73
     0
 74
     4
  7

 75
     0
147
0.9999999999999998
148
0.0
149
0.0
100
AcDbLayout
  1
Model
 70
     1
 71
     0
 10
0.0
 20
0.0
 11
12.0
 21
9.0
 12
0.0
 22
0.0
 32
0.0
 14
0.0
 24
0.0
 34
0.0
 15
0.0
 25
0.0
 35
0.0
146
0.0
 13
0.0
 23
0.0
 33
0.0
 16
1.0
 26
0.0
 36
0.0
 17
0.0
 27
1.0
 37
0.0
 76
     0
330
1F
331
EA
1001
ACAD_PSEXT
1000
Brak
1000
Brak
1000
Nie można zastosować.
1000
Arkusz nie zostanie wydrukowany dopóki nie wybrano konfiguracji plotera.
1070
     0
  0
MATERIAL
  5
ED
102
{ACAD_XDICTIONARY
360
3B21
102
}
102
{ACAD_REACTORS
330
6A
102
}
330
6A
100
AcDbMaterial
  1
ByBlock
 73
     2
 78
     2
172
     2
176
     2
270
     2
274
     2
  0
MATERIAL
  5
EC
102
{ACAD_XDICTIONARY
360
3B1F
102
}
102
{ACAD_REACTORS
330
6A
102
}
330
6A
100
AcDbMaterial
  1
ByLayer
 73
     2
 78
     2
172
     2
176
     2
270
     2
274
     2
  0
MATERIAL
  5
EE
102
{ACAD_XDICTIONARY
360
173
102
}
102
{ACAD_REACTORS
330
6A
102
}
330
6A
100
AcDbMaterial
  1
Global
 73
     2
 43
0.0007999999797903
 43
0.0
 43
0.0
 43
0.0
 43
0.0
 43
0.0007999999797903
 43
0.0
 43
0.0
 43
0.0
 43
0.0
 43
1.0
 43
0.0
 43
0.0
 43
0.0
 43
0.0
 43
1.0
 78
     2
172
     2
 49
0.0007999999797903
 49
0.0
 49
0.0
 49
0.0
 49
0.0
 49
0.0007999999797903
 49
0.0
 49
0.0
 49
0.0
 49
0.0
 49
1.0
 49
0.0
 49
0.0
 49
0.0
 49
0.0
 49
1.0
176
     2
142
0.0007999999797903
142
0.0
142
0.0
142
0.0
142
0.0
142
0.0007999999797903
142
0.0
142
0.0
142
0.0
142
0.0
142
1.0
142
0.0
142
0.0
142
0.0
142
0.0
142
1.0
270
     2
144
0.0007999999797903
144
0.0
144
0.0
144
0.0
144
0.0
144
0.0007999999797903
144
0.0
144
0.0
144
0.0
144
0.0
144
1.0
144
0.0
144
0.0
144
0.0
144
0.0
144
1.0
274
     2
1001
ACAD
1070
    -1
1070
     3
1070
     0
1000

1071
        0
1070
     0
  0
ACAD_PROXY_OBJECT
  5
12E
102
{ACAD_REACTORS
330
12D
102
}
330
12D
100
AcDbProxyObject
 90
      499
 91
      508
 95
       23
 70
     0
 93
      618
310
40901902A4063FBFFFFFE0000000000000020400000000000020404254DD185B99185C99000000000000000104090140501A0000000000000410000000000000004102576400000000000003903F
340
14
340
0
340
11
340
0
 94
        0
1001
ACAD_MLEADERVER
1070
     2
1001
ACAD
1000
AcRTDxfName
1000
MLEADERSTYLE
1000
AcRTDxfName
1000
MLEADERSTYLE
1000
AcRTDxfName
1000
MLEADERSTYLE
  0
MLINESTYLE
  5
7E9
102
{ACAD_REACTORS
330
17
102
}
330
17
100
AcDbMlineStyle
  2
SOLBET_IZOLACJA
 70
   272
  3

 62
   256
 51
90.0
 52
90.0
 71
     2
 49
0.008
 62
   256
  6
BYLAYER
 49
-0.008
 62
   256
  6
BYLAYER
  0
MLINESTYLE
  5
18
102
{ACAD_REACTORS
330
17
102
}
330
17
100
AcDbMlineStyle
  2
STANDARD
 70
     0
  3

 62
   256
 51
90.0
 52
90.0
 71
     2
 49
0.5
 62
   256
  6
BYLAYER
 49
-0.5
 62
   256
  6
BYLAYER
  0
ACDBPLACEHOLDER
  5
F
102
{ACAD_REACTORS
330
E
102
}
330
E
  0
ACAD_PROXY_OBJECT
  5
10D
102
{ACAD_REACTORS
330
10C
102
}
330
10C
100
AcDbProxyObject
 90
      499
 91
      507
 95
       23
 70
     0
 93
       49
310
904313A31005FF
 94
        0
1001
ACAD
1000
AcRTDxfName
1000
SCALE
1000
AcRTDxfName
1000
SCALE
1000
AcRTDxfName
1000
SCALE
  0
ACAD_PROXY_OBJECT
  5
188
102
{ACAD_REACTORS
330
10C
102
}
330
10C
100
AcDbProxyObject
 90
      499
 91
      507
 95
       23
 70
     0
 93
      113
310
904313A3200400000000000000407F
 94
        0
1001
ACAD
1000
AcRTDxfName
1000
SCALE
1000
AcRTDxfName
1000
SCALE
1000
AcRTDxfName
1000
SCALE
  0
ACAD_PROXY_OBJECT
  5
189
102
{ACAD_REACTORS
330
10C
102
}
330
10C
100
AcDbProxyObject
 90
      499
 91
      507
 95
       23
 70
     0
 93
      113
310
904313A3400400000000000010407F
 94
        0
1001
ACAD
1000
AcRTDxfName
1000
SCALE
1000
AcRTDxfName
1000
SCALE
1000
AcRTDxfName
1000
SCALE
  0
ACAD_PROXY_OBJECT
  5
18A
102
{ACAD_REACTORS
330
10C
102
}
330
10C
100
AcDbProxyObject
 90
      499
 91
      507
 95
       23
 70
     0
 93
      113
310
904313A3500400000000000014407F
 94
        0
1001
ACAD
1000
AcRTDxfName
1000
SCALE
1000
AcRTDxfName
1000
SCALE
1000
AcRTDxfName
1000
SCALE
  0
ACAD_PROXY_OBJECT
  5
18B
102
{ACAD_REACTORS
330
10C
102
}
330
10C
100
AcDbProxyObject
 90
      499
 91
      507
 95
       23
 70
     0
 93
      113
310
904313A3800400000000000020407F
 94
        0
1001
ACAD
1000
AcRTDxfName
1000
SCALE
1000
AcRTDxfName
1000
SCALE
1000
AcRTDxfName
1000
SCALE
  0
ACAD_PROXY_OBJECT
  5
18C
102
{ACAD_REACTORS
330
10C
102
}
330
10C
100
AcDbProxyObject
 90
      499
 91
      507
 95
       23
 70
     0
 93
      121
310
905313A313000400000000000024407F
 94
        0
1001
ACAD
1000
AcRTDxfName
1000
SCALE
1000
AcRTDxfName
1000
SCALE
1000
AcRTDxfName
1000
SCALE
  0
ACAD_PROXY_OBJECT
  5
18D
102
{ACAD_REACTORS
330
10C
102
}
330
10C
100
AcDbProxyObject
 90
      499
 91
      507
 95
       23
 70
     0
 93
      121
310
905313A313600400000000000030407F
 94
        0
1001
ACAD
1000
AcRTDxfName
1000
SCALE
1000
AcRTDxfName
1000
SCALE
1000
AcRTDxfName
1000
SCALE
  0
ACAD_PROXY_OBJECT
  5
18E
102
{ACAD_REACTORS
330
10C
102
}
330
10C
100
AcDbProxyObject
 90
      499
 91
      507
 95
       23
 70
     0
 93
      121
310
905313A323000400000000000034407F
 94
        0
1001
ACAD
1000
AcRTDxfName
1000
SCALE
1000
AcRTDxfName
1000
SCALE
1000
AcRTDxfName
1000
SCALE
  0
ACAD_PROXY_OBJECT
  5
18F
102
{ACAD_REACTORS
330
10C
102
}
330
10C
100
AcDbProxyObject
 90
      499
 91
      507
 95
       23
 70
     0
 93
      121
310
905313A33300040000000000003E407F
 94
        0
1001
ACAD
1000
AcRTDxfName
1000
SCALE
1000
AcRTDxfName
1000
SCALE
1000
AcRTDxfName
1000
SCALE
  0
ACAD_PROXY_OBJECT
  5
190
102
{ACAD_REACTORS
330
10C
102
}
330
10C
100
AcDbProxyObject
 90
      499
 91
      507
 95
       23
 70
     0
 93
      121
310
905313A343000400000000000044407F
 94
        0
1001
ACAD
1000
AcRTDxfName
1000
SCALE
1000
AcRTDxfName
1000
SCALE
1000
AcRTDxfName
1000
SCALE
  0
ACAD_PROXY_OBJECT
  5
191
102
{ACAD_REACTORS
330
10C
102
}
330
10C
100
AcDbProxyObject
 90
      499
 91
      507
 95
       23
 70
     0
 93
      121
310
905313A353000400000000000049407F
 94
        0
1001
ACAD
1000
AcRTDxfName
1000
SCALE
1000
AcRTDxfName
1000
SCALE
1000
AcRTDxfName
1000
SCALE
  0
ACAD_PROXY_OBJECT
  5
192
102
{ACAD_REACTORS
330
10C
102
}
330
10C
100
AcDbProxyObject
 90
      499
 91
      507
 95
       23
 70
     0
 93
      129
310
906313A31303000400000000000059407F
 94
        0
1001
ACAD
1000
AcRTDxfName
1000
SCALE
1000
AcRTDxfName
1000
SCALE
1000
AcRTDxfName
1000
SCALE
  0
ACAD_PROXY_OBJECT
  5
193
102
{ACAD_REACTORS
330
10C
102
}
330
10C
100
AcDbProxyObject
 90
      499
 91
      507
 95
       23
 70
     0
 93
      113
310
904323A3100000000000000001017F
 94
        0
1001
ACAD
1000
AcRTDxfName
1000
SCALE
1000
AcRTDxfName
1000
SCALE
1000
AcRTDxfName
1000
SCALE
  0
ACAD_PROXY_OBJECT
  5
194
102
{ACAD_REACTORS
330
10C
102
}
330
10C
100
AcDbProxyObject
 90
      499
 91
      507
 95
       23
 70
     0
 93
      113
310
904343A3100000000000000041017F
 94
        0
1001
ACAD
1000
AcRTDxfName
1000
SCALE
1000
AcRTDxfName
1000
SCALE
1000
AcRTDxfName
1000
SCALE
  0
ACAD_PROXY_OBJECT
  5
195
102
{ACAD_REACTORS
330
10C
102
}
330
10C
100
AcDbProxyObject
 90
      499
 91
      507
 95
       23
 70
     0
 93
      113
310
904383A3100000000000000081017F
 94
        0
1001
ACAD
1000
AcRTDxfName
1000
SCALE
1000
AcRTDxfName
1000
SCALE
1000
AcRTDxfName
1000
SCALE
  0
ACAD_PROXY_OBJECT
  5
196
102
{ACAD_REACTORS
330
10C
102
}
330
10C
100
AcDbProxyObject
 90
      499
 91
      507
 95
       23
 70
     0
 93
      121
310
90531303A3100000000000000091017F
 94
        0
1001
ACAD
1000
AcRTDxfName
1000
SCALE
1000
AcRTDxfName
1000
SCALE
1000
AcRTDxfName
1000
SCALE
  0
ACAD_PROXY_OBJECT
  5
197
102
{ACAD_REACTORS
330
10C
102
}
330
10C
100
AcDbProxyObject
 90
      499
 91
      507
 95
       23
 70
     0
 93
      129
310
9063130303A3100000000000000165017F
 94
        0
1001
ACAD
1000
AcRTDxfName
1000
SCALE
1000
AcRTDxfName
1000
SCALE
1000
AcRTDxfName
1000
SCALE
  0
ACAD_PROXY_OBJECT
  5
198
102
{ACAD_REACTORS
330
10C
102
}
330
10C
100
AcDbProxyObject
 90
      499
 91
      507
 95
       23
 70
     0
 93
      265
310
90F312F31323822203D2031272D302200000000000000200FC00000000000028407F
 94
        0
1001
ACAD
1000
AcRTDxfName
1000
SCALE
1000
AcRTDxfName
1000
SCALE
1000
AcRTDxfName
1000
SCALE
  0
ACAD_PROXY_OBJECT
  5
199
102
{ACAD_REACTORS
330
10C
102
}
330
10C
100
AcDbProxyObject
 90
      499
 91
      507
 95
       23
 70
     0
 93
      257
310
90E312F363422203D2031272D302200000000000000240FC00000000000028407F
 94
        0
1001
ACAD
1000
AcRTDxfName
1000
SCALE
1000
AcRTDxfName
1000
SCALE
1000
AcRTDxfName
1000
SCALE
  0
ACAD_PROXY_OBJECT
  5
19A
102
{ACAD_REACTORS
330
10C
102
}
330
10C
100
AcDbProxyObject
 90
      499
 91
      507
 95
       23
 70
     0
 93
      257
310
90E312F333222203D2031272D302200000000000000280FC00000000000028407F
 94
        0
1001
ACAD
1000
AcRTDxfName
1000
SCALE
1000
AcRTDxfName
1000
SCALE
1000
AcRTDxfName
1000
SCALE
  0
ACAD_PROXY_OBJECT
  5
19B
102
{ACAD_REACTORS
330
10C
102
}
330
10C
100
AcDbProxyObject
 90
      499
 91
      507
 95
       23
 70
     0
 93
      257
310
90E312F313622203D2031272D3022000000000000002C0FC00000000000028407F
 94
        0
1001
ACAD
1000
AcRTDxfName
1000
SCALE
1000
AcRTDxfName
1000
SCALE
1000
AcRTDxfName
1000
SCALE
  0
ACAD_PROXY_OBJECT
  5
19C
102
{ACAD_REACTORS
330
10C
102
}
330
10C
100
AcDbProxyObject
 90
      499
 91
      507
 95
       23
 70
     0
 93
      257
310
90E332F333222203D2031272D3022000000000000002E0FC00000000000028407F
 94
        0
1001
ACAD
1000
AcRTDxfName
1000
SCALE
1000
AcRTDxfName
1000
SCALE
1000
AcRTDxfName
1000
SCALE
  0
ACAD_PROXY_OBJECT
  5
19D
102
{ACAD_REACTORS
330
10C
102
}
330
10C
100
AcDbProxyObject
 90
      499
 91
      507
 95
       23
 70
     0
 93
      249
310
90D312F3822203D2031272D302200000000000000300FC00000000000028407F
 94
        0
1001
ACAD
1000
AcRTDxfName
1000
SCALE
1000
AcRTDxfName
1000
SCALE
1000
AcRTDxfName
1000
SCALE
  0
ACAD_PROXY_OBJECT
  5
19E
102
{ACAD_REACTORS
330
10C
102
}
330
10C
100
AcDbProxyObject
 90
      499
 91
      507
 95
       23
 70
     0
 93
      257
310
90E332F313622203D2031272D302200000000000000320FC00000000000028407F
 94
        0
1001
ACAD
1000
AcRTDxfName
1000
SCALE
1000
AcRTDxfName
1000
SCALE
1000
AcRTDxfName
1000
SCALE
  0
ACAD_PROXY_OBJECT
  5
19F
102
{ACAD_REACTORS
330
10C
102
}
330
10C
100
AcDbProxyObject
 90
      499
 91
      507
 95
       23
 70
     0
 93
      249
310
90D312F3422203D2031272D302200000000000000340FC00000000000028407F
 94
        0
1001
ACAD
1000
AcRTDxfName
1000
SCALE
1000
AcRTDxfName
1000
SCALE
1000
AcRTDxfName
1000
SCALE
  0
ACAD_PROXY_OBJECT
  5
1A0
102
{ACAD_REACTORS
330
10C
102
}
330
10C
100
AcDbProxyObject
 90
      499
 91
      507
 95
       23
 70
     0
 93
      249
310
90D332F3822203D2031272D302200000000000000360FC00000000000028407F
 94
        0
1001
ACAD
1000
AcRTDxfName
1000
SCALE
1000
AcRTDxfName
1000
SCALE
1000
AcRTDxfName
1000
SCALE
  0
ACAD_PROXY_OBJECT
  5
1A1
102
{ACAD_REACTORS
330
10C
102
}
330
10C
100
AcDbProxyObject
 90
      499
 91
      507
 95
       23
 70
     0
 93
      249
310
90D312F3222203D2031272D302200000000000000380FC00000000000028407F
 94
        0
1001
ACAD
1000
AcRTDxfName
1000
SCALE
1000
AcRTDxfName
1000
SCALE
1000
AcRTDxfName
1000
SCALE
  0
ACAD_PROXY_OBJECT
  5
1A2
102
{ACAD_REACTORS
330
10C
102
}
330
10C
100
AcDbProxyObject
 90
      499
 91
      507
 95
       23
 70
     0
 93
      249
310
90D332F3422203D2031272D3022000000000000003A0FC00000000000028407F
 94
        0
1001
ACAD
1000
AcRTDxfName
1000
SCALE
1000
AcRTDxfName
1000
SCALE
1000
AcRTDxfName
1000
SCALE
  0
ACAD_PROXY_OBJECT
  5
1A3
102
{ACAD_REACTORS
330
10C
102
}
330
10C
100
AcDbProxyObject
 90
      499
 91
      507
 95
       23
 70
     0
 93
      169
310
90B3122203D2031272D302200400000000000028407F
 94
        0
1001
ACAD
1000
AcRTDxfName
1000
SCALE
1000
AcRTDxfName
1000
SCALE
1000
AcRTDxfName
1000
SCALE
  0
ACAD_PROXY_OBJECT
  5
1A4
102
{ACAD_REACTORS
330
10C
102
}
330
10C
100
AcDbProxyObject
 90
      499
 91
      507
 95
       23
 70
     0
 93
      265
310
90F312D312F3222203D2031272D3022000000000000003E0FC00000000000028407F
 94
        0
1001
ACAD
1000
AcRTDxfName
1000
SCALE
1000
AcRTDxfName
1000
SCALE
1000
AcRTDxfName
1000
SCALE
  0
ACAD_PROXY_OBJECT
  5
1A5
102
{ACAD_REACTORS
330
10C
102
}
330
10C
100
AcDbProxyObject
 90
      499
 91
      507
 95
       23
 70
     0
 93
      233
310
90B3322203D2031272D3022000000000000000210000000000000028407F
 94
        0
1001
ACAD
1000
AcRTDxfName
1000
SCALE
1000
AcRTDxfName
1000
SCALE
1000
AcRTDxfName
1000
SCALE
  0
ACAD_PROXY_OBJECT
  5
1A6
102
{ACAD_REACTORS
330
10C
102
}
330
10C
100
AcDbProxyObject
 90
      499
 91
      507
 95
       23
 70
     0
 93
      233
310
90B3622203D2031272D3022000000000000000610000000000000028407F
 94
        0
1001
ACAD
1000
AcRTDxfName
1000
SCALE
1000
AcRTDxfName
1000
SCALE
1000
AcRTDxfName
1000
SCALE
  0
ACAD_PROXY_OBJECT
  5
1A7
102
{ACAD_REACTORS
330
10C
102
}
330
10C
100
AcDbProxyObject
 90
      499
 91
      507
 95
       23
 70
     0
 93
      257
310
90E31272D3022203D2031272D3022000000000000000A10000000000000028407F
 94
        0
1001
ACAD
1000
AcRTDxfName
1000
SCALE
1000
AcRTDxfName
1000
SCALE
1000
AcRTDxfName
1000
SCALE
  0
TABLESTYLE
  5
7F
102
{ACAD_XDICTIONARY
360
162
102
}
102
{ACAD_REACTORS
330
7E
102
}
330
7E
100
AcDbTableStyle
  3
Standard
 70
     0
 71
     0
 40
1.5
 41
1.5
280
     0
281
     0
  7
Standard
140
4.5
170
     2
 62
     0
 63
     7
283
     0
274
    -2
284
     1
 64
     0
275
    -2
285
     1
 65
     0
276
    -2
286
     1
 66
     0
277
    -2
287
     1
 67
     0
278
    -2
288
     1
 68
     0
279
    -2
289
     1
 69
     0
  7
Standard
140
6.0
170
     5
 62
     0
 63
     7
283
     0
274
    -2
284
     1
 64
     0
275
    -2
285
     1
 65
     0
276
    -2
286
     1
 66
     0
277
    -2
287
     1
 67
     0
278
    -2
288
     1
 68
     0
279
    -2
289
     1
 69
     0
  7
Standard
140
4.5
170
     5
 62
     0
 63
     7
283
     0
274
    -2
284
     1
 64
     0
275
    -2
285
     1
 65
     0
276
    -2
286
     1
 66
     0
277
    -2
287
     1
 67
     0
278
    -2
288
     1
 68
     0
279
    -2
289
     1
 69
     0
  0
VISUALSTYLE
  5
F5
102
{ACAD_REACTORS
330
EF
102
}
330
EF
100
AcDbVisualStyle
  2
2dWireframe
 70
     4
 71
     0
 72
     2
 73
     1
 90
        0
 40
-0.6
 41
-30.0
 62
     5
 63
     7
 74
     1
 91
        4
 64
     7
 65
   257
 75
     1
175
     1
 42
1.0
 92
        0
 66
   257
 43
1.0
 76
     1
 77
     6
 78
     2
 67
     7
 79
     5
170
     0
171
     0
290
     0
174
     0
 93
        1
 44
0.0
173
     0
291
     0
 45
0.0
1001
ACAD
1000
AcDbSavedByObjectVersion
1070
     0
  0
VISUALSTYLE
  5
F7
102
{ACAD_REACTORS
330
EF
102
}
330
EF
100
AcDbVisualStyle
  2
3D Hidden
 70
     6
 71
     1
 72
     2
 73
     2
 90
        0
 40
-0.6
 41
-30.0
 62
     5
 63
     7
 74
     2
 91
        2
 64
     7
 65
   257
 75
     2
175
     1
 42
40.0
 92
        0
 66
   257
 43
1.0
 76
     1
 77
     6
 78
     2
 67
     7
 79
     3
170
     0
171
     0
290
     0
174
     0
 93
        1
 44
0.0
173
     0
291
     0
 45
0.0
1001
ACAD
1000
AcDbSavedByObjectVersion
1070
     0
  0
VISUALSTYLE
  5
F6
102
{ACAD_REACTORS
330
EF
102
}
330
EF
100
AcDbVisualStyle
  2
3dWireframe
 70
     5
 71
     0
 72
     2
 73
     1
 90
        0
 40
-0.6
 41
-30.0
 62
     5
 63
     7
 74
     1
 91
        4
 64
     7
 65
   257
 75
     1
175
     1
 42
1.0
 92
        0
 66
   257
 43
1.0
 76
     1
 77
     6
 78
     2
 67
     7
 79
     5
170
     0
171
     0
290
     0
174
     0
 93
        1
 44
0.0
173
     0
291
     0
 45
0.0
1001
ACAD
1000
AcDbSavedByObjectVersion
1070
     0
  0
VISUALSTYLE
  5
F4
102
{ACAD_REACTORS
330
EF
102
}
330
EF
100
AcDbVisualStyle
  2
Basic
 70
     7
 71
     1
 72
     0
 73
     1
 90
        0
 40
-0.6
 41
-30.0
 62
     5
 63
     7
 74
     0
 91
        4
 64
     7
 65
   257
 75
     1
175
     1
 42
1.0
 92
        8
 66
     7
 43
1.0
 76
     1
 77
     6
 78
     2
 67
     7
 79
     5
170
     0
171
     0
290
     0
174
     0
 93
        1
 44
0.0
173
     0
291
     1
 45
0.0
1001
ACAD
1000
AcDbSavedByObjectVersion
1070
     0
  0
VISUALSTYLE
  5
FB
102
{ACAD_REACTORS
330
EF
102
}
330
EF
100
AcDbVisualStyle
  2
Brighten
 70
    12
 71
     2
 72
     2
 73
     1
 90
        0
 40
-0.6
 41
-30.0
 62
     5
 63
     7
 74
     1
 91
        4
 64
     7
 65
   257
 75
     1
175
     1
 42
1.0
 92
        8
 66
     7
 43
1.0
 76
     1
 77
     6
 78
     2
 67
     7
 79
     5
170
     0
171
     0
290
     0
174
     0
 93
        1
 44
50.0
173
     0
291
     1
 45
0.0
1001
ACAD
1000
AcDbSavedByObjectVersion
1070
     0
  0
VISUALSTYLE
  5
FF
102
{ACAD_REACTORS
330
EF
102
}
330
EF
100
AcDbVisualStyle
  2
ColorChange
 70
    16
 71
     2
 72
     2
 73
     3
 90
        0
 40
-0.6
 41
-30.0
 62
     5
 63
     8
 74
     1
 91
        4
 64
     7
 65
   257
 75
     1
175
     1
 42
1.0
 92
        8
 66
     8
 43
1.0
 76
     1
 77
     6
 78
     2
 67
     7
 79
     5
170
     0
171
     0
290
     0
174
     0
 93
        1
 44
0.0
173
     0
291
     1
 45
0.0
1001
ACAD
1000
AcDbSavedByObjectVersion
1070
     0
  0
VISUALSTYLE
  5
F8
102
{ACAD_REACTORS
330
EF
102
}
330
EF
100
AcDbVisualStyle
  2
Conceptual
 70
     9
 71
     3
 72
     2
 73
     1
 90
        0
 40
-0.6
 41
-30.0
 62
     5
 63
     7
 74
     2
 91
        2
 64
     7
 65
   257
 75
     1
175
     1
 42
40.0
 92
        8
 66
     7
 43
1.0
 76
     1
 77
     6
 78
     2
 67
     7
 79
     3
170
     0
171
     0
290
     0
174
     0
 93
        1
 44
0.0
173
     0
291
     0
 45
0.0
1001
ACAD
1000
AcDbSavedByObjectVersion
1070
     0
  0
VISUALSTYLE
  5
FA
102
{ACAD_REACTORS
330
EF
102
}
330
EF
100
AcDbVisualStyle
  2
Dim
 70
    11
 71
     2
 72
     2
 73
     1
 90
        0
 40
-0.6
 41
-30.0
 62
     5
 63
     7
 74
     1
 91
        4
 64
     7
 65
   257
 75
     1
175
     1
 42
1.0
 92
        8
 66
     7
 43
1.0
 76
     1
 77
     6
 78
     2
 67
     7
 79
     5
170
     0
171
     0
290
     0
174
     0
 93
        1
 44
-50.0
173
     0
291
     1
 45
0.0
1001
ACAD
1000
AcDbSavedByObjectVersion
1070
     0
  0
VISUALSTYLE
  5
FE
102
{ACAD_REACTORS
330
EF
102
}
330
EF
100
AcDbVisualStyle
  2
Facepattern
 70
    15
 71
     2
 72
     2
 73
     1
 90
        0
 40
-0.6
 41
-30.0
 62
     5
 63
     7
 74
     1
 91
        4
 64
     7
 65
   257
 75
     1
175
     1
 42
1.0
 92
        8
 66
     7
 43
1.0
 76
     1
 77
     6
 78
     2
 67
     7
 79
     5
170
     0
171
     0
290
     0
174
     0
 93
        1
 44
0.0
173
     0
291
     1
 45
0.0
1001
ACAD
1000
AcDbSavedByObjectVersion
1070
     0
  0
VISUALSTYLE
  5
F0
102
{ACAD_REACTORS
330
EF
102
}
330
EF
100
AcDbVisualStyle
  2
Flat
 70
     0
 71
     2
 72
     1
 73
     1
 90
        2
 40
-0.6
 41
30.0
 62
     5
 63
     7
 74
     0
 91
        4
 64
     7
 65
   257
 75
     1
175
     1
 42
1.0
 92
        8
 66
     7
 43
1.0
 76
     1
 77
     6
 78
     2
 67
     7
 79
     5
170
     0
171
     0
290
     0
174
     0
 93
        1
 44
0.0
173
     0
291
     1
 45
0.0
1001
ACAD
1000
AcDbSavedByObjectVersion
1070
     0
  0
VISUALSTYLE
  5
F1
102
{ACAD_REACTORS
330
EF
102
}
330
EF
100
AcDbVisualStyle
  2
FlatWithEdges
 70
     1
 71
     2
 72
     1
 73
     1
 90
        2
 40
-0.6
 41
30.0
 62
     5
 63
     7
 74
     1
 91
        4
 64
     7
 65
   257
 75
     1
175
     1
 42
1.0
 92
        0
 66
   257
 43
1.0
 76
     1
 77
     6
 78
     2
 67
     7
 79
     5
170
     0
171
     0
290
     0
174
     0
 93
        1
 44
0.0
173
     0
291
     1
 45
0.0
1001
ACAD
1000
AcDbSavedByObjectVersion
1070
     0
  0
VISUALSTYLE
  5
F2
102
{ACAD_REACTORS
330
EF
102
}
330
EF
100
AcDbVisualStyle
  2
Gouraud
 70
     2
 71
     2
 72
     2
 73
     1
 90
        2
 40
-0.6
 41
30.0
 62
     5
 63
     7
 74
     0
 91
        4
 64
     7
 65
   257
 75
     1
175
     1
 42
1.0
 92
        0
 66
     7
 43
1.0
 76
     1
 77
     6
 78
     2
 67
     7
 79
     5
170
     0
171
     0
290
     0
174
     0
 93
        1
 44
0.0
173
     0
291
     1
 45
0.0
1001
ACAD
1000
AcDbSavedByObjectVersion
1070
     0
  0
VISUALSTYLE
  5
F3
102
{ACAD_REACTORS
330
EF
102
}
330
EF
100
AcDbVisualStyle
  2
GouraudWithEdges
 70
     3
 71
     2
 72
     2
 73
     1
 90
        2
 40
-0.6
 41
30.0
 62
     5
 63
     7
 74
     1
 91
        4
 64
     7
 65
   257
 75
     1
175
     1
 42
1.0
 92
        0
 66
   257
 43
1.0
 76
     1
 77
     6
 78
     2
 67
     7
 79
     5
170
     0
171
     0
290
     0
174
     0
 93
        1
 44
0.0
173
     0
291
     1
 45
0.0
1001
ACAD
1000
AcDbSavedByObjectVersion
1070
     0
  0
VISUALSTYLE
  5
FD
102
{ACAD_REACTORS
330
EF
102
}
330
EF
100
AcDbVisualStyle
  2
Linepattern
 70
    14
 71
     2
 72
     2
 73
     1
 90
        0
 40
-0.6
 41
-30.0
 62
     5
 63
     7
 74
     1
 91
        4
 64
     7
 65
   257
 75
     7
175
     7
 42
1.0
 92
        8
 66
     7
 43
1.0
 76
     1
 77
     6
 78
     2
 67
     7
 79
     5
170
     0
171
     0
290
     0
174
     0
 93
        1
 44
0.0
173
     0
291
     1
 45
0.0
1001
ACAD
1000
AcDbSavedByObjectVersion
1070
     0
  0
VISUALSTYLE
  5
F9
102
{ACAD_REACTORS
330
EF
102
}
330
EF
100
AcDbVisualStyle
  2
Realistic
 70
     8
 71
     2
 72
     2
 73
     1
 90
        0
 40
-0.6
 41
-30.0
 62
     5
 63
     7
 74
     1
 91
        0
 64
     7
 65
   257
 75
     1
175
     1
 42
1.0
 92
        8
 66
     8
 43
1.0
 76
     1
 77
     6
 78
     2
 67
     7
 79
     5
170
     0
171
     0
290
     0
174
     0
 93
       13
 44
0.0
173
     0
291
     0
 45
0.0
1001
ACAD
1000
AcDbSavedByObjectVersion
1070
     0
  0
VISUALSTYLE
  5
FC
102
{ACAD_REACTORS
330
EF
102
}
330
EF
100
AcDbVisualStyle
  2
Thicken
 70
    13
 71
     2
 72
     2
 73
     1
 90
        0
 40
-0.6
 41
-30.0
 62
     5
 63
     7
 74
     1
 91
        4
 64
     7
 65
   257
 75
     1
175
     1
 42
1.0
 92
       12
 66
     7
 43
1.0
 76
     1
 77
     6
 78
     2
 67
     7
 79
     5
170
     0
171
     0
290
     0
174
     0
 93
        1
 44
0.0
173
     0
291
     1
 45
0.0
1001
ACAD
1000
AcDbSavedByObjectVersion
1070
     0
  0
DICTIONARYVAR
  5
146
102
{ACAD_REACTORS
330
5E
102
}
330
5E
100
DictionaryVariables
280
     0
  1
1:1
  0
DICTIONARYVAR
  5
145
102
{ACAD_REACTORS
330
5E
102
}
330
5E
100
DictionaryVariables
280
     0
  1
STANDARD
  0
DICTIONARYVAR
  5
84
102
{ACAD_REACTORS
330
5E
102
}
330
5E
100
DictionaryVariables
280
     0
  1
STANDARD
  0
DICTIONARYVAR
  5
5F
102
{ACAD_REACTORS
330
5E
102
}
330
5E
100
DictionaryVariables
280
     0
  1
2
  0
DICTIONARYVAR
  5
63
102
{ACAD_REACTORS
330
5E
102
}
330
5E
100
DictionaryVariables
280
     0
  1
1
  0
DICTIONARYVAR
  5
466
102
{ACAD_REACTORS
330
5E
102
}
330
5E
100
DictionaryVariables
280
     0
  1
0
  0
DICTIONARYVAR
  5
464
102
{ACAD_REACTORS
330
5E
102
}
330
5E
100
DictionaryVariables
280
     0
  1
2
  0
DICTIONARYVAR
  5
463
102
{ACAD_REACTORS
330
5E
102
}
330
5E
100
DictionaryVariables
280
     0
  1
1
  0
DICTIONARYVAR
  5
3B16
102
{ACAD_REACTORS
330
5E
102
}
330
5E
100
DictionaryVariables
280
     0
  1
80.000000
  0
DICTIONARYVAR
  5
3B15
102
{ACAD_REACTORS
330
5E
102
}
330
5E
100
DictionaryVariables
280
     0
  1
5.000000
  0
DICTIONARYVAR
  5
465
102
{ACAD_REACTORS
330
5E
102
}
330
5E
100
DictionaryVariables
280
     0
  1
127
  0
DICTIONARY
  5
310A
102
{ACAD_REACTORS
330
3109
102
}
330
3109
100
AcDbDictionary
281
     1
  0
DICTIONARY
  5
3B1B
330
D3
100
AcDbDictionary
280
     1
281
     1
  3
ACAD_XREC_ROUNDTRIP
360
3B1C
  0
DICTIONARY
  5
3B1D
330
D7
100
AcDbDictionary
280
     1
281
     1
  3
ACAD_XREC_ROUNDTRIP
360
3B1E
  0
DICTIONARY
  5
3B18
330
22
100
AcDbDictionary
280
     1
281
     1
  3
ACAD_XREC_ROUNDTRIP
360
3B19
  0
DICTIONARY
  5
3B21
330
ED
100
AcDbDictionary
280
     1
281
     1
  3
ACAD_XREC_ROUNDTRIP
360
3B22
  0
DICTIONARY
  5
3B1F
330
EC
100
AcDbDictionary
280
     1
281
     1
  3
ACAD_XREC_ROUNDTRIP
360
3B20
  0
DICTIONARY
  5
173
330
EE
100
AcDbDictionary
280
     1
281
     1
  3
ACAD_XREC_ROUNDTRIP
360
3B23
  3
BUMPTILE
360
175
  3
DIFFUSETILE
360
174
  3
OPACITYTILE
360
176
  3
REFLECTIONTILE
360
177
  0
DICTIONARY
  5
162
330
7F
100
AcDbDictionary
280
     1
281
     1
  3
ACAD_ROUNDTRIP_2008_TABLESTYLE_CELLSTYLEMAP
360
3A32
  3
ACAD_XREC_ROUNDTRIP
360
3B1A
  0
XRECORD
  5
3B1C
102
{ACAD_REACTORS
330
3B1B
102
}
330
3B1B
100
AcDbXrecord
280
     1
102
SHADEPLOT
 70
     0
102
SHADEPLOTRESLEVEL
 70
     2
102
SHADEPLOTCUSTOMDPI
 70
   300
  0
XRECORD
  5
3B1E
102
{ACAD_REACTORS
330
3B1D
102
}
330
3B1D
100
AcDbXrecord
280
     1
102
SHADEPLOT
 70
     0
102
SHADEPLOTRESLEVEL
 70
     2
102
SHADEPLOTCUSTOMDPI
 70
   300
  0
XRECORD
  5
3B19
102
{ACAD_REACTORS
330
3B18
102
}
330
3B18
100
AcDbXrecord
280
     1
102
SHADEPLOT
 70
     0
102
SHADEPLOTRESLEVEL
 70
     2
102
SHADEPLOTCUSTOMDPI
 70
   300
  0
XRECORD
  5
3B22
102
{ACAD_REACTORS
330
3B21
102
}
330
3B21
100
AcDbXrecord
280
     1
102
MATERIAL
148
0.0
149
0.0
149
0.0
 93
        0
 94
       63
282
     0
 72
     1
 77
     1
171
     1
175
     1
179
     1
273
     0
  0
XRECORD
  5
3B20
102
{ACAD_REACTORS
330
3B1F
102
}
330
3B1F
100
AcDbXrecord
280
     1
102
MATERIAL
148
0.0
149
0.0
149
0.0
 93
        0
 94
       63
282
     0
 72
     1
 77
     1
171
     1
175
     1
179
     1
273
     0
  0
XRECORD
  5
3B23
102
{ACAD_REACTORS
330
173
102
}
330
173
100
AcDbXrecord
280
     1
102
MATERIAL
148
0.0
149
0.0
149
0.0
 93
        0
 94
       63
282
     0
 72
     1
 77
     1
171
     1
175
     1
179
     1
273
     0
  0
XRECORD
  5
175
102
{ACAD_REACTORS
330
173
102
}
330
173
100
AcDbXrecord
280
     1
270
     1
271
     1
  0
XRECORD
  5
174
102
{ACAD_REACTORS
330
173
102
}
330
173
100
AcDbXrecord
280
     1
270
     1
271
     1
  0
XRECORD
  5
176
102
{ACAD_REACTORS
330
173
102
}
330
173
100
AcDbXrecord
280
     1
270
     1
271
     1
  0
XRECORD
  5
177
102
{ACAD_REACTORS
330
173
102
}
330
173
100
AcDbXrecord
280
     1
270
     1
271
     1
  0
ACAD_PROXY_OBJECT
  5
3A32
102
{ACAD_REACTORS
330
162
102
}
330
162
100
AcDbProxyObject
 90
      499
 91
      509
 95
       23
 70
     0
 93
     5304
310
40D054060020000020000003200101A000080002A5058000000C10000000000000006101010000000000003E0FC000000000000F83F0000000000003E0FC000000000000F83F02B5E8DC0F42B1CFC0AD7A3703D0AC73F419019018000000C1003FBFFFFFE0000000000003C8FD029018000000C1003FBFFFFFE00000000000
310
03C8FD049018000000C1003FBFFFFFE0000000000003C8FD089018000000C1003FBFFFFFE0000000000003C8FD109018000000C1003FBFFFFFE0000000000003C8FD209018000000C1003FBFFFFFE0000000000003C8FD01405075F5449544C450041501A8000000C800406800020000A94160000003040000000000000012
310
40404000000000000F83F0000000000003E0FC000000000000F83F0000000000003E0FC0AD7A3703D0AC73F02B5E8DC0F42B1CFD0640640600000030400FEFFFFFF8000000000000F23F40A40600000030400FEFFFFFF8000000000000F23F41240600000030400FEFFFFFF8000000000000F23F42240600000030400FEFFF
310
FFF8000000000000F23F44240600000030400FEFFFFFF8000000000000F23F48240600000030400FEFFFFFF8000000000000F23F409014217D2115051115480105406A0000003200101A000080002A5028000000C10000000000000004901010000000000003E0FC000000000000F83F0000000000003E0FC000000000000F
310
83F02B5E8DC0F42B1CFC0AD7A3703D0AC73F419019018000000C1003FBFFFFFE0000000000003C8FD029018000000C1003FBFFFFFE0000000000003C8FD049018000000C1003FBFFFFFE0000000000003C8FD089018000000C1003FBFFFFFE0000000000003C8FD109018000000C1003FBFFFFFE0000000000003C8FD20901
310
8000000C1003FBFFFFFE0000000000003C8FD03409065F444154410000
340
11
340
14
340
14
340
14
340
14
340
14
340
14
340
11
340
14
340
14
340
14
340
14
340
14
340
14
340
11
340
14
340
14
340
14
340
14
340
14
340
14
 94
        0
1001
ACAD
1000
AcRTDxfName
1000
CELLSTYLEMAP
1000
AcRTDxfName
1000
CELLSTYLEMAP
1000
AcRTDxfName
1000
CELLSTYLEMAP
  0
XRECORD
  5
3B1A
102
{ACAD_REACTORS
330
162
102
}
330
162
100
AcDbXrecord
280
     1
102
ACAD_ROUNDTRIP_PRE2007_TABLESTYLE
 90
      512
 91
        0
  1

 92
      512
 93
        0
  2

 94
      512
 95
        0
  3

  0
ENDSEC
  0
EOF
