  0
SECTION
  2
HEADER
  9
$ACADVER
  1
AC1015
  9
$ACADMAINTVER
 70
    20
  9
$DWGCODEPAGE
  3
ANSI_1250
  9
$INSBASE
 10
0.0
 20
0.0
 30
0.0
  9
$EXTMIN
 10
-0.0034362847745797
 20
-0.0226558438690745
 30
-0.000000000000013
  9
$EXTMAX
 10
210.0040308131266
 20
297.000001383183
 30
0.0000000000000023
  9
$LIMMIN
 10
0.0
 20
0.0
  9
$LIMMAX
 10
210.0
 20
297.0
  9
$ORTHOMODE
 70
     1
  9
$REGENMODE
 70
     1
  9
$FILLMODE
 70
     1
  9
$QTEXTMODE
 70
     0
  9
$MIRRTEXT
 70
     0
  9
$LTSCALE
 40
1.0
  9
$ATTMODE
 70
     2
  9
$TEXTSIZE
 40
5.0
  9
$TRACEWID
 40
1.0
  9
$TEXTSTYLE
  7
Solbet_5
  9
$CLAYER
  8
SOLBET_Bloczki
  9
$CELTYPE
  6
ByLayer
  9
$CECOLOR
 62
   256
  9
$CELTSCALE
 40
1.0
  9
$DISPSILH
 70
     0
  9
$DIMSCALE
 40
1.0
  9
$DIMASZ
 40
2.5
  9
$DIMEXO
 40
0.0
  9
$DIMDLI
 40
3.75
  9
$DIMRND
 40
0.0
  9
$DIMDLE
 40
0.0
  9
$DIMEXE
 40
1.25
  9
$DIMTP
 40
0.0
  9
$DIMTM
 40
0.0
  9
$DIMTXT
 40
2.5
  9
$DIMCEN
 40
2.5
  9
$DIMTSZ
 40
0.0
  9
$DIMTOL
 70
     0
  9
$DIMLIM
 70
     0
  9
$DIMTIH
 70
     0
  9
$DIMTOH
 70
     0
  9
$DIMSE1
 70
     0
  9
$DIMSE2
 70
     0
  9
$DIMTAD
 70
     1
  9
$DIMZIN
 70
     8
  9
$DIMBLK
  1

  9
$DIMASO
 70
     1
  9
$DIMSHO
 70
     1
  9
$DIMPOST
  1

  9
$DIMAPOST
  1

  9
$DIMALT
 70
     0
  9
$DIMALTD
 70
     3
  9
$DIMALTF
 40
0.03937007874016
  9
$DIMLFAC
 40
1.0
  9
$DIMTOFL
 70
     1
  9
$DIMTVP
 40
0.0
  9
$DIMTIX
 70
     0
  9
$DIMSOXD
 70
     0
  9
$DIMSAH
 70
     0
  9
$DIMBLK1
  1

  9
$DIMBLK2
  1

  9
$DIMSTYLE
  2
Solbet
  9
$DIMCLRD
 70
     0
  9
$DIMCLRE
 70
     0
  9
$DIMCLRT
 70
     0
  9
$DIMTFAC
 40
1.0
  9
$DIMGAP
 40
0.625
  9
$DIMJUST
 70
     0
  9
$DIMSD1
 70
     0
  9
$DIMSD2
 70
     0
  9
$DIMTOLJ
 70
     0
  9
$DIMTZIN
 70
     8
  9
$DIMALTZ
 70
     0
  9
$DIMALTTZ
 70
     0
  9
$DIMUPT
 70
     0
  9
$DIMDEC
 70
     2
  9
$DIMTDEC
 70
     2
  9
$DIMALTU
 70
     2
  9
$DIMALTTD
 70
     3
  9
$DIMTXSTY
  7
Solbet_2_5
  9
$DIMAUNIT
 70
     0
  9
$DIMADEC
 70
     0
  9
$DIMALTRND
 40
0.0
  9
$DIMAZIN
 70
     0
  9
$DIMDSEP
 70
    44
  9
$DIMATFIT
 70
     3
  9
$DIMFRAC
 70
     0
  9
$DIMLDRBLK
  1

  9
$DIMLUNIT
 70
     2
  9
$DIMLWD
 70
    -2
  9
$DIMLWE
 70
    -2
  9
$DIMTMOVE
 70
     0
  9
$LUNITS
 70
     2
  9
$LUPREC
 70
     4
  9
$SKETCHINC
 40
1.0
  9
$FILLETRAD
 40
0.0
  9
$AUNITS
 70
     0
  9
$AUPREC
 70
     0
  9
$MENU
  1
.
  9
$ELEVATION
 40
0.0
  9
$PELEVATION
 40
0.0
  9
$THICKNESS
 40
0.0
  9
$LIMCHECK
 70
     0
  9
$CHAMFERA
 40
0.0
  9
$CHAMFERB
 40
0.0
  9
$CHAMFERC
 40
0.0
  9
$CHAMFERD
 40
0.0
  9
$SKPOLY
 70
     0
  9
$TDCREATE
 40
2454690.075573148
  9
$TDUCREATE
 40
2454690.033906482
  9
$TDUPDATE
 40
2454848.889296424
  9
$TDUUPDATE
 40
2454848.847629757
  9
$TDINDWG
 40
0.7248589236
  9
$TDUSRTIMER
 40
0.7248543981
  9
$USRTIMER
 70
     1
  9
$ANGBASE
 50
0.0
  9
$ANGDIR
 70
     0
  9
$PDMODE
 70
     0
  9
$PDSIZE
 40
0.0
  9
$PLINEWID
 40
0.0
  9
$SPLFRAME
 70
     0
  9
$SPLINETYPE
 70
     6
  9
$SPLINESEGS
 70
     8
  9
$HANDSEED
  5
3AD1
  9
$SURFTAB1
 70
     6
  9
$SURFTAB2
 70
     6
  9
$SURFTYPE
 70
     6
  9
$SURFU
 70
     6
  9
$SURFV
 70
     6
  9
$UCSBASE
  2

  9
$UCSNAME
  2

  9
$UCSORG
 10
0.0
 20
0.0
 30
0.0
  9
$UCSXDIR
 10
1.0
 20
0.0
 30
0.0
  9
$UCSYDIR
 10
0.0
 20
1.0
 30
0.0
  9
$UCSORTHOREF
  2

  9
$UCSORTHOVIEW
 70
     0
  9
$UCSORGTOP
 10
0.0
 20
0.0
 30
0.0
  9
$UCSORGBOTTOM
 10
0.0
 20
0.0
 30
0.0
  9
$UCSORGLEFT
 10
0.0
 20
0.0
 30
0.0
  9
$UCSORGRIGHT
 10
0.0
 20
0.0
 30
0.0
  9
$UCSORGFRONT
 10
0.0
 20
0.0
 30
0.0
  9
$UCSORGBACK
 10
0.0
 20
0.0
 30
0.0
  9
$PUCSBASE
  2

  9
$PUCSNAME
  2

  9
$PUCSORG
 10
0.0
 20
0.0
 30
0.0
  9
$PUCSXDIR
 10
1.0
 20
0.0
 30
0.0
  9
$PUCSYDIR
 10
0.0
 20
1.0
 30
0.0
  9
$PUCSORTHOREF
  2

  9
$PUCSORTHOVIEW
 70
     0
  9
$PUCSORGTOP
 10
0.0
 20
0.0
 30
0.0
  9
$PUCSORGBOTTOM
 10
0.0
 20
0.0
 30
0.0
  9
$PUCSORGLEFT
 10
0.0
 20
0.0
 30
0.0
  9
$PUCSORGRIGHT
 10
0.0
 20
0.0
 30
0.0
  9
$PUCSORGFRONT
 10
0.0
 20
0.0
 30
0.0
  9
$PUCSORGBACK
 10
0.0
 20
0.0
 30
0.0
  9
$USERI1
 70
     0
  9
$USERI2
 70
     0
  9
$USERI3
 70
     0
  9
$USERI4
 70
     0
  9
$USERI5
 70
     0
  9
$USERR1
 40
0.0
  9
$USERR2
 40
0.0
  9
$USERR3
 40
0.0
  9
$USERR4
 40
0.0
  9
$USERR5
 40
0.0
  9
$WORLDVIEW
 70
     1
  9
$SHADEDGE
 70
     3
  9
$SHADEDIF
 70
    70
  9
$TILEMODE
 70
     1
  9
$MAXACTVP
 70
    64
  9
$PINSBASE
 10
0.0
 20
0.0
 30
0.0
  9
$PLIMCHECK
 70
     0
  9
$PEXTMIN
 10
0.0
 20
0.0
 30
0.0
  9
$PEXTMAX
 10
0.0
 20
0.0
 30
0.0
  9
$PLIMMIN
 10
0.0
 20
0.0
  9
$PLIMMAX
 10
12.0
 20
9.0
  9
$UNITMODE
 70
     0
  9
$VISRETAIN
 70
     1
  9
$PLINEGEN
 70
     0
  9
$PSLTSCALE
 70
     1
  9
$TREEDEPTH
 70
  3020
  9
$CMLSTYLE
  2
SOLBET_IZOLACJA
  9
$CMLJUST
 70
     0
  9
$CMLSCALE
 40
20.0
  9
$PROXYGRAPHICS
 70
     1
  9
$MEASUREMENT
 70
     1
  9
$CELWEIGHT
370
    -1
  9
$ENDCAPS
280
     0
  9
$JOINSTYLE
280
     0
  9
$LWDISPLAY
290
     1
  9
$INSUNITS
 70
     4
  9
$HYPERLINKBASE
  1

  9
$STYLESHEET
  1

  9
$XEDIT
290
     1
  9
$CEPSNTYPE
380
     0
  9
$PSTYLEMODE
290
     1
  9
$FINGERPRINTGUID
  2
{6B12AB33-8E39-428E-8E85-461C8D99A3CB}
  9
$VERSIONGUID
  2
{CB8DA5B8-3198-4DBC-8B4A-DE6B4A591F9C}
  9
$EXTNAMES
290
     1
  9
$PSVPSCALE
 40
0.0
  9
$OLESTARTUP
290
     0
  0
ENDSEC
  0
SECTION
  2
CLASSES
  0
CLASS
  1
ACDBDICTIONARYWDFLT
  2
AcDbDictionaryWithDefault
  3
ObjectDBX Classes
 90
        0
280
     0
281
     0
  0
CLASS
  1
ACDBPLACEHOLDER
  2
AcDbPlaceHolder
  3
ObjectDBX Classes
 90
        0
280
     0
281
     0
  0
CLASS
  1
LAYOUT
  2
AcDbLayout
  3
ObjectDBX Classes
 90
        0
280
     0
281
     0
  0
CLASS
  1
DICTIONARYVAR
  2
AcDbDictionaryVar
  3
ObjectDBX Classes
 90
        0
280
     0
281
     0
  0
CLASS
  1
TABLESTYLE
  2
AcDbTableStyle
  3
ObjectDBX Classes
 90
     4095
280
     0
281
     0
  0
CLASS
  1
MATERIAL
  2
AcDbMaterial
  3
ObjectDBX Classes
 90
     1024
280
     0
281
     0
  0
CLASS
  1
VISUALSTYLE
  2
AcDbVisualStyle
  3
ObjectDBX Classes
 90
     4095
280
     0
281
     0
  0
CLASS
  1
SCALE
  2
AcDbScale
  3
ObjectDBX Classes
 90
     1153
280
     0
281
     0
  0
CLASS
  1
MLEADERSTYLE
  2
AcDbMLeaderStyle
  3
ACDB_MLEADERSTYLE_CLASS
 90
     4095
280
     0
281
     0
  0
CLASS
  1
CELLSTYLEMAP
  2
AcDbCellStyleMap
  3
ObjectDBX Classes
 90
     1152
280
     0
281
     0
  0
CLASS
  1
DIMASSOC
  2
AcDbDimAssoc
  3
"AcDbDimAssoc|Product Desc:     AcDim ARX App For Dimension|Company:          Autodesk, Inc.|WEB Address:      www.autodesk.com"
 90
    32768
280
     0
281
     0
  0
CLASS
  1
SORTENTSTABLE
  2
AcDbSortentsTable
  3
ObjectDBX Classes
 90
        0
280
     0
281
     0
  0
CLASS
  1
MULTILEADER
  2
AcDbMLeader
  3
ACDB_MLEADER_CLASS
 90
    33793
280
     0
281
     1
  0
CLASS
  1
ACDB_MTEXTOBJECTCONTEXTDATA_CLASS
  2
AcDbMTextObjectContextData
  3
ObjectDBX Classes
 90
    33921
280
     0
281
     0
  0
ENDSEC
  0
SECTION
  2
TABLES
  0
TABLE
  2
VPORT
  5
8
102
{ACAD_XDICTIONARY
360
443
102
}
330
0
100
AcDbSymbolTable
 70
     1
  0
VPORT
  5
EA
330
8
100
AcDbSymbolTableRecord
100
AcDbViewportTableRecord
  2
*Active
 70
     0
 10
0.0
 20
0.0
 11
1.0
 21
1.0
 12
105.000297264176
 22
148.4886727696569
 13
0.0
 23
0.0
 14
10.0
 24
10.0
 15
10.0
 25
10.0
 16
0.0
 26
0.0
 36
1.0
 17
0.0
 27
0.0
 37
0.0
 40
300.3229089740192
 41
1.74582560296846
 42
50.0
 43
0.0
 44
0.0
 50
0.0
 51
0.0
 71
     0
 72
  1000
 73
     1
 74
     3
 75
     0
 76
     0
 77
     0
 78
     0
281
     0
 65
     1
110
0.0
120
0.0
130
0.0
111
1.0
121
0.0
131
0.0
112
0.0
122
1.0
132
0.0
 79
     0
146
0.0
  0
ENDTAB
  0
TABLE
  2
LTYPE
  5
5
330
0
100
AcDbSymbolTable
 70
     3
  0
LTYPE
  5
14
330
5
100
AcDbSymbolTableRecord
100
AcDbLinetypeTableRecord
  2
ByBlock
 70
     0
  3

 72
    65
 73
     0
 40
0.0
  0
LTYPE
  5
15
330
5
100
AcDbSymbolTableRecord
100
AcDbLinetypeTableRecord
  2
ByLayer
 70
     0
  3

 72
    65
 73
     0
 40
0.0
  0
LTYPE
  5
16
330
5
100
AcDbSymbolTableRecord
100
AcDbLinetypeTableRecord
  2
Continuous
 70
     0
  3
Solid line
 72
    65
 73
     0
 40
0.0
  0
LTYPE
  5
982
330
5
100
AcDbSymbolTableRecord
100
AcDbLinetypeTableRecord
  2
BATTING
 70
     0
  3
Batting SSSSSSSSSSSSSSSSSSSSSSSSSSSSSSSSSSSSSSSSSSSSSSS
 72
    65
 73
     4
 40
10.16254
 49
0.00254
 74
     0
 49
-2.54
 74
     4
 75
   134
340
7E7
 46
2.54
 50
0.0
 44
-2.54
 45
0.0
 49
-5.08
 74
     4
 75
   134
340
7E7
 46
2.54
 50
180.0
 44
2.54
 45
0.0
 49
-2.54
 74
     0
  0
LTYPE
  5
3912
330
5
100
AcDbSymbolTableRecord
100
AcDbLinetypeTableRecord
  2
DASHED2
 70
     0
  3
Dashed (.5x) _ _ _ _ _ _ _ _ _ _ _ _ _ _ _ _ _
 72
    65
 73
     2
 40
9.524999999999998
 49
6.349999999999999
 74
     0
 49
-3.174999999999999
 74
     0
  0
ENDTAB
  0
TABLE
  2
LAYER
  5
2
102
{ACAD_XDICTIONARY
360
3E5
102
}
330
0
100
AcDbSymbolTable
 70
    13
  0
LAYER
  5
10
102
{ACAD_XDICTIONARY
360
13C
102
}
330
2
100
AcDbSymbolTableRecord
100
AcDbLayerTableRecord
  2
0
 70
     0
 62
     7
  6
Continuous
370
    -3
390
F
  0
LAYER
  5
2BB
330
2
100
AcDbSymbolTableRecord
100
AcDbLayerTableRecord
  2
DEFPOINTS
 70
     0
 62
     7
  6
Continuous
290
     0
370
    -3
390
F
  0
LAYER
  5
3DD
102
{ACAD_XDICTIONARY
360
403
102
}
330
2
100
AcDbSymbolTableRecord
100
AcDbLayerTableRecord
  2
SOLBET_Bloczki
 70
     0
 62
   140
  6
Continuous
370
    -3
390
F
1001
AcAecLayerStandard
1000

1000

  0
LAYER
  5
3DF
102
{ACAD_XDICTIONARY
360
405
102
}
330
2
100
AcDbSymbolTableRecord
100
AcDbLayerTableRecord
  2
SOLBET_Wymiary_Opisy
 70
     0
 62
     1
  6
Continuous
370
    -3
390
F
1001
AcAecLayerStandard
1000

1000

  0
LAYER
  5
3E1
102
{ACAD_XDICTIONARY
360
409
102
}
330
2
100
AcDbSymbolTableRecord
100
AcDbLayerTableRecord
  2
SOLBET_Izolacja
 70
     0
 62
    40
  6
Continuous
370
    -3
390
F
1001
AcAecLayerStandard
1000

1000

  0
LAYER
  5
3E2
102
{ACAD_XDICTIONARY
360
40B
102
}
330
2
100
AcDbSymbolTableRecord
100
AcDbLayerTableRecord
  2
SOLBET_Zbrojenie_Konstrukcja
 70
     0
 62
     7
  6
Continuous
370
    -3
390
F
1001
AcAecLayerStandard
1000

1000

  0
LAYER
  5
3E4
102
{ACAD_XDICTIONARY
360
40F
102
}
330
2
100
AcDbSymbolTableRecord
100
AcDbLayerTableRecord
  2
SOLBET_Tynki_Posadzki
 70
     0
 62
     3
  6
Continuous
370
    -3
390
F
1001
AcAecLayerStandard
1000

1000

  0
LAYER
  5
3E8
102
{ACAD_XDICTIONARY
360
411
102
}
330
2
100
AcDbSymbolTableRecord
100
AcDbLayerTableRecord
  2
SOLBET_Ramka_05
 70
     0
 62
     2
  6
Continuous
370
    -3
390
F
1001
AcAecLayerStandard
1000

1000

  0
LAYER
  5
472
330
2
100
AcDbSymbolTableRecord
100
AcDbLayerTableRecord
  2
SOLBET_Zaprawy
 70
     0
 62
     4
  6
Continuous
370
    -3
390
F
1001
AcAecLayerStandard
1000

1000

  0
LAYER
  5
4E2
330
2
100
AcDbSymbolTableRecord
100
AcDbLayerTableRecord
  2
SOLBET_Emulsje_Folie
 70
     0
 62
     6
  6
Continuous
370
    -3
390
F
1001
AcAecLayerStandard
1000

1000

  0
LAYER
  5
2316
330
2
100
AcDbSymbolTableRecord
100
AcDbLayerTableRecord
  2
SOLBET_Stolarka_Okna
 70
     0
 62
     2
  6
Continuous
370
    -3
390
F
1001
AcAecLayerStandard
1000

1000

  0
LAYER
  5
384A
330
2
100
AcDbSymbolTableRecord
100
AcDbLayerTableRecord
  2
SOLBET_Beton
 70
     0
 62
     9
  6
Continuous
370
    -3
390
F
1001
AcAecLayerStandard
1000

1000

  0
LAYER
  5
3A4C
102
{ACAD_XDICTIONARY
360
3A4D
102
}
330
2
100
AcDbSymbolTableRecord
100
AcDbLayerTableRecord
  2
SOLBET_Wymiary_Opisy @ 1
 70
     0
 62
     1
  6
Continuous
370
    -3
390
F
1001
AcAecLayerStandard
1000

1000

1001
AcadAnnotativeDecomposition
1000
AnnotativeData
1002
{
1070
     1
1070
     1
1002
}
  0
ENDTAB
  0
TABLE
  2
STYLE
  5
3
330
0
100
AcDbSymbolTable
 70
     4
  0
STYLE
  5
11
330
3
100
AcDbSymbolTableRecord
100
AcDbTextStyleTableRecord
  2
Standard
 70
     0
 40
0.0
 41
1.0
 50
0.0
 71
     0
 42
2.5
  3
txt.shx
  4

  0
STYLE
  5
7D7
330
3
100
AcDbSymbolTableRecord
100
AcDbTextStyleTableRecord
  2
Solbet_5
 70
     0
 40
5.0
 41
1.0
 50
0.0
 71
     0
 42
5.0
  3
isocpeur.ttf
  4

1001
ACAD
1000
ISOCPEUR
1071
       34
  0
STYLE
  5
7D9
330
3
100
AcDbSymbolTableRecord
100
AcDbTextStyleTableRecord
  2
Solbet_2_5
 70
     0
 40
2.5
 41
1.0
 50
0.0
 71
     0
 42
2.5
  3
isocpeur.ttf
  4

1001
ACAD
1000
ISOCPEUR
1071
       34
  0
STYLE
  5
7E7
330
3
100
AcDbSymbolTableRecord
100
AcDbTextStyleTableRecord
  2

 70
     1
 40
0.0
 41
1.0
 50
0.0
 71
     0
 42
2.5
  3
ltypeshp.shx
  4

  0
ENDTAB
  0
TABLE
  2
VIEW
  5
6
330
0
100
AcDbSymbolTable
 70
     0
  0
ENDTAB
  0
TABLE
  2
UCS
  5
7
330
0
100
AcDbSymbolTable
 70
     0
  0
ENDTAB
  0
TABLE
  2
APPID
  5
9
330
0
100
AcDbSymbolTable
 70
    13
  0
APPID
  5
12
330
9
100
AcDbSymbolTableRecord
100
AcDbRegAppTableRecord
  2
ACAD
 70
     0
  0
APPID
  5
9E
330
9
100
AcDbSymbolTableRecord
100
AcDbRegAppTableRecord
  2
ACAD_PSEXT
 70
     0
  0
APPID
  5
133
330
9
100
AcDbSymbolTableRecord
100
AcDbRegAppTableRecord
  2
AcadAnnoPO
 70
     0
  0
APPID
  5
134
330
9
100
AcDbSymbolTableRecord
100
AcDbRegAppTableRecord
  2
AcadAnnotative
 70
     0
  0
APPID
  5
135
330
9
100
AcDbSymbolTableRecord
100
AcDbRegAppTableRecord
  2
ACAD_DSTYLE_DIMJAG
 70
     0
  0
APPID
  5
136
330
9
100
AcDbSymbolTableRecord
100
AcDbRegAppTableRecord
  2
ACAD_DSTYLE_DIMTALN
 70
     0
  0
APPID
  5
165
330
9
100
AcDbSymbolTableRecord
100
AcDbRegAppTableRecord
  2
ACAD_MLEADERVER
 70
     0
  0
APPID
  5
2C4
330
9
100
AcDbSymbolTableRecord
100
AcDbRegAppTableRecord
  2
ASO_SCHRAFF
 70
     0
  0
APPID
  5
3DE
330
9
100
AcDbSymbolTableRecord
100
AcDbRegAppTableRecord
  2
AcAecLayerStandard
 70
     0
  0
APPID
  5
7DE
330
9
100
AcDbSymbolTableRecord
100
AcDbRegAppTableRecord
  2
ACAD_EXEMPT_FROM_CAD_STANDARDS
 70
     0
  0
APPID
  5
948
330
9
100
AcDbSymbolTableRecord
100
AcDbRegAppTableRecord
  2
ACAD_DSTYLE_DIMBREAK
 70
     0
  0
APPID
  5
1D0A
330
9
100
AcDbSymbolTableRecord
100
AcDbRegAppTableRecord
  2
AcadAnnotativeDecomposition
 70
     0
  0
APPID
  5
2274
330
9
100
AcDbSymbolTableRecord
100
AcDbRegAppTableRecord
  2
AcDbAttr
 70
     0
  0
ENDTAB
  0
TABLE
  2
DIMSTYLE
  5
A
330
0
100
AcDbSymbolTable
 70
     2
100
AcDbDimStyleTable
 71
     1
340
949
  0
DIMSTYLE
105
949
330
A
100
AcDbSymbolTableRecord
100
AcDbDimStyleTableRecord
  2
Solbet
 70
     0
 41
2.5
 42
0.0
 43
3.75
 44
1.25
 73
     0
 74
     0
 77
     1
 78
     8
140
2.5
141
2.5
143
0.03937007874016
147
0.625
171
     3
172
     1
271
     2
272
     2
274
     3
278
    44
283
     0
284
     8
340
7D9
1001
ACAD_DSTYLE_DIMBREAK
1070
   391
1040
3.75
1001
ACAD_DSTYLE_DIMJAG
1070
   388
1040
1.5
1001
ACAD_DSTYLE_DIMTALN
1070
   392
1070
     0
  0
DIMSTYLE
105
954
330
A
100
AcDbSymbolTableRecord
100
AcDbDimStyleTableRecord
  2
Solbet$7
 70
     0
 41
2.5
 42
0.0
 43
3.75
 44
1.25
 73
     0
 74
     0
 77
     1
 78
     8
140
2.5
141
2.5
143
0.03937007874016
147
0.625
171
     3
172
     1
271
     2
272
     2
274
     3
278
    44
283
     0
284
     8
340
7D9
341
958
1001
ACAD_DSTYLE_DIMBREAK
1070
   391
1040
3.75
1001
ACAD_DSTYLE_DIMJAG
1070
   388
1040
1.5
1001
ACAD_DSTYLE_DIMTALN
1070
   392
1070
     0
  0
ENDTAB
  0
TABLE
  2
BLOCK_RECORD
  5
1
330
0
100
AcDbSymbolTable
 70
     6
  0
BLOCK_RECORD
  5
1F
102
{ACAD_XDICTIONARY
360
4A3
102
}
330
1
100
AcDbSymbolTableRecord
100
AcDbBlockTableRecord
  2
*Model_Space
340
22
  0
BLOCK_RECORD
  5
D2
330
1
100
AcDbSymbolTableRecord
100
AcDbBlockTableRecord
  2
*Paper_Space
340
D3
  0
BLOCK_RECORD
  5
D6
330
1
100
AcDbSymbolTableRecord
100
AcDbBlockTableRecord
  2
*Paper_Space0
340
D7
  0
BLOCK_RECORD
  5
958
330
1
100
AcDbSymbolTableRecord
100
AcDbBlockTableRecord
  2
_DotSmall
340
0
102
{BLKREFS
331
3821
331
3824
331
382D
331
3948
331
394D
102
}
  0
BLOCK_RECORD
  5
24E6
330
1
100
AcDbSymbolTableRecord
100
AcDbBlockTableRecord
  2
*X2
340
0
102
{BLKREFS
331
3807
102
}
  0
BLOCK_RECORD
  5
2E95
330
1
100
AcDbSymbolTableRecord
100
AcDbBlockTableRecord
  2
*X3
340
0
102
{BLKREFS
331
37CC
102
}
  0
BLOCK_RECORD
  5
2F25
330
1
100
AcDbSymbolTableRecord
100
AcDbBlockTableRecord
  2
*U4
340
0
102
{BLKREFS
331
378C
102
}
  0
ENDTAB
  0
ENDSEC
  0
SECTION
  2
BLOCKS
  0
BLOCK
  5
20
330
1F
100
AcDbEntity
  8
0
100
AcDbBlockBegin
  2
*Model_Space
 70
     0
 10
0.0
 20
0.0
 30
0.0
  3
*Model_Space
  1

  0
ENDBLK
  5
21
330
1F
100
AcDbEntity
  8
0
100
AcDbBlockEnd
  0
BLOCK
  5
D4
330
D2
100
AcDbEntity
 67
     1
  8
0
100
AcDbBlockBegin
  2
*Paper_Space
 70
     0
 10
0.0
 20
0.0
 30
0.0
  3
*Paper_Space
  1

  0
ENDBLK
  5
D5
330
D2
100
AcDbEntity
 67
     1
  8
0
100
AcDbBlockEnd
  0
BLOCK
  5
D8
330
D6
100
AcDbEntity
 67
     1
  8
0
100
AcDbBlockBegin
  2
*Paper_Space0
 70
     0
 10
0.0
 20
0.0
 30
0.0
  3
*Paper_Space0
  1

  0
ENDBLK
  5
D9
330
D6
100
AcDbEntity
 67
     1
  8
0
100
AcDbBlockEnd
  0
BLOCK
  5
95A
330
958
100
AcDbEntity
  8
0
100
AcDbBlockBegin
  2
_DotSmall
 70
     0
 10
0.0
 20
0.0
 30
0.0
  3
_DotSmall
  1

  0
LWPOLYLINE
  5
959
330
958
100
AcDbEntity
  8
0
  6
ByBlock
 62
     0
100
AcDbPolyline
 90
        2
 70
     1
 43
0.5
 10
-0.0625
 20
0.0
 42
1.0
 10
0.0625
 20
0.0
 42
1.0
  0
ENDBLK
  5
95B
330
958
100
AcDbEntity
  8
0
100
AcDbBlockEnd
  0
BLOCK
  5
24E7
330
24E6
100
AcDbEntity
  8
0
100
AcDbBlockBegin
  2
*X2
 70
     1
 10
0.0
 20
0.0
 30
0.0
  3
*X2
  1
ASOWDBLK
  0
LINE
  5
24E8
330
24E6
100
AcDbEntity
  8
0
 62
     0
100
AcDbLine
 10
12.3679971441842
 20
9.463695206850969
 30
0.0
 11
12.37947492774574
 21
9.477373896645453
 31
0.0
  0
LINE
  5
24E9
330
24E6
100
AcDbEntity
  8
0
 62
     0
100
AcDbLine
 10
12.54731218983439
 20
9.448007173105322
 30
0.0
 11
12.55936445751601
 21
9.462370506413803
 31
0.0
  0
LINE
  5
24EA
330
24E6
100
AcDbEntity
  8
0
 62
     0
100
AcDbLine
 10
12.36799714853588
 20
9.463695209658894
 30
0.0
 11
12.38294006900726
 21
9.462387873517679
 31
0.0
  0
LINE
  5
24EB
330
24E6
100
AcDbEntity
  8
0
 62
     0
100
AcDbLine
 10
12.54731219419239
 20
9.448007175964315
 30
0.0
 11
12.56225511466377
 21
9.4466998398231
 31
0.0
  0
LINE
  5
24EC
330
24E6
100
AcDbEntity
  8
0
 62
     0
100
AcDbLine
 10
12.38294734493005
 20
9.4623781245925
 30
0.0
 11
12.38018119759329
 21
9.477373896645453
 31
0.0
  0
LINE
  5
24ED
330
24E6
100
AcDbEntity
  8
0
 62
     0
100
AcDbLine
 10
12.56226237690854
 20
9.446689950037018
 30
0.0
 11
12.55937173644585
 21
9.462360621258849
 31
0.0
  0
LINE
  5
24EE
330
24E6
100
AcDbEntity
  8
0
 62
     0
100
AcDbLine
 10
11.75616891039773
 20
9.427373896645452
 30
0.0
 11
11.76738393501053
 21
9.439062362340582
 31
0.0
  0
LINE
  5
24EF
330
24E6
100
AcDbEntity
  8
0
 62
     0
100
AcDbLine
 10
11.7687499570032
 20
9.427373896645452
 30
0.0
 11
11.76739122001888
 21
9.43905355256455
 31
0.0
  0
LINE
  5
24F0
330
24E6
100
AcDbEntity
  8
0
 62
     0
100
AcDbLine
 10
12.14321939628071
 20
9.427373896645452
 30
0.0
 11
12.16009382309612
 21
9.433851382211726
 31
0.0
  0
LINE
  5
24F1
330
24E6
100
AcDbEntity
  8
0
 62
     0
100
AcDbLine
 10
11.78330683110781
 20
9.447153917176395
 30
0.0
 11
11.80081146410463
 21
9.453873316230369
 31
0.0
  0
LINE
  5
24F2
330
24E6
100
AcDbEntity
  8
0
 62
     0
100
AcDbLine
 10
11.78330683628649
 20
9.447153915051121
 30
0.0
 11
11.79574239987482
 21
9.438766021499059
 31
0.0
  0
LINE
  5
24F3
330
24E6
100
AcDbEntity
  8
0
 62
     0
100
AcDbLine
 10
12.15793081287172
 20
9.427373896645452
 30
0.0
 11
12.16010106960009
 21
9.433841872497813
 31
0.0
  0
LINE
  5
24F4
330
24E6
100
AcDbEntity
  8
0
 62
     0
100
AcDbLine
 10
11.79574964859947
 20
9.438756799333843
 30
0.0
 11
11.8008187296486
 21
9.453864087513544
 31
0.0
  0
LINE
  5
24F5
330
24E6
100
AcDbEntity
  8
0
 62
     0
100
AcDbLine
 10
12.20471516834098
 20
9.445898146433325
 30
0.0
 11
12.20471516834098
 21
9.445898146433325
 31
0.0
  0
LINE
  5
24F6
330
24E6
100
AcDbEntity
  8
0
 62
     0
100
AcDbLine
 10
12.07635598518457
 20
9.428295498211584
 30
0.0
 11
12.07635598518457
 21
9.428295498211584
 31
0.0
  0
LINE
  5
24F7
330
24E6
100
AcDbEntity
  8
0
 62
     0
100
AcDbLine
 10
11.82327259770628
 20
9.476770236297685
 30
0.0
 11
11.82327259770628
 21
9.476770236297685
 31
0.0
  0
LINE
  5
24F8
330
24E6
100
AcDbEntity
  8
0
 62
     0
100
AcDbLine
 10
11.69491341454987
 20
9.459167588075944
 30
0.0
 11
11.69491341454987
 21
9.459167588075944
 31
0.0
  0
LINE
  5
24F9
330
24E6
100
AcDbEntity
  8
0
 62
     0
100
AcDbLine
 10
11.56506669388041
 20
9.44042351217481
 30
0.0
 11
11.56506669388041
 21
9.44042351217481
 31
0.0
  0
LINE
  5
24FA
330
24E6
100
AcDbEntity
  8
0
 62
     0
100
AcDbLine
 10
12.33099179897913
 20
9.461902795903919
 30
0.0
 11
12.33099179897913
 21
9.461902795903919
 31
0.0
  0
LINE
  5
24FB
330
24E6
100
AcDbEntity
  8
0
 62
     0
100
AcDbLine
 10
12.27744372398571
 20
9.441526547948372
 30
0.0
 11
12.27744372398571
 21
9.441526547948372
 31
0.0
  0
LINE
  5
24FC
330
24E6
100
AcDbEntity
  8
0
 62
     0
100
AcDbLine
 10
12.34002868085993
 20
9.449766013832263
 30
0.0
 11
12.34002868085993
 21
9.449766013832263
 31
0.0
  0
LINE
  5
24FD
330
24E6
100
AcDbEntity
  8
0
 62
     0
100
AcDbLine
 10
12.43471166512113
 20
9.462231265189277
 30
0.0
 11
12.43471166512113
 21
9.462231265189277
 31
0.0
  0
LINE
  5
24FE
330
24E6
100
AcDbEntity
  8
0
 62
     0
100
AcDbLine
 10
11.55501244355407
 20
9.436361153104019
 30
0.0
 11
11.55501244355407
 21
9.436361153104019
 31
0.0
  0
LINE
  5
24FF
330
24E6
100
AcDbEntity
  8
0
 62
     0
100
AcDbLine
 10
11.71290003772785
 20
9.457147449215062
 30
0.0
 11
11.71290003772785
 21
9.457147449215062
 31
0.0
  0
LINE
  5
2500
330
24E6
100
AcDbEntity
  8
0
 62
     0
100
AcDbLine
 10
11.77548499460207
 20
9.465386915098953
 30
0.0
 11
11.77548499460207
 21
9.465386915098953
 31
0.0
  0
LINE
  5
2501
330
24E6
100
AcDbEntity
  8
0
 62
     0
100
AcDbLine
 10
12.00720232847171
 20
9.461538266747048
 30
0.0
 11
12.00720232847171
 21
9.461538266747048
 31
0.0
  0
LINE
  5
2502
330
24E6
100
AcDbEntity
  8
0
 62
     0
100
AcDbLine
 10
12.14065793751482
 20
9.455899548813453
 30
0.0
 11
12.14065793751482
 21
9.455899548813453
 31
0.0
  0
LINE
  5
2503
330
24E6
100
AcDbEntity
  8
0
 62
     0
100
AcDbLine
 10
12.27411354655792
 20
9.450260830879859
 30
0.0
 11
12.27411354655792
 21
9.450260830879859
 31
0.0
  0
LINE
  5
2504
330
24E6
100
AcDbEntity
  8
0
 62
     0
100
AcDbLine
 10
12.40756915560102
 20
9.444622112946266
 30
0.0
 11
12.40756915560102
 21
9.444622112946266
 31
0.0
  0
LINE
  5
2505
330
24E6
100
AcDbEntity
  8
0
 62
     0
100
AcDbLine
 10
12.54102476464413
 20
9.438983395012668
 30
0.0
 11
12.54102476464413
 21
9.438983395012668
 31
0.0
  0
LINE
  5
2506
330
24E6
100
AcDbEntity
  8
0
 62
     0
100
AcDbLine
 10
12.67448037368723
 20
9.433344677079073
 30
0.0
 11
12.67448037368723
 21
9.433344677079073
 31
0.0
  0
LINE
  5
2507
330
24E6
100
AcDbEntity
  8
0
 62
     0
100
AcDbLine
 10
11.87374671942861
 20
9.467176984680643
 30
0.0
 11
11.87374671942861
 21
9.467176984680643
 31
0.0
  0
LINE
  5
2508
330
24E6
100
AcDbEntity
  8
0
 62
     0
100
AcDbLine
 10
11.74029111038551
 20
9.472815702614237
 30
0.0
 11
11.74029111038551
 21
9.472815702614237
 31
0.0
  0
LINE
  5
2509
330
24E6
100
AcDbEntity
  8
0
 62
     0
100
AcDbLine
 10
12.47470767275208
 20
9.433432165767177
 30
0.0
 11
12.47470767275208
 21
9.433432165767177
 31
0.0
  0
LINE
  5
250A
330
24E6
100
AcDbEntity
  8
0
 62
     0
100
AcDbLine
 10
12.62050421508768
 20
9.458458411350253
 30
0.0
 11
12.62050421508768
 21
9.458458411350253
 31
0.0
  0
LINE
  5
250B
330
24E6
100
AcDbEntity
  8
0
 62
     0
100
AcDbLine
 10
11.75604679277084
 20
9.457466884084235
 30
0.0
 11
11.75604679277084
 21
9.457466884084235
 31
0.0
  0
LINE
  5
250C
330
24E6
100
AcDbEntity
  8
0
 62
     0
100
AcDbLine
 10
11.61025025043524
 20
9.432440638501157
 30
0.0
 11
11.61025025043524
 21
9.432440638501157
 31
0.0
  0
ENDBLK
  5
250D
330
24E6
100
AcDbEntity
  8
0
100
AcDbBlockEnd
  0
BLOCK
  5
2E96
330
2E95
100
AcDbEntity
  8
0
100
AcDbBlockBegin
  2
*X3
 70
     1
 10
0.0
 20
0.0
 30
0.0
  3
*X3
  1
ASOWDBLK
  0
LINE
  5
2E97
330
2E95
100
AcDbEntity
  8
0
 62
     0
100
AcDbLine
 10
11.99304811965889
 20
9.120426821088543
 30
0.0
 11
12.03304811965889
 21
9.16042682108854
 31
0.0
  0
LINE
  5
2E98
330
2E95
100
AcDbEntity
  8
0
 62
     0
100
AcDbLine
 10
11.94885394583473
 20
9.120426821088543
 30
0.0
 11
11.98885394583473
 21
9.16042682108854
 31
0.0
  0
LINE
  5
2E99
330
2E95
100
AcDbEntity
  8
0
 62
     0
100
AcDbLine
 10
11.90465977201057
 20
9.120426821088543
 30
0.0
 11
11.94465977201057
 21
9.16042682108854
 31
0.0
  0
LINE
  5
2E9A
330
2E95
100
AcDbEntity
  8
0
 62
     0
100
AcDbLine
 10
11.86046559818641
 20
9.120426821088543
 30
0.0
 11
11.90046559818641
 21
9.16042682108854
 31
0.0
  0
LINE
  5
2E9B
330
2E95
100
AcDbEntity
  8
0
 62
     0
100
AcDbLine
 10
11.81627142436225
 20
9.120426821088543
 30
0.0
 11
11.85627142436225
 21
9.16042682108854
 31
0.0
  0
LINE
  5
2E9C
330
2E95
100
AcDbEntity
  8
0
 62
     0
100
AcDbLine
 10
11.77207725053809
 20
9.120426821088543
 30
0.0
 11
11.81207725053809
 21
9.16042682108854
 31
0.0
  0
LINE
  5
2E9D
330
2E95
100
AcDbEntity
  8
0
 62
     0
100
AcDbLine
 10
11.72788307671393
 20
9.120426821088543
 30
0.0
 11
11.76788307671393
 21
9.16042682108854
 31
0.0
  0
LINE
  5
2E9E
330
2E95
100
AcDbEntity
  8
0
 62
     0
100
AcDbLine
 10
11.68368890288977
 20
9.120426821088543
 30
0.0
 11
11.72368890288977
 21
9.16042682108854
 31
0.0
  0
LINE
  5
2E9F
330
2E95
100
AcDbEntity
  8
0
 62
     0
100
AcDbLine
 10
11.63949472906562
 20
9.120426821088543
 30
0.0
 11
11.67949472906562
 21
9.16042682108854
 31
0.0
  0
LINE
  5
2EA0
330
2E95
100
AcDbEntity
  8
0
 62
     0
100
AcDbLine
 10
11.59530055524146
 20
9.120426821088543
 30
0.0
 11
11.63530055524145
 21
9.16042682108854
 31
0.0
  0
LINE
  5
2EA1
330
2E95
100
AcDbEntity
  8
0
 62
     0
100
AcDbLine
 10
11.5511063814173
 20
9.120426821088543
 30
0.0
 11
11.59110638141729
 21
9.16042682108854
 31
0.0
  0
LINE
  5
2EA2
330
2E95
100
AcDbEntity
  8
0
 62
     0
100
AcDbLine
 10
11.50691220759314
 20
9.120426821088543
 30
0.0
 11
11.54691220759314
 21
9.16042682108854
 31
0.0
  0
LINE
  5
2EA3
330
2E95
100
AcDbEntity
  8
0
 62
     0
100
AcDbLine
 10
11.46271803376898
 20
9.120426821088543
 30
0.0
 11
11.50271803376898
 21
9.16042682108854
 31
0.0
  0
LINE
  5
2EA4
330
2E95
100
AcDbEntity
  8
0
 62
     0
100
AcDbLine
 10
11.41852385994482
 20
9.120426821088543
 30
0.0
 11
11.45852385994482
 21
9.16042682108854
 31
0.0
  0
LINE
  5
2EA5
330
2E95
100
AcDbEntity
  8
0
 62
     0
100
AcDbLine
 10
11.39401831761913
 20
9.140115452587011
 30
0.0
 11
11.41432968612066
 21
9.16042682108854
 31
0.0
  0
LINE
  5
2EA6
330
2E95
100
AcDbEntity
  8
0
 62
     0
100
AcDbLine
 10
12.03724229348305
 20
9.120426821088543
 30
0.0
 11
12.07724229348305
 21
9.16042682108854
 31
0.0
  0
LINE
  5
2EA7
330
2E95
100
AcDbEntity
  8
0
 62
     0
100
AcDbLine
 10
12.08143646730721
 20
9.120426821088543
 30
0.0
 11
12.12143646730721
 21
9.16042682108854
 31
0.0
  0
LINE
  5
2EA8
330
2E95
100
AcDbEntity
  8
0
 62
     0
100
AcDbLine
 10
12.12563064113137
 20
9.120426821088543
 30
0.0
 11
12.16563064113137
 21
9.16042682108854
 31
0.0
  0
LINE
  5
2EA9
330
2E95
100
AcDbEntity
  8
0
 62
     0
100
AcDbLine
 10
12.16982481495553
 20
9.120426821088543
 30
0.0
 11
12.20982481495552
 21
9.16042682108854
 31
0.0
  0
LINE
  5
2EAA
330
2E95
100
AcDbEntity
  8
0
 62
     0
100
AcDbLine
 10
12.21401898877969
 20
9.120426821088543
 30
0.0
 11
12.25401898877968
 21
9.16042682108854
 31
0.0
  0
LINE
  5
2EAB
330
2E95
100
AcDbEntity
  8
0
 62
     0
100
AcDbLine
 10
12.25821316260385
 20
9.120426821088543
 30
0.0
 11
12.29821316260384
 21
9.16042682108854
 31
0.0
  0
LINE
  5
2EAC
330
2E95
100
AcDbEntity
  8
0
 62
     0
100
AcDbLine
 10
12.302407336428
 20
9.120426821088543
 30
0.0
 11
12.342407336428
 21
9.16042682108854
 31
0.0
  0
LINE
  5
2EAD
330
2E95
100
AcDbEntity
  8
0
 62
     0
100
AcDbLine
 10
12.34660151025216
 20
9.120426821088543
 30
0.0
 11
12.38660151025216
 21
9.16042682108854
 31
0.0
  0
LINE
  5
2EAE
330
2E95
100
AcDbEntity
  8
0
 62
     0
100
AcDbLine
 10
12.39079568407632
 20
9.120426821088543
 30
0.0
 11
12.43079568407632
 21
9.16042682108854
 31
0.0
  0
LINE
  5
2EAF
330
2E95
100
AcDbEntity
  8
0
 62
     0
100
AcDbLine
 10
12.43498985790048
 20
9.120426821088543
 30
0.0
 11
12.47498985790048
 21
9.16042682108854
 31
0.0
  0
LINE
  5
2EB0
330
2E95
100
AcDbEntity
  8
0
 62
     0
100
AcDbLine
 10
12.47918403172464
 20
9.120426821088543
 30
0.0
 11
12.51918403172464
 21
9.16042682108854
 31
0.0
  0
LINE
  5
2EB1
330
2E95
100
AcDbEntity
  8
0
 62
     0
100
AcDbLine
 10
12.5233782055488
 20
9.120426821088543
 30
0.0
 11
12.5633782055488
 21
9.16042682108854
 31
0.0
  0
LINE
  5
2EB2
330
2E95
100
AcDbEntity
  8
0
 62
     0
100
AcDbLine
 10
12.56757237937296
 20
9.120426821088543
 30
0.0
 11
12.60757237937296
 21
9.16042682108854
 31
0.0
  0
LINE
  5
2EB3
330
2E95
100
AcDbEntity
  8
0
 62
     0
100
AcDbLine
 10
12.61176655319712
 20
9.120426821088543
 30
0.0
 11
12.65176655319712
 21
9.16042682108854
 31
0.0
  0
LINE
  5
2EB4
330
2E95
100
AcDbEntity
  8
0
 62
     0
100
AcDbLine
 10
12.65596072702128
 20
9.120426821088543
 30
0.0
 11
12.68399674713724
 21
9.1484628412045
 31
0.0
  0
LINE
  5
2EB5
330
2E95
100
AcDbEntity
  8
0
 62
     0
100
AcDbLine
 10
12.04858244068372
 20
9.120426821088543
 30
0.0
 11
12.00858244068372
 21
9.16042682108854
 31
0.0
  0
LINE
  5
2EB6
330
2E95
100
AcDbEntity
  8
0
 62
     0
100
AcDbLine
 10
12.00438826685956
 20
9.120426821088543
 30
0.0
 11
11.96438826685956
 21
9.16042682108854
 31
0.0
  0
LINE
  5
2EB7
330
2E95
100
AcDbEntity
  8
0
 62
     0
100
AcDbLine
 10
11.9601940930354
 20
9.120426821088543
 30
0.0
 11
11.9201940930354
 21
9.16042682108854
 31
0.0
  0
LINE
  5
2EB8
330
2E95
100
AcDbEntity
  8
0
 62
     0
100
AcDbLine
 10
11.91599991921124
 20
9.120426821088543
 30
0.0
 11
11.87599991921124
 21
9.16042682108854
 31
0.0
  0
LINE
  5
2EB9
330
2E95
100
AcDbEntity
  8
0
 62
     0
100
AcDbLine
 10
11.87180574538708
 20
9.120426821088543
 30
0.0
 11
11.83180574538708
 21
9.16042682108854
 31
0.0
  0
LINE
  5
2EBA
330
2E95
100
AcDbEntity
  8
0
 62
     0
100
AcDbLine
 10
11.82761157156292
 20
9.120426821088543
 30
0.0
 11
11.78761157156293
 21
9.16042682108854
 31
0.0
  0
LINE
  5
2EBB
330
2E95
100
AcDbEntity
  8
0
 62
     0
100
AcDbLine
 10
11.78341739773876
 20
9.120426821088543
 30
0.0
 11
11.74341739773877
 21
9.16042682108854
 31
0.0
  0
LINE
  5
2EBC
330
2E95
100
AcDbEntity
  8
0
 62
     0
100
AcDbLine
 10
11.7392232239146
 20
9.120426821088543
 30
0.0
 11
11.69922322391461
 21
9.16042682108854
 31
0.0
  0
LINE
  5
2EBD
330
2E95
100
AcDbEntity
  8
0
 62
     0
100
AcDbLine
 10
11.69502905009045
 20
9.120426821088543
 30
0.0
 11
11.65502905009045
 21
9.16042682108854
 31
0.0
  0
LINE
  5
2EBE
330
2E95
100
AcDbEntity
  8
0
 62
     0
100
AcDbLine
 10
11.65083487626629
 20
9.120426821088543
 30
0.0
 11
11.61083487626629
 21
9.16042682108854
 31
0.0
  0
LINE
  5
2EBF
330
2E95
100
AcDbEntity
  8
0
 62
     0
100
AcDbLine
 10
11.60664070244213
 20
9.120426821088543
 30
0.0
 11
11.56664070244213
 21
9.16042682108854
 31
0.0
  0
LINE
  5
2EC0
330
2E95
100
AcDbEntity
  8
0
 62
     0
100
AcDbLine
 10
11.56244652861797
 20
9.120426821088543
 30
0.0
 11
11.52244652861797
 21
9.16042682108854
 31
0.0
  0
LINE
  5
2EC1
330
2E95
100
AcDbEntity
  8
0
 62
     0
100
AcDbLine
 10
11.51825235479381
 20
9.120426821088543
 30
0.0
 11
11.47825235479381
 21
9.16042682108854
 31
0.0
  0
LINE
  5
2EC2
330
2E95
100
AcDbEntity
  8
0
 62
     0
100
AcDbLine
 10
11.47405818096965
 20
9.120426821088543
 30
0.0
 11
11.43405818096965
 21
9.16042682108854
 31
0.0
  0
LINE
  5
2EC3
330
2E95
100
AcDbEntity
  8
0
 62
     0
100
AcDbLine
 10
11.42986400714549
 20
9.120426821088543
 30
0.0
 11
11.39401831761913
 21
9.156272510614906
 31
0.0
  0
LINE
  5
2EC4
330
2E95
100
AcDbEntity
  8
0
 62
     0
100
AcDbLine
 10
12.09277661450788
 20
9.120426821088543
 30
0.0
 11
12.05277661450788
 21
9.16042682108854
 31
0.0
  0
LINE
  5
2EC5
330
2E95
100
AcDbEntity
  8
0
 62
     0
100
AcDbLine
 10
12.13697078833203
 20
9.120426821088543
 30
0.0
 11
12.09697078833204
 21
9.16042682108854
 31
0.0
  0
LINE
  5
2EC6
330
2E95
100
AcDbEntity
  8
0
 62
     0
100
AcDbLine
 10
12.1811649621562
 20
9.120426821088543
 30
0.0
 11
12.1411649621562
 21
9.16042682108854
 31
0.0
  0
LINE
  5
2EC7
330
2E95
100
AcDbEntity
  8
0
 62
     0
100
AcDbLine
 10
12.22535913598036
 20
9.120426821088543
 30
0.0
 11
12.18535913598036
 21
9.16042682108854
 31
0.0
  0
LINE
  5
2EC8
330
2E95
100
AcDbEntity
  8
0
 62
     0
100
AcDbLine
 10
12.26955330980451
 20
9.120426821088543
 30
0.0
 11
12.22955330980451
 21
9.16042682108854
 31
0.0
  0
LINE
  5
2EC9
330
2E95
100
AcDbEntity
  8
0
 62
     0
100
AcDbLine
 10
12.31374748362867
 20
9.120426821088543
 30
0.0
 11
12.27374748362868
 21
9.16042682108854
 31
0.0
  0
LINE
  5
2ECA
330
2E95
100
AcDbEntity
  8
0
 62
     0
100
AcDbLine
 10
12.35794165745283
 20
9.120426821088543
 30
0.0
 11
12.31794165745283
 21
9.16042682108854
 31
0.0
  0
LINE
  5
2ECB
330
2E95
100
AcDbEntity
  8
0
 62
     0
100
AcDbLine
 10
12.40213583127699
 20
9.120426821088543
 30
0.0
 11
12.36213583127699
 21
9.16042682108854
 31
0.0
  0
LINE
  5
2ECC
330
2E95
100
AcDbEntity
  8
0
 62
     0
100
AcDbLine
 10
12.44633000510115
 20
9.120426821088543
 30
0.0
 11
12.40633000510115
 21
9.16042682108854
 31
0.0
  0
LINE
  5
2ECD
330
2E95
100
AcDbEntity
  8
0
 62
     0
100
AcDbLine
 10
12.49052417892531
 20
9.120426821088543
 30
0.0
 11
12.45052417892531
 21
9.16042682108854
 31
0.0
  0
LINE
  5
2ECE
330
2E95
100
AcDbEntity
  8
0
 62
     0
100
AcDbLine
 10
12.53471835274947
 20
9.120426821088543
 30
0.0
 11
12.49471835274947
 21
9.16042682108854
 31
0.0
  0
LINE
  5
2ECF
330
2E95
100
AcDbEntity
  8
0
 62
     0
100
AcDbLine
 10
12.57891252657363
 20
9.120426821088543
 30
0.0
 11
12.53891252657363
 21
9.16042682108854
 31
0.0
  0
LINE
  5
2ED0
330
2E95
100
AcDbEntity
  8
0
 62
     0
100
AcDbLine
 10
12.62310670039779
 20
9.120426821088543
 30
0.0
 11
12.58310670039779
 21
9.16042682108854
 31
0.0
  0
LINE
  5
2ED1
330
2E95
100
AcDbEntity
  8
0
 62
     0
100
AcDbLine
 10
12.66730087422195
 20
9.120426821088543
 30
0.0
 11
12.62730087422195
 21
9.16042682108854
 31
0.0
  0
LINE
  5
2ED2
330
2E95
100
AcDbEntity
  8
0
 62
     0
100
AcDbLine
 10
12.68399674713724
 20
9.147925121997415
 30
0.0
 11
12.67149504804611
 21
9.16042682108854
 31
0.0
  0
ENDBLK
  5
2ED3
330
2E95
100
AcDbEntity
  8
0
100
AcDbBlockEnd
  0
BLOCK
  5
2F26
330
2F25
100
AcDbEntity
  8
0
100
AcDbBlockBegin
  2
*U4
 70
     1
 10
0.0
 20
0.0
 30
0.0
  3
*U4
  1
*ANON
  0
ARC
  5
2F27
330
2F25
100
AcDbEntity
  8
0
  6
ByBlock
 62
     0
100
AcDbCircle
 10
3.497306662820999
 20
9.701238865957224
 30
0.0
 40
0.0606666666666669
100
AcDbArc
 50
230.2848627681367
 51
270.0
  0
ARC
  5
2F28
330
2F25
100
AcDbEntity
  8
0
  6
ByBlock
 62
     0
100
AcDbCircle
 10
3.497306662820999
 20
9.701238865957224
 30
0.0
 40
0.0886666666666669
100
AcDbArc
 50
211.7568638592842
 51
270.0
  0
ARC
  5
2F29
330
2F25
100
AcDbEntity
  8
0
  6
ByBlock
 62
     0
100
AcDbCircle
 10
3.497306662820999
 20
9.701238865957224
 30
0.0
 40
0.1166666666666668
100
AcDbArc
 50
203.5781784781894
 51
270.0
  0
ARC
  5
2F2A
330
2F25
100
AcDbEntity
  8
0
  6
ByBlock
 62
     0
100
AcDbCircle
 10
3.497306662820999
 20
9.701238865957224
 30
0.0
 40
0.1446666666666668
100
AcDbArc
 50
198.8190633689818
 51
270.0
  0
ARC
  5
2F2B
330
2F25
100
AcDbEntity
  8
0
  6
ByBlock
 62
     0
100
AcDbCircle
 10
3.497306662820999
 20
9.701238865957224
 30
0.0
 40
0.1726666666666669
100
AcDbArc
 50
215.8247743686515
 51
270.0
  0
ARC
  5
2F2C
330
2F25
100
AcDbEntity
  8
0
  6
ByBlock
 62
     0
100
AcDbCircle
 10
3.497306662820999
 20
9.701238865957224
 30
0.0
 40
0.2006666666666669
100
AcDbArc
 50
225.7592812097981
 51
248.4710955944323
  0
ARC
  5
2F2D
330
2F25
100
AcDbEntity
  8
0
  6
ByBlock
 62
     0
100
AcDbCircle
 10
3.497306662820999
 20
9.701238865957224
 30
0.0
 40
0.2286666666666668
100
AcDbArc
 50
232.2479986938277
 51
234.7187381727332
  0
ENDBLK
  5
2F2E
330
2F25
100
AcDbEntity
  8
0
100
AcDbBlockEnd
  0
ENDSEC
  0
SECTION
  2
ENTITIES
  0
LINE
  5
3746
330
1F
100
AcDbEntity
  8
SOLBET_Izolacja
100
AcDbLine
 10
89.29816336153772
 20
167.9034794465686
 30
0.0
 11
163.4921927079986
 21
203.5923817829851
 31
0.0
  0
LINE
  5
3747
330
1F
100
AcDbEntity
  8
SOLBET_Izolacja
100
AcDbLine
 10
97.49327123209424
 20
157.9745469078369
 30
0.0
 11
163.4921927079986
 21
189.721428477825
 31
0.0
  0
LINE
  5
3748
330
1F
100
AcDbEntity
  8
SOLBET_Izolacja
100
AcDbLine
 10
91.83205842746884
 20
162.6357387043502
 30
0.0
 11
89.29816336153725
 21
167.9034794465695
 31
0.0
  0
LWPOLYLINE
  5
3749
330
1F
100
AcDbEntity
  8
SOLBET_Wymiary_Opisy
100
AcDbPolyline
 90
        4
 70
     0
 43
0.0
 10
163.4921927079986
 20
209.41275257648
 10
146.0200115850521
 20
203.4196354929266
 10
145.8577851166074
 20
203.892586413145
 10
163.4921927079986
 20
209.9413486512793
  0
LWPOLYLINE
  5
374A
330
1F
100
AcDbEntity
  8
SOLBET_Wymiary_Opisy
100
AcDbPolyline
 90
        3
 70
     0
 43
0.0
 10
163.4921927079986
 20
209.041825611266
 10
162.6104632053129
 20
208.7393843700464
 10
162.4966254859491
 20
209.0712639618467
  0
LWPOLYLINE
  5
374B
330
1F
100
AcDbEntity
  8
SOLBET_Wymiary_Opisy
100
AcDbPolyline
 90
        4
 70
     0
 43
0.0
 10
163.4921927079986
 20
210.0901425763653
 10
147.0516533609616
 20
204.4508880076181
 10
146.8894268925169
 20
204.9238389278364
 10
163.4921927079986
 20
210.6187386511645
  0
LWPOLYLINE
  5
374C
330
1F
100
AcDbEntity
  8
SOLBET_Wymiary_Opisy
100
AcDbPolyline
 90
        5
 70
     0
 43
0.0
 10
161.4537977420577
 20
207.2725108650123
 10
162.8055433349937
 20
207.922729176037
 10
162.3070426298754
 20
208.9590674639506
 10
160.9552970369432
 20
208.3088491529259
 10
161.4537977420577
 20
207.2725108650123
  0
LWPOLYLINE
  5
374D
330
1F
100
AcDbEntity
  8
SOLBET_Wymiary_Opisy
100
AcDbPolyline
 90
        5
 70
     0
 43
0.0
 10
150.1892511343058
 20
201.8540249398045
 10
151.5409967272344
 20
202.5042432508297
 10
151.0424960221162
 20
203.5405815387429
 10
149.6907504291876
 20
202.8903632277182
 10
150.1892511343058
 20
201.8540249398045
  0
LWPOLYLINE
  5
374E
330
1F
100
AcDbEntity
  8
SOLBET_Wymiary_Opisy
100
AcDbPolyline
 90
        7
 70
     0
 43
0.0
 10
152.4003420982653
 20
204.0535029497485
 10
134.7554649773001
 20
198.0011495677193
 10
134.5932385088481
 20
198.4741004879377
 10
152.2381156298206
 20
204.5264538699665
 10
152.5141798176255
 20
203.7216233579477
 10
151.3459165975537
 20
203.3208984448386
 10
151.2320788781899
 20
203.6527780366394
  0
LWPOLYLINE
  5
374F
330
1F
100
AcDbEntity
  8
SOLBET_Wymiary_Opisy
100
AcDbPolyline
 90
        7
 70
     0
 43
0.0
 10
153.4319838741748
 20
205.08475546444
 10
135.7871067532096
 20
199.0324020824108
 10
135.6248802847576
 20
199.5053530026287
 10
153.2697574057301
 20
205.557706384658
 10
153.5458215935387
 20
204.7528758726388
 10
152.3775583734632
 20
204.3521509595301
 10
152.2637206540994
 20
204.6840305513309
  0
LWPOLYLINE
  5
3750
330
1F
100
AcDbEntity
  8
SOLBET_Wymiary_Opisy
100
AcDbPolyline
 90
        5
 70
     0
 43
0.0
 10
138.9247045265465
 20
196.4355390145968
 10
140.2764501194788
 20
197.0857573256219
 10
139.7779494143606
 20
198.1220956135356
 10
138.4262038214283
 20
197.4718773025109
 10
138.9247045265465
 20
196.4355390145968
  0
LWPOLYLINE
  5
3751
330
1F
100
AcDbEntity
  8
SOLBET_Wymiary_Opisy
100
AcDbPolyline
 90
        7
 70
     0
 43
0.0
 10
141.1357954905097
 20
198.6350170245412
 10
123.4909183695372
 20
192.5826636425116
 10
123.3286919010888
 20
193.05561456273
 10
140.9735690220614
 20
199.1079679447587
 10
141.2496332098735
 20
198.30313743274
 10
140.081369989798
 20
197.9024125196313
 10
139.9675322704379
 20
198.2342921114316
  0
LWPOLYLINE
  5
3752
330
1F
100
AcDbEntity
  8
SOLBET_Wymiary_Opisy
100
AcDbPolyline
 90
        7
 70
     0
 43
0.0
 10
142.1674372664192
 20
199.6662695392322
 10
124.5225601454504
 20
193.613916157203
 10
124.3603336770056
 20
194.0868670774214
 10
142.0052107979709
 20
200.1392204594507
 10
142.281274985783
 20
199.3343899474315
 10
141.1130117657076
 20
198.9336650343224
 10
140.9991740463474
 20
199.2655446261236
  0
LWPOLYLINE
  5
3753
330
1F
100
AcDbEntity
  8
SOLBET_Wymiary_Opisy
100
AcDbPolyline
 90
        5
 70
     0
 43
0.0
 10
127.6601579187909
 20
191.0170530893895
 10
129.0119035117195
 20
191.6672714004146
 10
128.5134028066013
 20
192.7036096883278
 10
127.161657213669
 20
192.0533913773031
 10
127.6601579187909
 20
191.0170530893895
  0
LWPOLYLINE
  5
3754
330
1F
100
AcDbEntity
  8
SOLBET_Wymiary_Opisy
100
AcDbPolyline
 90
        7
 70
     0
 43
0.0
 10
129.8712488827504
 20
193.2165310993335
 10
112.2263717617779
 20
187.1641777173043
 10
112.0641452933332
 20
187.6371286375227
 10
129.7090224143057
 20
193.6894820195514
 10
129.9850866021142
 20
192.8846515075327
 10
128.8168233820388
 20
192.4839265944236
 10
128.702985662675
 20
192.8158061862244
  0
LWPOLYLINE
  5
3755
330
1F
100
AcDbEntity
  8
SOLBET_Wymiary_Opisy
100
AcDbPolyline
 90
        7
 70
     0
 43
0.0
 10
130.90289065866
 20
194.2477836140249
 10
113.2580135376911
 20
188.1954302319958
 10
113.0957870692464
 20
188.6683811522137
 10
130.7406641902189
 20
194.7207345342429
 10
131.0167283780238
 20
193.9159040222237
 10
129.8484651579483
 20
193.5151791091151
 10
129.7346274385882
 20
193.8470587009158
  0
LWPOLYLINE
  5
3756
330
1F
100
AcDbEntity
  8
SOLBET_Wymiary_Opisy
100
AcDbPolyline
 90
        5
 70
     0
 43
0.0
 10
116.3956113110316
 20
185.5985671641823
 10
117.7473569039639
 20
186.2487854752069
 10
117.2488561988421
 20
187.2851237631205
 10
115.8971106059134
 20
186.6349054520954
 10
116.3956113110316
 20
185.5985671641823
  0
LWPOLYLINE
  5
3757
330
1F
100
AcDbEntity
  8
SOLBET_Wymiary_Opisy
100
AcDbPolyline
 90
        7
 70
     0
 43
0.0
 10
118.6067022749985
 20
187.7980451741262
 10
100.961825154026
 20
181.7456917920966
 10
100.7995986855739
 20
182.2186427123149
 10
118.4444758065465
 20
188.2709960943437
 10
118.720539994355
 20
187.466165582325
 10
117.5522767742795
 20
187.0654406692163
 10
117.438439054923
 20
187.3973202610166
  0
LWPOLYLINE
  5
3758
330
1F
100
AcDbEntity
  8
SOLBET_Wymiary_Opisy
100
AcDbPolyline
 90
        7
 70
     0
 43
0.0
 10
119.638344050908
 20
188.8292976888172
 10
101.9934669299355
 20
182.776944306788
 10
101.8312404614871
 20
183.249895227006
 10
119.476117582456
 20
189.3022486090356
 10
119.7521817702645
 20
188.4974180970164
 10
118.5839185501891
 20
188.0966931839073
 10
118.4700808308325
 20
188.4285727757085
  0
LWPOLYLINE
  5
3759
330
1F
100
AcDbEntity
  8
SOLBET_Wymiary_Opisy
100
AcDbPolyline
 90
        5
 70
     0
 43
0.0
 10
105.1310647032796
 20
180.1800812389745
 10
106.4828102962046
 20
180.8302995499996
 10
105.9843095910901
 20
181.8666378379128
 10
104.6325639981542
 20
181.2164195268881
 10
105.1310647032796
 20
180.1800812389745
  0
LWPOLYLINE
  5
375A
330
1F
100
AcDbEntity
  8
SOLBET_Wymiary_Opisy
100
AcDbPolyline
 90
        7
 70
     0
 43
0.0
 10
107.3421556672392
 20
182.3795592489185
 10
89.69727854626672
 20
176.3272058668893
 10
89.535052077822
 20
176.8001567871072
 10
107.1799291987945
 20
182.8525101691364
 10
107.4559933865994
 20
182.0476796571177
 10
106.2877301665275
 20
181.6469547440086
 10
106.1738924471637
 20
181.9788343358094
  0
LWPOLYLINE
  5
375B
330
1F
100
AcDbEntity
  8
SOLBET_Wymiary_Opisy
100
AcDbPolyline
 90
        7
 70
     0
 43
0.0
 10
108.3737974431487
 20
183.4108117636095
 10
90.72892032217623
 20
177.3584583815807
 10
90.56669385373153
 20
177.8314093017982
 10
108.211570974704
 20
183.8837626838279
 10
108.4876351625125
 20
183.0789321718087
 10
107.3193719424371
 20
182.6782072587
 10
107.2055342230733
 20
183.0100868505008
  0
LWPOLYLINE
  5
375C
330
1F
100
AcDbEntity
  8
SOLBET_Wymiary_Opisy
100
AcDbPolyline
 90
        7
 70
     0
 43
0.0
 10
63.19215240916946
 20
161.9129373612025
 10
46.05481865220918
 20
154.5451383833781
 10
45.85733315641028
 20
155.0044851793275
 10
62.99466691337056
 20
162.3722841571519
 10
63.33073212839645
 20
161.5906040690618
 10
62.19607323669243
 20
161.1027838082758
 10
62.05749351746181
 20
161.425117100416
  0
LWPOLYLINE
  5
375D
330
1F
100
AcDbEntity
  8
SOLBET_Wymiary_Opisy
100
AcDbPolyline
 90
        7
 70
     0
 43
0.0
 10
62.24134904786751
 20
160.8067097756682
 10
45.10401529090723
 20
153.4389107978434
 10
44.90652979510469
 20
153.8982575937933
 10
62.04386355206498
 20
161.2660565716176
 10
62.3799287670945
 20
160.484376483528
 10
61.24526987539048
 20
159.996556222741
 10
61.10669015615622
 20
160.3188895148817
  0
LWPOLYLINE
  5
375E
330
1F
100
AcDbEntity
  8
SOLBET_Wymiary_Opisy
100
AcDbPolyline
 90
        7
 70
     0
 43
0.0
 10
74.5801576198819
 20
167.1553539879867
 10
56.93528049890938
 20
161.1030006059575
 10
56.77305403045739
 20
161.5759515261759
 10
74.41793115142991
 20
167.6283049082051
 10
74.69399533923843
 20
166.8234743961864
 10
73.52573211916297
 20
166.4227494830768
 10
73.41189439980644
 20
166.7546290748781
  0
LWPOLYLINE
  5
375F
330
1F
100
AcDbEntity
  8
SOLBET_Wymiary_Opisy
100
AcDbPolyline
 90
        7
 70
     0
 43
0.0
 10
73.54851584397238
 20
166.1241014732957
 10
55.90363872299985
 20
160.0717480912665
 10
55.74141225454787
 20
160.5446990114845
 10
73.38628937552039
 20
166.5970523935137
 10
73.6623535633289
 20
165.792221881495
 10
72.49409034325345
 20
165.3914969683858
 10
72.38025262389692
 20
165.7233765601866
  0
LWPOLYLINE
  5
3760
330
1F
100
AcDbEntity
  8
SOLBET_Wymiary_Opisy
100
AcDbPolyline
 90
        7
 70
     0
 43
0.0
 10
85.84470422763388
 20
172.5738399131945
 10
68.19982710666136
 20
166.5214865311657
 10
68.03760063822029
 20
166.9944374513837
 10
85.68247775918917
 20
173.0467908334129
 10
85.95854194699768
 20
172.2419603213937
 10
84.79027872692222
 20
171.8412354082846
 10
84.67644100756206
 20
172.1731150000854
  0
LWPOLYLINE
  5
3761
330
1F
100
AcDbEntity
  8
SOLBET_Wymiary_Opisy
100
AcDbPolyline
 90
        7
 70
     0
 43
0.0
 10
84.81306245172437
 20
171.542587398503
 10
67.16818533075183
 20
165.4902340164743
 10
67.00595886230712
 20
165.9631849366922
 10
84.65083598327964
 20
172.0155383187214
 10
84.92690017108817
 20
171.2107078067022
 10
83.75863695101271
 20
170.8099828935936
 10
83.64479923164891
 20
171.1418624853943
  0
LWPOLYLINE
  5
3762
330
1F
100
AcDbEntity
  8
SOLBET_Wymiary_Opisy
100
AcDbPolyline
 90
        7
 70
     0
 43
0.0
 10
97.10925083539315
 20
177.9923258384017
 10
79.46437371442062
 20
171.939972456373
 10
79.30214724597226
 20
172.412923376591
 10
96.94702436694479
 20
178.4652767586206
 10
97.22308855474967
 20
177.6604462466014
 10
96.05482533467785
 20
177.2597213334923
 10
95.94098761532132
 20
177.5916009252935
  0
LWPOLYLINE
  5
3763
330
1F
100
AcDbEntity
  8
SOLBET_Wymiary_Opisy
100
AcDbPolyline
 90
        7
 70
     0
 43
0.0
 10
96.07760905948362
 20
176.9610733237107
 10
78.4327319385111
 20
170.9087199416815
 10
78.27050547006274
 20
171.3816708618999
 10
95.91538259103527
 20
177.4340242439287
 10
96.19144677884015
 20
176.62919373191
 10
95.02318355876832
 20
176.2284688188013
 10
94.90934583940816
 20
176.5603484106016
  0
LWPOLYLINE
  5
3764
330
1F
100
AcDbEntity
  8
SOLBET_Wymiary_Opisy
100
AcDbPolyline
 90
        5
 70
     0
 43
0.0
 10
93.8665180955204
 20
174.7615953137668
 10
95.21826368845268
 20
175.4118136247919
 10
94.71976298333084
 20
176.4481519127055
 10
93.3680173904022
 20
175.7979336016804
 10
93.8665180955204
 20
174.7615953137668
  0
LWPOLYLINE
  5
3765
330
1F
100
AcDbEntity
  8
SOLBET_Wymiary_Opisy
100
AcDbPolyline
 90
        5
 70
     0
 43
0.0
 10
82.60197148776114
 20
169.3431093885595
 10
83.95371708069342
 20
169.9933276995846
 10
83.45521637557522
 20
171.0296659874978
 10
82.10347078264295
 20
170.3794476764731
 10
82.60197148776114
 20
169.3431093885595
  0
LWPOLYLINE
  5
3766
330
1F
100
AcDbEntity
  8
SOLBET_Wymiary_Opisy
100
AcDbPolyline
 90
        5
 70
     0
 43
0.0
 10
71.33742488000553
 20
163.9246234633518
 10
72.6891704729378
 20
164.5748417743764
 10
72.19066976781596
 20
165.6111800622905
 10
70.83892417488732
 20
164.9609617512654
 10
71.33742488000553
 20
163.9246234633518
  0
LWPOLYLINE
  5
3767
330
1F
100
AcDbEntity
  8
SOLBET_Zbrojenie_Konstrukcja
100
AcDbPolyline
 90
       15
 70
     0
 43
0.0
 10
46.87138959163985
 20
153.6540043355497
 10
51.3717684928115
 20
155.8187820743449
 10
54.02472361688615
 20
155.8187820743449
 10
58.22009708811219
 20
157.8368457298477
 10
58.13340131330824
 20
158.0170784755713
 10
53.97912219208501
 20
156.0187820743447
 10
51.32616706801036
 20
156.0187820743447
 10
46.7846938168359
 20
153.8342370812737
 10
46.7846938168359
 20
149.1267525416422
 42
-1.013424621101684
 10
39.28602738728932
 20
149.2267525416426
 10
39.03835654795603
 20
149.2267525416426
 10
39.03835654795603
 20
149.1267525416422
 10
39.18469381683371
 20
149.1267525416422
 42
1.0
 10
46.88469381683444
 20
149.1267525416422
 10
46.88469381683444
 20
153.8342370812737
  0
LINE
  5
3768
330
1F
100
AcDbEntity
  8
SOLBET_Wymiary_Opisy
100
AcDbLine
 10
52.46090541978174
 20
153.5684893840806
 30
0.0
 11
51.96240471466353
 21
154.6048276719946
 31
0.0
  0
LINE
  5
3769
330
1F
100
AcDbEntity
  8
SOLBET_Wymiary_Opisy
100
AcDbLine
 10
46.9580853664438
 20
153.4737715898252
 30
0.0
 11
59.57437756712806
 21
159.5424758260581
 31
0.0
  0
LWPOLYLINE
  5
376A
330
1F
100
AcDbEntity
  8
SOLBET_Wymiary_Opisy
100
AcDbPolyline
 90
        5
 70
     0
 43
0.0
 10
47.45658607155838
 20
152.4374333019116
 10
51.96240471466353
 20
154.6048276719946
 10
51.46390400954533
 20
155.6411659599083
 10
46.9580853664438
 20
153.4737715898252
 10
47.45658607155838
 20
152.4374333019116
  0
LINE
  5
376B
330
1F
100
AcDbEntity
  8
SOLBET_Wymiary_Opisy
100
AcDbLine
 10
73.99327123209423
 20
141.1801832489667
 30
0.0
 11
73.99327123209423
 21
152.2189296158161
 31
0.0
  0
LINE
  5
376C
330
1F
100
AcDbEntity
  8
SOLBET_Wymiary_Opisy
100
AcDbLine
 10
78.99327123209423
 20
141.1801832489667
 30
0.0
 11
78.99327123209423
 21
154.624035703919
 31
0.0
  0
LINE
  5
376D
330
1F
100
AcDbEntity
  8
SOLBET_Izolacja
100
AcDbLine
 10
95.64888372266342
 20
162.6357387043502
 30
0.0
 11
163.4921927079986
 21
195.2698097998894
 31
0.0
  0
LINE
  5
376F
330
1F
100
AcDbEntity
  8
SOLBET_Wymiary_Opisy
100
AcDbLine
 10
47.95508677668386
 20
151.401095013998
 30
0.0
 11
47.45658607155838
 21
152.4374333019116
 31
0.0
  0
LINE
  5
3770
330
1F
100
AcDbEntity
  8
SOLBET_Wymiary_Opisy
100
AcDbLine
 10
48.62697903140634
 20
141.1801832489653
 30
0.0
 11
48.62697903140634
 21
150.004291234636
 31
0.0
  0
LINE
  5
3771
330
1F
100
AcDbEntity
  8
SOLBET_Wymiary_Opisy
100
AcDbLine
 10
48.62697903140634
 20
150.004291234636
 30
0.0
 11
48.12847832628813
 21
151.0406295225496
 31
0.0
  0
LINE
  5
3772
330
1F
100
AcDbEntity
  8
SOLBET_Wymiary_Opisy
100
AcDbLine
 10
54.93512513174846
 20
153.0386433527522
 30
0.0
 11
54.4366244266339
 21
154.0749816406658
 31
0.0
  0
LINE
  5
3773
330
1F
100
AcDbEntity
  8
SOLBET_Wymiary_Opisy
100
AcDbLine
 10
63.51816913207859
 20
147.1801832489657
 30
0.0
 11
78.99327123209423
 21
147.1801832489662
 31
0.0
  0
LINE
  5
3774
330
1F
100
AcDbEntity
  8
SOLBET_Wymiary_Opisy
100
AcDbLine
 10
48.62697903140634
 20
141.1801832489653
 30
0.0
 11
78.99327123209423
 21
141.1801832489662
 31
0.0
  0
LWPOLYLINE
  5
3775
330
1F
100
AcDbEntity
  8
SOLBET_Wymiary_Opisy
100
AcDbPolyline
 90
        5
 70
     0
 43
0.0
 10
60.07287827224627
 20
158.506137538144
 10
61.42462386517855
 20
159.1563558491692
 10
60.92612316006034
 20
160.1926941370828
 10
59.57437756712806
 20
159.5424758260581
 10
60.07287827224627
 20
158.506137538144
  0
LINE
  5
3776
330
1F
100
AcDbEntity
  8
SOLBET_Wymiary_Opisy
100
AcDbLine
 10
47.45658607155838
 20
152.4374333019116
 30
0.0
 11
163.4921927079986
 21
208.2530220935194
 31
0.0
  0
LINE
  5
3777
330
1F
100
AcDbEntity
  8
SOLBET_Wymiary_Opisy
100
AcDbLine
 10
47.95508677668386
 20
151.401095013998
 30
0.0
 11
163.4921927079986
 21
206.9768943894449
 31
0.0
  0
LINE
  5
3778
330
1F
100
AcDbEntity
  8
SOLBET_Wymiary_Opisy
100
AcDbLine
 10
48.04178255148418
 20
151.2208622682736
 30
0.0
 11
163.4921927079986
 21
206.7549591365621
 31
0.0
  0
LINE
  5
3779
330
1F
100
AcDbEntity
  8
SOLBET_Wymiary_Opisy
100
AcDbLine
 10
162.1736088375937
 20
204.6226293607286
 30
0.0
 11
161.6751081324755
 21
205.6589676486422
 31
0.0
  0
LINE
  5
377A
330
1F
100
AcDbEntity
  8
SOLBET_Wymiary_Opisy
100
AcDbLine
 10
155.8654627372516
 20
201.5882772426128
 30
0.0
 11
155.3669620321334
 21
202.624615530526
 31
0.0
  0
LINE
  5
377B
330
1F
100
AcDbEntity
  8
SOLBET_Wymiary_Opisy
100
AcDbLine
 10
149.5573166369095
 20
198.5539251244962
 30
0.0
 11
149.0588159317913
 21
199.5902634124093
 31
0.0
  0
LINE
  5
377C
330
1F
100
AcDbEntity
  8
SOLBET_Wymiary_Opisy
100
AcDbLine
 10
143.2491705365637
 20
195.5195730063799
 30
0.0
 11
142.7506698314455
 21
196.5559112942936
 31
0.0
  0
LINE
  5
377D
330
1F
100
AcDbEntity
  8
SOLBET_Wymiary_Opisy
100
AcDbLine
 10
136.9410244362216
 20
192.4852208882637
 30
0.0
 11
136.4425237311034
 21
193.5215591761769
 31
0.0
  0
LINE
  5
377E
330
1F
100
AcDbEntity
  8
SOLBET_Wymiary_Opisy
100
AcDbLine
 10
130.6328783358758
 20
189.4508687701471
 30
0.0
 11
130.134377630754
 21
190.4872070580612
 31
0.0
  0
LINE
  5
377F
330
1F
100
AcDbEntity
  8
SOLBET_Wymiary_Opisy
100
AcDbLine
 10
124.3247322355337
 20
186.4165166520309
 30
0.0
 11
123.8262315304118
 21
187.4528549399445
 31
0.0
  0
LINE
  5
3780
330
1F
100
AcDbEntity
  8
SOLBET_Wymiary_Opisy
100
AcDbLine
 10
118.0165861351915
 20
183.3821645339147
 30
0.0
 11
117.5180854300661
 21
184.4185028218288
 31
0.0
  0
LINE
  5
3781
330
1F
100
AcDbEntity
  8
SOLBET_Wymiary_Opisy
100
AcDbLine
 10
111.7084400348458
 20
180.3478124157985
 30
0.0
 11
111.2099393297239
 21
181.3841507037121
 31
0.0
  0
LINE
  5
3782
330
1F
100
AcDbEntity
  8
SOLBET_Wymiary_Opisy
100
AcDbLine
 10
105.4002939344964
 20
177.3134602976823
 30
0.0
 11
104.9017932293818
 21
178.3497985855959
 31
0.0
  0
LINE
  5
3783
330
1F
100
AcDbEntity
  8
SOLBET_Wymiary_Opisy
100
AcDbLine
 10
99.09214783415428
 20
174.2791081795661
 30
0.0
 11
98.59364712903607
 21
175.3154464674797
 31
0.0
  0
LINE
  5
3784
330
1F
100
AcDbEntity
  8
SOLBET_Wymiary_Opisy
100
AcDbLine
 10
92.78400173381214
 20
171.2447560614499
 30
0.0
 11
92.28550102869395
 21
172.2810943493635
 31
0.0
  0
LINE
  5
3785
330
1F
100
AcDbEntity
  8
SOLBET_Wymiary_Opisy
100
AcDbLine
 10
86.47585563346638
 20
168.2104039433337
 30
0.0
 11
85.97735492834818
 21
169.2467422312468
 31
0.0
  0
LINE
  5
3786
330
1F
100
AcDbEntity
  8
SOLBET_Wymiary_Opisy
100
AcDbLine
 10
80.16770953312425
 20
165.1760518252175
 30
0.0
 11
79.66920882800605
 21
166.2123901131306
 31
0.0
  0
LINE
  5
3787
330
1F
100
AcDbEntity
  8
SOLBET_Wymiary_Opisy
100
AcDbLine
 10
73.85956343277849
 20
162.1416997071013
 30
0.0
 11
73.36106272766392
 21
163.1780379950144
 31
0.0
  0
LINE
  5
3788
330
1F
100
AcDbEntity
  8
SOLBET_Wymiary_Opisy
100
AcDbLine
 10
67.55141733243636
 20
159.107347588985
 30
0.0
 11
67.05291662731815
 21
160.1436858768982
 31
0.0
  0
LINE
  5
3789
330
1F
100
AcDbEntity
  8
SOLBET_Wymiary_Opisy
100
AcDbLine
 10
48.12847832628813
 20
151.0406295225496
 30
0.0
 11
163.4921927079986
 21
206.5330238836794
 31
0.0
  0
LINE
  5
378A
330
1F
100
AcDbEntity
  8
SOLBET_Wymiary_Opisy
100
AcDbLine
 10
48.62697903140634
 20
150.004291234636
 30
0.0
 11
163.4921927079986
 21
205.2568961796044
 31
0.0
  0
LINE
  5
378B
330
1F
100
AcDbEntity
  8
SOLBET_Wymiary_Opisy
100
AcDbLine
 10
53.4354538123876
 20
142.3301832489654
 30
0.0
 11
90.49327123209423
 21
160.1557797065564
 31
0.0
  0
INSERT
  5
378C
330
1F
100
AcDbEntity
  8
SOLBET_Stolarka_Okna
100
AcDbBlockReference
  2
*U4
 10
-77.37206190895904
 20
-320.0928712601778
 30
0.0
 41
50.0
 42
50.0
 43
50.0
1001
ASO_SCHRAFF
1005
0
1070
     0
1005
0
  0
LWPOLYLINE
  5
378E
330
1F
100
AcDbEntity
  8
SOLBET_Zbrojenie_Konstrukcja
100
AcDbPolyline
 90
        4
 70
     0
 43
0.0
 10
93.9932712320906
 20
163.5309107267261
 10
93.9932712320906
 20
149.2809107267333
 42
1.0
 10
95.01687148380279
 20
149.2809107267333
 10
95.01687148380279
 20
151.736647540399
  0
LINE
  5
378F
330
1F
100
AcDbEntity
  8
SOLBET_Zbrojenie_Konstrukcja
100
AcDbLine
 10
92.97072777417907
 20
163.0254479493663
 30
0.0
 11
95.01581469000575
 21
163.0254479493663
 31
0.0
  0
LWPOLYLINE
  5
3790
330
1F
100
AcDbEntity
  8
SOLBET_Stolarka_Okna
100
AcDbPolyline
 90
        4
 70
     1
 43
0.0
 10
90.49327123209423
 20
155.6757387043579
 10
97.49327123209424
 20
155.6757387043579
 10
97.49327123209424
 20
162.6357387043502
 10
90.49327123209423
 20
162.6357387043502
  0
LINE
  5
3792
330
1F
100
AcDbEntity
  8
SOLBET_Beton
100
AcDbLine
 10
87.99327123209058
 20
155.4357387043576
 30
0.0
 11
99.99327123209059
 21
155.4357387043576
 31
0.0
  0
LWPOLYLINE
  5
3793
330
1F
100
AcDbEntity
  8
SOLBET_Zbrojenie_Konstrukcja
100
AcDbPolyline
 90
        5
 70
     0
 43
0.0
 10
99.33221382131069
 20
144.4102309662101
 10
99.33221382131069
 20
154.4825669851032
 10
89.04881852566814
 20
154.4825669851032
 10
89.04881852566814
 20
144.4102309662101
 10
99.33221382131069
 20
144.4102309662101
  0
LINE
  5
3794
330
1F
100
AcDbEntity
  8
SOLBET_Zbrojenie_Konstrukcja
100
AcDbLine
 10
90.46303208804147
 20
151.8683534227301
 30
0.0
 11
89.04881852566814
 21
153.2825669851029
 31
0.0
  0
LINE
  5
3795
330
1F
100
AcDbEntity
  8
SOLBET_Zbrojenie_Konstrukcja
100
AcDbLine
 10
91.66303208804221
 20
153.0683534227303
 30
0.0
 11
90.24881852566887
 21
154.4825669851032
 31
0.0
  0
LWPOLYLINE
  5
3796
330
1F
100
AcDbEntity
  8
SOLBET_Zbrojenie_Konstrukcja
100
AcDbPolyline
 90
        2
 70
     1
 43
0.3
 10
89.21811201677247
 20
144.7264523665301
 42
1.0
 10
89.51811201677173
 20
144.7264523665301
 42
1.0
  0
LWPOLYLINE
  5
3797
330
1F
100
AcDbEntity
  8
SOLBET_Zbrojenie_Konstrukcja
100
AcDbPolyline
 90
        2
 70
     1
 43
0.3
 10
98.89051998152627
 20
144.6754502297343
 42
1.0
 10
99.19051998152918
 20
144.6754502297343
 42
1.0
  0
LWPOLYLINE
  5
3798
330
1F
100
AcDbEntity
  8
SOLBET_Zbrojenie_Konstrukcja
100
AcDbPolyline
 90
        2
 70
     1
 43
0.3
 10
98.89051998152627
 20
154.0846981236885
 42
1.0
 10
99.19051998152918
 20
154.0846981236885
 42
1.0
  0
LWPOLYLINE
  5
3799
330
1F
100
AcDbEntity
  8
SOLBET_Zbrojenie_Konstrukcja
100
AcDbPolyline
 90
        2
 70
     1
 43
0.3
 10
89.21811201677247
 20
154.1573199355655
 42
1.0
 10
89.51811201677173
 20
154.1573199355655
 42
1.0
  0
LINE
  5
379B
330
1F
100
AcDbEntity
  8
SOLBET_Wymiary_Opisy
100
AcDbLine
 10
75.88938223931382
 20
86.37804305376205
 30
0.0
 11
163.4921927079986
 21
86.37804305376251
 31
0.0
  0
LINE
  5
379C
330
1F
100
AcDbEntity
  8
SOLBET_Beton
100
AcDbLine
 10
163.4921927079986
 20
105.9357387043577
 30
0.0
 11
158.7289434453623
 21
105.9357387043577
 31
0.0
  0
LINE
  5
379E
330
1F
100
AcDbEntity
  8
SOLBET_Beton
100
AcDbLine
 10
158.7289434453623
 20
100.9357387043572
 30
0.0
 11
163.4921927079986
 21
100.9357387043572
 31
0.0
  0
LINE
  5
379F
330
1F
100
AcDbEntity
  8
SOLBET_Beton
100
AcDbLine
 10
98.72894344536234
 20
100.9357387043572
 30
0.0
 11
110.7289434453623
 21
100.9357387043572
 31
0.0
  0
LWPOLYLINE
  5
37A0
330
1F
100
AcDbEntity
  8
SOLBET_Beton
100
AcDbPolyline
 90
        4
 70
     1
 43
0.0
 10
98.72894344536234
 20
97.43573870435724
 10
110.7289434453623
 20
97.43573870435724
 10
110.7289434453623
 20
105.9357387043571
 10
98.72894344536234
 20
105.9357387043571
  0
LINE
  5
37A1
330
1F
100
AcDbEntity
  8
SOLBET_Beton
100
AcDbLine
 10
146.7289434453623
 20
100.9357387043572
 30
0.0
 11
158.7289434453623
 21
100.9357387043572
 31
0.0
  0
LINE
  5
37A3
330
1F
100
AcDbEntity
  8
SOLBET_Beton
100
AcDbLine
 10
158.7289434453623
 20
97.43573870435724
 30
0.0
 11
158.7289434453623
 21
105.9357387043571
 31
0.0
  0
LINE
  5
37A4
330
1F
100
AcDbEntity
  8
SOLBET_Beton
100
AcDbLine
 10
158.7289434453623
 20
105.9357387043571
 30
0.0
 11
146.7289434453623
 21
105.9357387043571
 31
0.0
  0
LINE
  5
37A6
330
1F
100
AcDbEntity
  8
SOLBET_Beton
100
AcDbLine
 10
122.7289434453623
 20
100.9357387043572
 30
0.0
 11
134.7289434453623
 21
100.9357387043572
 31
0.0
  0
LWPOLYLINE
  5
37A7
330
1F
100
AcDbEntity
  8
SOLBET_Beton
100
AcDbPolyline
 90
        4
 70
     1
 43
0.0
 10
122.7289434453623
 20
97.43573870435724
 10
134.7289434453623
 20
97.43573870435724
 10
134.7289434453623
 20
105.9357387043571
 10
122.7289434453623
 20
105.9357387043571
  0
LINE
  5
37A8
330
1F
100
AcDbEntity
  8
SOLBET_Beton
100
AcDbLine
 10
134.7289434453623
 20
100.9357387043572
 30
0.0
 11
146.7289434453623
 21
100.9357387043572
 31
0.0
  0
LINE
  5
37AA
330
1F
100
AcDbEntity
  8
SOLBET_Beton
100
AcDbLine
 10
146.7289434453623
 20
97.43573870435724
 30
0.0
 11
146.7289434453623
 21
105.9357387043571
 31
0.0
  0
LINE
  5
37AB
330
1F
100
AcDbEntity
  8
SOLBET_Beton
100
AcDbLine
 10
146.7289434453623
 20
105.9357387043571
 30
0.0
 11
134.7289434453623
 21
105.9357387043571
 31
0.0
  0
LINE
  5
37AC
330
1F
100
AcDbEntity
  8
SOLBET_Beton
100
AcDbLine
 10
134.7289434453623
 20
105.9357387043571
 30
0.0
 11
134.7289434453623
 21
97.43573870435724
 31
0.0
  0
LINE
  5
37AD
330
1F
100
AcDbEntity
  8
SOLBET_Beton
100
AcDbLine
 10
110.7289434453623
 20
100.9357387043572
 30
0.0
 11
122.7289434453623
 21
100.9357387043572
 31
0.0
  0
LWPOLYLINE
  5
37AE
330
1F
100
AcDbEntity
  8
SOLBET_Beton
100
AcDbPolyline
 90
        4
 70
     1
 43
0.0
 10
110.7289434453623
 20
97.43573870435724
 10
122.7289434453623
 20
97.43573870435724
 10
122.7289434453623
 20
105.9357387043571
 10
110.7289434453623
 20
105.9357387043571
  0
LINE
  5
37AF
330
1F
100
AcDbEntity
  8
SOLBET_Tynki_Posadzki
100
AcDbLine
 10
100.4932712320906
 20
94.93573870435769
 30
0.0
 11
99.99526439962119
 21
95.43573870435769
 31
0.0
  0
LINE
  5
37B0
330
1F
100
AcDbEntity
  8
SOLBET_Tynki_Posadzki
100
AcDbLine
 10
100.4932712320906
 20
94.93573870435769
 30
0.0
 11
163.4921927079986
 21
94.93573870435769
 31
0.0
  0
LINE
  5
37B1
330
1F
100
AcDbEntity
  8
SOLBET_Tynki_Posadzki
100
AcDbLine
 10
100.4932712320906
 20
94.93573870435769
 30
0.0
 11
100.4932712320906
 21
86.37804305376205
 31
0.0
  0
LINE
  5
37B3
330
1F
100
AcDbEntity
  8
SOLBET_Tynki_Posadzki
100
AcDbLine
 10
100.4932712320906
 20
112.8090455379127
 30
0.0
 11
100.4932712320906
 21
155.4357387043576
 31
0.0
  0
LINE
  5
37B6
330
1F
100
AcDbEntity
  8
SOLBET_Wymiary_Opisy
100
AcDbLine
 10
163.4921927079986
 20
217.6157416504614
 30
0.0
 11
163.4921927079986
 21
86.37804305376251
 31
0.0
  0
LINE
  5
37B7
330
1F
100
AcDbEntity
  8
SOLBET_Zbrojenie_Konstrukcja
100
AcDbLine
 10
157.4932712320942
 20
103.9357387043577
 30
0.0
 11
160.4921927079995
 21
98.31276093703541
 31
0.0
  0
LINE
  5
37B8
330
1F
100
AcDbEntity
  8
SOLBET_Zbrojenie_Konstrukcja
100
AcDbLine
 10
154.0266045654275
 20
97.43573870435765
 30
0.0
 11
157.4932712320942
 21
103.9357387043577
 31
0.0
  0
LINE
  5
37B9
330
1F
100
AcDbEntity
  8
SOLBET_Beton
100
AcDbLine
 10
95.99327123209423
 20
97.43573870435765
 30
0.0
 11
95.99327123209423
 21
95.43573870435769
 31
0.0
  0
LINE
  5
37BA
330
1F
100
AcDbEntity
  8
SOLBET_Zbrojenie_Konstrukcja
100
AcDbLine
 10
130.0266045654275
 20
97.43573870435765
 30
0.0
 11
133.4932712320942
 21
103.9357387043577
 31
0.0
  0
LINE
  5
37BB
330
1F
100
AcDbEntity
  8
SOLBET_Zbrojenie_Konstrukcja
100
AcDbLine
 10
138.0266045654275
 20
97.43573870435765
 30
0.0
 11
141.493271232094
 21
103.9357387043577
 31
0.0
  0
LINE
  5
37BC
330
1F
100
AcDbEntity
  8
SOLBET_Zbrojenie_Konstrukcja
100
AcDbLine
 10
146.0266045654275
 20
97.43573870435765
 30
0.0
 11
149.4932712320942
 21
103.9357387043577
 31
0.0
  0
LINE
  5
37BD
330
1F
100
AcDbEntity
  8
SOLBET_Zbrojenie_Konstrukcja
100
AcDbLine
 10
122.0266045654275
 20
97.43573870435765
 30
0.0
 11
125.4932712320942
 21
103.9357387043577
 31
0.0
  0
LINE
  5
37BE
330
1F
100
AcDbEntity
  8
SOLBET_Zbrojenie_Konstrukcja
100
AcDbLine
 10
114.0266045654274
 20
97.43573870435765
 30
0.0
 11
117.4932712320942
 21
103.9357387043577
 31
0.0
  0
LINE
  5
37BF
330
1F
100
AcDbEntity
  8
SOLBET_Zbrojenie_Konstrukcja
100
AcDbLine
 10
106.0266045654274
 20
97.43573870435765
 30
0.0
 11
109.4932712320942
 21
103.9357387043577
 31
0.0
  0
LINE
  5
37C0
330
1F
100
AcDbEntity
  8
SOLBET_Zbrojenie_Konstrukcja
100
AcDbLine
 10
98.02660456542753
 20
97.43573870435765
 30
0.0
 11
101.4932712320942
 21
103.9357387043577
 31
0.0
  0
LINE
  5
37C1
330
1F
100
AcDbEntity
  8
SOLBET_Zbrojenie_Konstrukcja
100
AcDbLine
 10
101.4932712320942
 20
103.9357387043577
 30
0.0
 11
104.9599378987608
 21
97.43573870435765
 31
0.0
  0
LINE
  5
37C2
330
1F
100
AcDbEntity
  8
SOLBET_Zbrojenie_Konstrukcja
100
AcDbLine
 10
109.4932712320942
 20
103.9357387043577
 30
0.0
 11
112.9599378987609
 21
97.43573870435765
 31
0.0
  0
LINE
  5
37C3
330
1F
100
AcDbEntity
  8
SOLBET_Zbrojenie_Konstrukcja
100
AcDbLine
 10
117.4932712320942
 20
103.9357387043577
 30
0.0
 11
120.9599378987609
 21
97.43573870435765
 31
0.0
  0
LINE
  5
37C4
330
1F
100
AcDbEntity
  8
SOLBET_Zbrojenie_Konstrukcja
100
AcDbLine
 10
125.4932712320942
 20
103.9357387043577
 30
0.0
 11
128.9599378987609
 21
97.43573870435765
 31
0.0
  0
LINE
  5
37C5
330
1F
100
AcDbEntity
  8
SOLBET_Zbrojenie_Konstrukcja
100
AcDbLine
 10
163.4921927079986
 20
103.9357387043579
 30
0.0
 11
95.99327123209423
 21
103.9357387043576
 31
0.0
  0
LINE
  5
37C6
330
1F
100
AcDbEntity
  8
SOLBET_Zbrojenie_Konstrukcja
100
AcDbLine
 10
149.4932712320942
 20
103.9357387043577
 30
0.0
 11
152.9599378987609
 21
97.43573870435765
 31
0.0
  0
LINE
  5
37C7
330
1F
100
AcDbEntity
  8
SOLBET_Zbrojenie_Konstrukcja
100
AcDbLine
 10
141.493271232094
 20
103.9357387043577
 30
0.0
 11
144.9599378987609
 21
97.43573870435765
 31
0.0
  0
LINE
  5
37C8
330
1F
100
AcDbEntity
  8
SOLBET_Zbrojenie_Konstrukcja
100
AcDbLine
 10
133.4932712320942
 20
103.9357387043577
 30
0.0
 11
136.9599378987609
 21
97.43573870435765
 31
0.0
  0
LINE
  5
37C9
330
1F
100
AcDbEntity
  8
SOLBET_Beton
100
AcDbLine
 10
95.99327123209423
 20
97.43573870435765
 30
0.0
 11
163.4921927079986
 21
97.43573870435765
 31
0.0
  0
LINE
  5
37CA
330
1F
100
AcDbEntity
  8
SOLBET_Beton
100
AcDbLine
 10
95.99327123209423
 20
95.43573870435769
 30
0.0
 11
163.4921927079986
 21
95.43573870435769
 31
0.0
  0
INSERT
  5
37CC
330
1F
100
AcDbEntity
  8
SOLBET_Beton
100
AcDbBlockReference
  2
*X3
 10
-473.7076446488623
 20
-360.5856023500694
 30
0.0
 41
50.0
 42
50.0
 43
50.0
1001
ASO_SCHRAFF
1005
0
1070
     0
1005
0
1001
ACAD
1000
HATCH
1002
{
1070
    16
1000
NET
1040
0.25
1040
0.7853981633974483
1002
}
  0
LWPOLYLINE
  5
37CD
330
1F
100
AcDbEntity
  8
SOLBET_Zbrojenie_Konstrukcja
  6
Continuous
100
AcDbPolyline
 90
        2
 70
     1
 43
0.3
 10
89.03367148528468
 20
105.3183499286104
 42
1.0
 10
89.33367148528759
 20
105.3183499286104
 42
1.0
  0
LWPOLYLINE
  5
37CE
330
1F
100
AcDbEntity
  8
SOLBET_Zbrojenie_Konstrukcja
  6
Continuous
100
AcDbPolyline
 90
        2
 70
     1
 43
0.3
 10
89.03367148528468
 20
96.50196010467729
 42
1.0
 10
89.33367148528759
 20
96.50196010467729
 42
1.0
  0
LINE
  5
37CF
330
1F
100
AcDbEntity
  8
SOLBET_Zbrojenie_Konstrukcja
  6
Continuous
100
AcDbLine
 10
91.47859155655078
 20
104.2293834157752
 30
0.0
 11
90.06437799418108
 21
105.6435969781481
 31
0.0
  0
LINE
  5
37D0
330
1F
100
AcDbEntity
  8
SOLBET_Zbrojenie_Konstrukcja
  6
Continuous
100
AcDbLine
 10
90.27859155655368
 20
103.0293834157754
 30
0.0
 11
88.86437799418036
 21
104.4435969781483
 31
0.0
  0
LWPOLYLINE
  5
37D1
330
1F
100
AcDbEntity
  8
SOLBET_Zbrojenie_Konstrukcja
  6
Continuous
100
AcDbPolyline
 90
        5
 70
     0
 43
0.0
 10
94.87000928828548
 20
96.18573870435724
 10
94.87000928828548
 20
105.6435969781481
 10
88.86437799418036
 20
105.6435969781481
 10
88.86437799418036
 20
96.18573870435724
 10
94.87000928828548
 20
96.18573870435724
  0
LWPOLYLINE
  5
37DB
330
1F
100
AcDbEntity
  8
SOLBET_Zbrojenie_Konstrukcja
100
AcDbPolyline
 90
        6
 70
     0
 43
0.0
 10
135.619073423345
 20
106.0570242671136
 10
89.11907342334144
 20
106.0570242671136
 42
0.4142135623730951
 10
88.61907342334507
 20
105.5570242671136
 10
88.61907342334507
 20
98.05702426711317
 42
0.4142135623730964
 10
89.11907342334144
 20
97.55702426711362
 10
105.619073423345
 20
97.55702426711362
  0
LINE
  5
37DE
330
1F
100
AcDbEntity
  8
SOLBET_Izolacja
100
AcDbLine
 10
80.49327123209423
 20
163.6681395134467
 30
0.0
 11
80.49327123209423
 21
86.37804305376205
 31
0.0
  0
LINE
  5
37DF
330
1F
100
AcDbEntity
  8
SOLBET_Zaprawy
100
AcDbLine
 10
80.20994942555899
 20
86.37804305376205
 30
0.0
 11
80.20994942555899
 21
163.5318557130893
 31
0.0
  0
LINE
  5
37E0
330
1F
100
AcDbEntity
  8
SOLBET_Tynki_Posadzki
100
AcDbLine
 10
79.74327123209423
 20
86.37804305376205
 30
0.0
 11
79.74327123209423
 21
163.3073736002309
 31
0.0
  0
LINE
  5
37E1
330
1F
100
AcDbEntity
  8
SOLBET_Zbrojenie_Konstrukcja
100
AcDbLine
 10
80.80673071489128
 20
126.7710152936377
 30
0.0
 11
80.80673071489128
 21
123.5218006594553
 31
0.0
  0
LINE
  5
37E2
330
1F
100
AcDbEntity
  8
SOLBET_Zbrojenie_Konstrukcja
100
AcDbLine
 10
80.43167933254791
 20
125.1464079765463
 30
0.0
 11
94.18355320129832
 21
125.1464079765463
 31
0.0
  0
LINE
  5
37E3
330
1F
100
AcDbEntity
  8
SOLBET_Zbrojenie_Konstrukcja
100
AcDbLine
 10
80.80673071489128
 20
90.36810805886018
 30
0.0
 11
80.80673071489128
 21
87.11889342467824
 31
0.0
  0
LINE
  5
37E4
330
1F
100
AcDbEntity
  8
SOLBET_Zbrojenie_Konstrukcja
100
AcDbLine
 10
80.39335316153529
 20
88.74350074176922
 30
0.0
 11
94.39352090293709
 21
88.74350074176922
 31
0.0
  0
LINE
  5
37E6
330
1F
100
AcDbEntity
  8
SOLBET_Izolacja
100
AcDbLine
 10
87.99327123209058
 20
86.37804305376205
 30
0.0
 11
87.99327123209058
 21
167.2757986456011
 31
0.0
  0
LWPOLYLINE
  5
37E7
330
1F
100
AcDbEntity
  8
SOLBET_Zbrojenie_Konstrukcja
  6
Continuous
100
AcDbPolyline
 90
        2
 70
     1
 43
0.3
 10
94.70071579717751
 20
105.3183499286104
 42
-1.0
 10
94.40071579717823
 20
105.3183499286104
 42
-1.0
  0
LWPOLYLINE
  5
37E8
330
1F
100
AcDbEntity
  8
SOLBET_Zbrojenie_Konstrukcja
  6
Continuous
100
AcDbPolyline
 90
        2
 70
     1
 43
0.3
 10
94.70071579717751
 20
96.50196010467729
 42
-1.0
 10
94.40071579717823
 20
96.50196010467729
 42
-1.0
  0
LINE
  5
37EA
330
1F
100
AcDbEntity
  8
SOLBET_Emulsje_Folie
100
AcDbLine
 10
97.60164095059645
 20
157.7492559756813
 30
0.0
 11
163.4921927079986
 21
189.4440094117227
 31
0.0
  0
LINE
  5
37EB
330
1F
100
AcDbEntity
  8
SOLBET_Zaprawy
100
AcDbLine
 10
99.99327123209059
 20
158.6222618196819
 30
0.0
 11
163.4921927079986
 21
189.1665903456183
 31
0.0
  0
LINE
  5
37EC
330
1F
100
AcDbEntity
  8
SOLBET_Tynki_Posadzki
100
AcDbLine
 10
99.99327123209059
 20
158.0674236874754
 30
0.0
 11
163.4921927079983
 21
188.6117522134121
 31
0.0
  0
LINE
  5
37ED
330
1F
100
AcDbEntity
  8
SOLBET_Tynki_Posadzki
100
AcDbLine
 10
100.4932712320906
 20
155.4357387043576
 30
0.0
 11
100.4932712320906
 21
158.3079342962858
 31
0.0
  0
LINE
  5
37EE
330
1F
100
AcDbEntity
  8
SOLBET_Zaprawy
100
AcDbLine
 10
99.99327123209059
 20
155.4357387043576
 30
0.0
 11
99.99327123209059
 21
158.6222618196819
 31
0.0
  0
MTEXT
  5
37EF
102
{ACAD_XDICTIONARY
360
37F0
102
}
330
1F
100
AcDbEntity
  8
SOLBET_Wymiary_Opisy @ 1
100
AcDbMText
 10
10.36686329877307
 20
290.7299988460193
 30
0.0
 40
5.0
 41
124.2624847080697
 71
     1
 72
     5
  1
{\LDETAL 93\P}Wzmocnienie \U+015Bciany kolankowej jednowarstwowej
  7
Solbet_5
 73
     1
 44
1.0
1001
AcadAnnotative
1000
AnnotativeData
1002
{
1070
     1
1070
     0
1002
}
1001
ACAD
1000
MTEXTBEGIN
1070
    73
1070
     1
1070
    44
1040
1.0
1070
    74
1070
     0
1000
MTEXTEND
  0
LWPOLYLINE
  5
37F4
330
1F
100
AcDbEntity
  8
SOLBET_Ramka_05
100
AcDbPolyline
 90
        4
 70
     1
 43
0.0
 10
0.0
 20
0.0
 10
210.0
 20
0.0
 10
210.0
 20
297.0
 10
0.0
 20
297.0
  0
LINE
  5
37F5
330
1F
100
AcDbEntity
  8
SOLBET_Izolacja
  6
BATTING
 48
0.36
100
AcDbLine
 10
90.92370913909894
 20
164.5241154642429
 30
0.0
 11
162.9807333272599
 21
199.1850729773513
 31
0.0
  0
LINE
  5
37F6
330
1F
100
AcDbEntity
  8
SOLBET_Izolacja
  6
BATTING
 48
0.24
100
AcDbLine
 10
98.22643234811312
 20
161.1110048623678
 30
0.0
 11
163.0227961773621
 21
192.167983036017
 31
0.0
  0
LINE
  5
37F7
330
1F
100
AcDbEntity
  8
SOLBET_Izolacja
100
AcDbLine
 10
98.22643234811312
 20
161.1110048623678
 30
0.0
 11
97.49327123209424
 21
160.7595998230669
 31
0.0
  0
LINE
  5
37F8
330
1F
100
AcDbEntity
  8
SOLBET_Izolacja
100
AcDbLine
 10
79.74327123209423
 20
163.3073736002309
 30
0.0
 11
89.29816336153772
 21
167.9034794465686
 31
0.0
  0
LINE
  5
37F9
330
1F
100
AcDbEntity
  8
SOLBET_Izolacja
100
AcDbLine
 10
87.99327123209151
 20
167.2757986326985
 30
0.0
 11
87.99327123209151
 21
155.4357387043576
 31
0.0
  0
LINE
  5
37FA
330
1F
100
AcDbEntity
  8
SOLBET_Izolacja
100
AcDbLine
 10
90.49327123209423
 20
155.6357387043502
 30
0.0
 11
87.99327123209151
 21
155.6357387043502
 31
0.0
  0
LINE
  5
37FB
330
1F
100
AcDbEntity
  8
SOLBET_Izolacja
  6
BATTING
 48
0.12
100
AcDbLine
 10
89.24327123209286
 20
155.8672378824009
 30
0.0
 11
89.24327123209275
 21
165.6760677723213
 31
0.0
  0
LINE
  5
37FC
330
1F
100
AcDbEntity
  8
SOLBET_Izolacja
100
AcDbLine
 10
90.28786523171266
 20
165.8459779603126
 30
0.0
 11
87.99327123209151
 21
165.8459779603126
 31
0.0
  0
LINE
  5
37FD
330
1F
100
AcDbEntity
  8
SOLBET_Izolacja
100
AcDbLine
 10
89.24327123209275
 20
165.6760677723213
 30
0.0
 11
89.24327123209286
 21
165.8459779603126
 31
0.0
  0
LINE
  5
37FE
330
1F
100
AcDbEntity
  8
SOLBET_Izolacja
100
AcDbLine
 10
80.49327123209151
 20
163.6681394773499
 30
0.0
 11
87.99327123209058
 21
163.6681394773499
 31
0.0
  0
LINE
  5
37FF
330
1F
100
AcDbEntity
  8
SOLBET_Izolacja
  6
BATTING
 48
0.365
100
AcDbLine
 10
84.24327123209105
 20
163.6681394773499
 30
0.0
 11
84.24327123209105
 21
86.37804305376205
 31
0.0
  0
ARC
  5
3801
330
1F
100
AcDbEntity
  8
SOLBET_Tynki_Posadzki
100
AcDbCircle
 10
100.4932712320869
 20
113.3090455379127
 30
0.0
 40
1.5000521396288
100
AcDbArc
 50
0.0
 51
90.0
  0
LINE
  5
3802
330
1F
100
AcDbEntity
  8
SOLBET_Tynki_Posadzki
100
AcDbLine
 10
101.2913374232803
 20
113.3090455379127
 30
0.0
 11
163.4921927079986
 21
113.3090455379127
 31
0.0
  0
LINE
  5
3803
330
1F
100
AcDbEntity
  8
SOLBET_Emulsje_Folie
100
AcDbLine
 10
101.1080872817538
 20
113.0590455379127
 30
0.0
 11
101.1080872817538
 21
110.3815780179296
 31
0.0
  0
LINE
  5
3804
330
1F
100
AcDbEntity
  8
SOLBET_Emulsje_Folie
100
AcDbLine
 10
101.3580872817538
 20
110.1315780179296
 30
0.0
 11
163.4921927079986
 21
110.1315780179296
 31
0.0
  0
ARC
  5
3805
330
1F
100
AcDbEntity
  8
SOLBET_Emulsje_Folie
100
AcDbCircle
 10
101.3580872817538
 20
110.3815780179296
 30
0.0
 40
0.25
100
AcDbArc
 50
180.0
 51
270.0
  0
LWPOLYLINE
  5
3806
330
1F
100
AcDbEntity
  8
SOLBET_Tynki_Posadzki
100
AcDbPolyline
 90
        5
 70
     1
 43
0.0
 10
101.1080872817538
 20
110.3815780179296
 42
0.0737237824442244
 10
101.118840464972
 20
110.3090455379127
 10
163.4921927079986
 20
110.3090455379127
 10
163.4921927079986
 20
112.8090455379127
 10
101.1080872817538
 20
112.8090455379127
1001
ASO_SCHRAFF
1005
0
1070
     1
1002
{
1070
     1
1005
0
1002
}
1002
{
1070
     2
1005
0
1002
}
1002
{
1070
     4
1000
AR-CONC
1040
0.01
1040
0.0
1070
     0
1000
T__SCHR
1070
   256
1000
_bylayer
1040
50.0
1070
     1
1002
}
  0
INSERT
  5
3807
330
1F
100
AcDbEntity
  8
SOLBET_Tynki_Posadzki
100
AcDbBlockReference
  2
*X2
 10
-473.707644648869
 20
-361.0596492943598
 30
0.0
 41
50.0
 42
50.0
 43
50.0
1001
ASO_SCHRAFF
1005
0
1070
     0
1005
0
1001
ACAD
1000
HATCH
1002
{
1070
    16
1000
AR-CONC
1040
0.025
1040
0.0
1002
}
  0
LINE
  5
3808
330
1F
100
AcDbEntity
  8
SOLBET_Izolacja
100
AcDbLine
 10
99.99327123208695
 20
112.8090455379127
 30
0.0
 11
100.9932712320906
 21
112.8090455379127
 31
0.0
  0
LINE
  5
3809
330
1F
100
AcDbEntity
  8
SOLBET_Izolacja
100
AcDbLine
 10
100.9932712320906
 20
112.8090455379127
 30
0.0
 11
100.9932712310294
 21
107.4357387308182
 31
0.0
  0
LINE
  5
380A
330
1F
100
AcDbEntity
  8
SOLBET_Izolacja
  6
BATTING
 48
0.048
100
AcDbLine
 10
100.4932712320887
 20
107.4889797651479
 30
0.0
 11
100.4932712320887
 21
112.8090455379127
 31
0.0
  0
LINE
  5
380B
330
1F
100
AcDbEntity
  8
SOLBET_Izolacja
100
AcDbLine
 10
100.993271298242
 20
107.4357387308182
 30
0.0
 11
163.4921927079986
 21
107.4357386584787
 31
0.0
  0
LINE
  5
380C
330
1F
100
AcDbEntity
  8
SOLBET_Izolacja
100
AcDbLine
 10
163.4921927079986
 20
109.9357387043577
 30
0.0
 11
100.9932712320906
 21
109.9357371299839
 31
0.0
  0
LINE
  5
380D
330
1F
100
AcDbEntity
  8
SOLBET_Izolacja
  6
BATTING
 48
0.12
100
AcDbLine
 10
100.9932712651663
 20
108.6857387175879
 30
0.0
 11
163.228276603314
 21
108.6857387175879
 31
0.0
  0
LINE
  5
380E
330
1F
100
AcDbEntity
  8
SOLBET_Zbrojenie_Konstrukcja
100
AcDbLine
 10
160.4921927079995
 20
96.81065374980132
 30
0.0
 11
161.8633199650253
 21
95.43573870435769
 31
0.0
  0
LINE
  5
380F
330
1F
100
AcDbEntity
  8
SOLBET_Zbrojenie_Konstrukcja
100
AcDbLine
 10
161.334087732253
 20
95.43573870435769
 30
0.0
 11
162.7441938868144
 21
97.43573870435767
 31
0.0
  0
LINE
  5
3810
330
1F
100
AcDbEntity
  8
SOLBET_Zbrojenie_Konstrukcja
100
AcDbLine
 10
160.4921927079995
 20
96.81065374980132
 30
0.0
 11
161.1341528191415
 21
97.43573870435765
 31
0.0
  0
LINE
  5
3811
330
1F
100
AcDbEntity
  8
SOLBET_Zbrojenie_Konstrukcja
100
AcDbLine
 10
161.9823886715719
 20
97.43573870435765
 30
0.0
 11
163.4921927079986
 21
95.63595808591578
 31
0.0
  0
LINE
  5
3812
330
1F
100
AcDbEntity
  8
SOLBET_Zbrojenie_Konstrukcja
100
AcDbLine
 10
162.0266045654275
 20
97.43573870435765
 30
0.0
 11
163.4921927079986
 21
100.1837164716784
 31
0.0
  0
LINE
  5
3813
330
1F
100
AcDbEntity
  8
SOLBET_Zbrojenie_Konstrukcja
100
AcDbLine
 10
154.0266045654275
 20
97.43573870435765
 30
0.0
 11
157.4932712320942
 21
103.9357387043577
 31
0.0
  0
LINE
  5
3814
330
1F
100
AcDbEntity
  8
SOLBET_Zbrojenie_Konstrukcja
100
AcDbLine
 10
157.4932712320942
 20
103.9357387043577
 30
0.0
 11
160.9599378987609
 21
97.43573870435765
 31
0.0
  0
INSERT
  5
3821
330
1F
100
AcDbEntity
  8
SOLBET_Wymiary_Opisy
100
AcDbBlockReference
  2
_DotSmall
 10
95.01687148380279
 20
160.0217579705675
 30
0.0
 41
2.499999999999958
 42
2.5
 43
2.5
 50
144.3732643216736
1001
ACAD
1000
DSTYLE
1002
{
1070
   147
1040
0.625
1070
    77
1070
     1
1002
}
  0
LWPOLYLINE
  5
3822
330
1F
100
AcDbEntity
  8
SOLBET_Wymiary_Opisy
100
AcDbPolyline
 90
        3
 70
     0
 43
0.0
 10
95.01687148380279
 20
160.0217579705675
 10
107.2791787118335
 20
151.2341506499759
 10
152.2431656449512
 20
151.2341506499759
1001
ACAD
1000
DSTYLE
1002
{
1070
   147
1040
0.625
1070
    77
1070
     1
1002
}
  0
MTEXT
  5
3823
102
{ACAD_XDICTIONARY
360
3AC9
102
}
330
1F
100
AcDbEntity
  8
SOLBET_Wymiary_Opisy
100
AcDbMText
 10
108.3557600530553
 20
158.9008173166426
 30
0.0
 40
2.5
 41
45.61266565198366
 71
     1
 72
     1
  1
Mur\U+0142ata przymocowana \P\U+015Brubami kotwionymi w wie\U+0144cu
  7
Solbet_2_5
 73
     1
 44
1.0
1001
ACAD
1000
MTEXTBEGIN
1070
    73
1070
     1
1070
    44
1040
1.0
1070
    74
1070
     0
1000
MTEXTEND
  0
INSERT
  5
3824
330
1F
100
AcDbEntity
  8
SOLBET_Wymiary_Opisy
100
AcDbBlockReference
  2
_DotSmall
 10
94.91962964276433
 20
145.5686476570689
 30
0.0
 41
2.499999999999954
 42
2.5
 43
2.5
 50
144.3732643216738
1001
ACAD
1000
DSTYLE
1002
{
1070
   147
1040
0.625
1070
    77
1070
     1
1002
}
  0
LWPOLYLINE
  5
3825
330
1F
100
AcDbEntity
  8
SOLBET_Wymiary_Opisy
100
AcDbPolyline
 90
        3
 70
     0
 43
0.0
 10
94.91962964276433
 20
145.5686476570689
 10
107.5408242383655
 20
135.4362183492359
 10
134.4767973920172
 20
135.4362183492359
1001
ACAD
1000
DSTYLE
1002
{
1070
   147
1040
0.625
1070
    77
1070
     1
1002
}
  0
MTEXT
  5
3826
102
{ACAD_XDICTIONARY
360
3ACB
102
}
330
1F
100
AcDbEntity
  8
SOLBET_Wymiary_Opisy
100
AcDbMText
 10
108.3557600530553
 20
139.696083723328
 30
0.0
 40
2.5
 41
45.61266565198366
 71
     1
 72
     1
  1
S\U+0142up \U+017Celbetowy
  7
Solbet_2_5
 73
     1
 44
1.0
1001
ACAD
1000
MTEXTBEGIN
1070
    73
1070
     1
1070
    44
1040
1.0
1070
    74
1070
     0
1000
MTEXTEND
  0
LEADER
  5
3827
330
1F
100
AcDbEntity
  8
SOLBET_Wymiary_Opisy
100
AcDbLeader
  3
Solbet$7
 73
     0
 74
     0
 75
     1
 40
3.25
 41
32.5
 76
     3
 10
97.0353524596785
 20
106.0570242671136
 30
0.0
 10
107.4495764163794
 20
117.8476396088479
 30
0.0
 10
109.9495764163794
 20
117.8476396088479
 30
0.0
213
0.0
223
-0.2322806831707567
233
0.0
1001
ACAD
1000
DSTYLE
1002
{
1070
   147
1040
0.625
1070
    77
1070
     1
1002
}
  0
MTEXT
  5
3828
102
{ACAD_XDICTIONARY
360
3ACD
102
}
102
{ACAD_REACTORS
330
3827
102
}
330
1F
100
AcDbEntity
  8
SOLBET_Wymiary_Opisy
100
AcDbMText
 10
108.7419595514395
 20
125.8002540462881
 30
0.0
 40
2.5
 41
37.73157436816473
 71
     1
 72
     1
  1
Zbrojenie g\U+00F3rne strefy przypodporowej
  7
Solbet_2_5
 73
     1
 44
1.0
1001
ACAD
1000
MTEXTBEGIN
1070
    73
1070
     1
1070
    44
1040
1.0
1070
    74
1070
     0
1000
MTEXTEND
1000
ACAD_MTEXT_DEFINED_HEIGHT_BEGIN
1070
    46
1040
8.726348223906139
1000
ACAD_MTEXT_DEFINED_HEIGHT_END
  0
INSERT
  5
382D
330
1F
100
AcDbEntity
  8
SOLBET_Wymiary_Opisy
100
AcDbBlockReference
  2
_DotSmall
 10
90.83037895262805
 20
97.06271038026791
 30
0.0
 41
2.500000000000046
 42
2.5
 43
2.5
 50
330.0983732086731
1001
ACAD
1000
DSTYLE
1002
{
1070
   147
1040
0.625
1070
    77
1070
     1
1002
}
  0
LWPOLYLINE
  5
382E
330
1F
100
AcDbEntity
  8
SOLBET_Wymiary_Opisy
100
AcDbPolyline
 90
        3
 70
     0
 43
0.0
 10
90.83037895262805
 20
97.06271038026791
 10
76.2858901063164
 20
105.4267119214633
 10
42.23744155883219
 20
105.4267119214633
1001
ACAD
1000
DSTYLE
1002
{
1070
   147
1040
0.625
1070
    77
1070
     1
1002
}
  0
MTEXT
  5
382F
102
{ACAD_XDICTIONARY
360
3ACF
102
}
330
1F
100
AcDbEntity
  8
SOLBET_Wymiary_Opisy
100
AcDbMText
 10
70.00346348635935
 20
108.6767119214633
 30
0.0
 40
2.5
 41
0.0
 71
     3
 72
     1
  1
Wieniec \U+017Celbetowy
  7
Solbet_2_5
 73
     1
 44
1.0
1001
ACAD
1000
MTEXTBEGIN
1070
    73
1070
     1
1070
    44
1040
1.0
1070
    74
1070
     0
1000
MTEXTEND
  0
LINE
  5
3835
330
1F
100
AcDbEntity
  8
SOLBET_Zbrojenie_Konstrukcja
100
AcDbLine
 10
99.40503990493652
 20
154.4855680629437
 30
0.0
 11
99.40503990493652
 21
97.65069005415201
 31
0.0
  0
LINE
  5
3836
330
1F
100
AcDbEntity
  8
SOLBET_Zbrojenie_Konstrukcja
100
AcDbLine
 10
88.91099850794763
 20
154.4855680629437
 30
0.0
 11
88.91099850794763
 21
97.65069005415201
 31
0.0
  0
LINE
  5
3837
330
1F
100
AcDbEntity
  8
SOLBET_Zbrojenie_Konstrukcja
100
AcDbLine
 10
88.64721409037793
 20
109.8983113356074
 30
0.0
 11
99.83479410340715
 21
109.8983113356074
 31
0.0
  0
LINE
  5
3838
330
1F
100
AcDbEntity
  8
SOLBET_Zbrojenie_Konstrukcja
100
AcDbLine
 10
88.64721409037793
 20
114.8983113356069
 30
0.0
 11
99.83479410340715
 21
114.8983113356069
 31
0.0
  0
LINE
  5
3839
330
1F
100
AcDbEntity
  8
SOLBET_Zbrojenie_Konstrukcja
100
AcDbLine
 10
88.64721409037793
 20
119.8983113356074
 30
0.0
 11
99.83479410340715
 21
119.8983113356074
 31
0.0
  0
LINE
  5
383A
330
1F
100
AcDbEntity
  8
SOLBET_Zbrojenie_Konstrukcja
100
AcDbLine
 10
88.64721409037793
 20
129.8983113356069
 30
0.0
 11
99.83479410340715
 21
129.8983113356069
 31
0.0
  0
LINE
  5
383B
330
1F
100
AcDbEntity
  8
SOLBET_Zbrojenie_Konstrukcja
100
AcDbLine
 10
88.64721409037793
 20
139.8983113356069
 30
0.0
 11
99.83479410340715
 21
139.8983113356069
 31
0.0
  0
LINE
  5
3845
330
1F
100
AcDbEntity
  8
SOLBET_Beton
100
AcDbLine
 10
99.99327123209059
 20
155.4357387043576
 30
0.0
 11
99.99327122273768
 21
107.4357387314416
 31
0.0
  0
LINE
  5
3864
330
1F
100
AcDbEntity
  8
SOLBET_Bloczki
100
AcDbLine
 10
99.99327123209059
 20
95.4357386631703
 30
0.0
 11
99.99327123209059
 21
86.37804305376219
 31
0.0
  0
LINE
  5
3865
330
1F
100
AcDbEntity
  8
SOLBET_Bloczki
100
AcDbLine
 10
99.99327123209059
 20
95.4357386631703
 30
0.0
 11
87.99327123209058
 21
95.4357386631703
 31
0.0
  0
LINE
  5
3866
330
1F
100
AcDbEntity
  8
SOLBET_Bloczki
100
AcDbLine
 10
87.99327123209058
 20
95.4357386631703
 30
0.0
 11
87.99327123209058
 21
86.37804305376212
 31
0.0
  0
LWPOLYLINE
  5
3868
330
1F
100
AcDbEntity
  8
SOLBET_Beton
100
AcDbPolyline
 90
        6
 70
     1
 43
0.0
 10
87.99327122273769
 20
107.4357387337807
 10
87.99327122273769
 20
95.43573871906922
 10
95.99327122273042
 20
95.43573871906922
 10
95.99327122273042
 20
97.43573871906967
 10
163.4921927079986
 20
97.43573870435765
 10
163.4921927079986
 20
107.4357386584787
  0
LINE
  5
3869
330
1F
100
AcDbEntity
  8
SOLBET_Beton
100
AcDbLine
 10
87.99327123209058
 20
107.4357387043577
 30
0.0
 11
87.99327123209151
 21
155.4357387043576
 31
0.0
  0
POINT
  5
38FC
330
1F
100
AcDbEntity
  8
SOLBET_Bloczki
100
AcDbPoint
 10
0.0
 20
0.0
 30
0.0
  0
POINT
  5
38FD
330
1F
100
AcDbEntity
  8
SOLBET_Bloczki
100
AcDbPoint
 10
0.0
 20
0.0
 30
0.0
  0
LINE
  5
3936
330
1F
100
AcDbEntity
  8
SOLBET_Wymiary_Opisy
100
AcDbLine
 10
78.99327123209427
 20
141.1801832489666
 30
0.0
 11
78.99327123209423
 21
154.624035703919
 31
0.0
  0
LINE
  5
3939
330
1F
100
AcDbEntity
  8
SOLBET_Wymiary_Opisy
100
AcDbLine
 10
48.62697903140634
 20
141.1801832489653
 30
0.0
 11
78.99327123209423
 21
141.1801832489662
 31
0.0
  0
LINE
  5
393A
330
1F
100
AcDbEntity
  8
SOLBET_Wymiary_Opisy
100
AcDbLine
 10
53.43545381238761
 20
142.3301832489654
 30
0.0
 11
90.49327123209423
 21
160.1557797065564
 31
0.0
  0
LEADER
  5
393B
330
1F
100
AcDbEntity
  8
SOLBET_Wymiary_Opisy
100
AcDbLeader
  3
Solbet$7
 73
     0
 75
     1
 40
3.25
 41
33.25
 76
     3
 10
90.01607556614004
 20
155.6757387043579
 30
0.0
 10
63.69193968478663
 20
170.7424715200169
 30
0.0
 10
61.19193968478663
 20
170.7424715200169
 30
0.0
340
393C
213
0.1101187331678943
223
0.625
233
0.0
1001
ACAD
1000
DSTYLE
1002
{
1070
   147
1040
0.625
1070
    77
1070
     1
1002
}
  0
MTEXT
  5
393C
102
{ACAD_REACTORS
330
393B
102
}
330
1F
100
AcDbEntity
  8
SOLBET_Wymiary_Opisy
100
AcDbMText
 10
60.45682095161874
 20
173.9924715200169
 30
0.0
 40
2.5
 41
0.0
 71
     3
 72
     1
  1
Warstwa hydroizolacji
  7
Solbet_2_5
 73
     1
 44
1.0
1001
ACAD
1000
MTEXTBEGIN
1070
    73
1070
     1
1070
    44
1040
1.0
1070
    74
1070
     0
1000
MTEXTEND
  0
LINE
  5
393D
330
1F
100
AcDbEntity
  8
SOLBET_Wymiary_Opisy
100
AcDbLine
 10
49.77697903140636
 20
150.5574656349008
 30
0.0
 11
49.77697903140636
 21
141.1801832489653
 31
0.0
  0
LINE
  5
393E
330
1F
100
AcDbEntity
  8
SOLBET_Wymiary_Opisy
100
AcDbLine
 10
49.77697903140636
 20
142.3301832489654
 30
0.0
 11
78.99327123209427
 21
142.3301832489654
 31
0.0
  0
LINE
  5
393F
330
1F
100
AcDbEntity
  8
SOLBET_Zbrojenie_Konstrukcja
100
AcDbLine
 10
65.75798742010602
 20
142.3301832489654
 30
0.0
 11
65.75798742010602
 21
141.1801832489653
 31
0.0
  0
LINE
  5
3940
330
1F
100
AcDbEntity
  8
SOLBET_Zbrojenie_Konstrukcja
100
AcDbLine
 10
67.77697903140637
 20
141.1801832489653
 30
0.0
 11
74.77697903140636
 21
141.1801832489653
 31
0.0
  0
LINE
  5
3941
330
1F
100
AcDbEntity
  8
SOLBET_Zbrojenie_Konstrukcja
100
AcDbLine
 10
72.75798742010602
 20
141.1801832489653
 30
0.0
 11
72.75798742010602
 21
142.3301832489654
 31
0.0
  0
LINE
  5
3943
330
1F
100
AcDbEntity
  8
SOLBET_Zbrojenie_Konstrukcja
100
AcDbLine
 10
65.75798742010602
 20
142.3301832489654
 30
0.0
 11
72.75798742010602
 21
141.1801832489653
 31
0.0
  0
LINE
  5
3944
330
1F
100
AcDbEntity
  8
SOLBET_Zbrojenie_Konstrukcja
100
AcDbLine
 10
72.75798742010602
 20
142.3301832489654
 30
0.0
 11
65.75798742010602
 21
141.1801832489653
 31
0.0
  0
LWPOLYLINE
  5
3945
330
1F
100
AcDbEntity
  8
SOLBET_Emulsje_Folie
100
AcDbPolyline
 90
        4
 70
     1
 43
0.0
 10
89.4704006426282
 20
155.6757387043579
 10
98.516141821553
 20
155.6757387043579
 10
98.516141821553
 20
155.4357387043581
 10
89.4704006426282
 20
155.4357387043581
  0
LINE
  5
3946
330
1F
100
AcDbEntity
  8
SOLBET_Emulsje_Folie
  6
DASHED2
 48
0.3
370
    30
100
AcDbLine
 10
89.4704006426282
 20
155.5557387043589
 30
0.0
 11
98.516141821553
 21
155.5557387043589
 31
0.0
  0
LINE
  5
3947
330
1F
100
AcDbEntity
  8
SOLBET_Wymiary_Opisy
100
AcDbLine
 10
48.62697903140634
 20
141.1801832489653
 30
0.0
 11
78.99327123209427
 21
141.1801832489666
 31
0.0
  0
INSERT
  5
3948
330
1F
100
AcDbEntity
  8
SOLBET_Wymiary_Opisy
100
AcDbBlockReference
  2
_DotSmall
 10
63.18327476355091
 20
141.7357001839787
 30
0.0
 41
2.499999999999993
 42
2.5
 43
2.5
 50
42.1178892405643
1001
ACAD
1000
DSTYLE
1002
{
1070
   147
1040
0.625
1070
    77
1070
     1
1002
}
  0
LINE
  5
3949
330
1F
100
AcDbEntity
  8
SOLBET_Wymiary_Opisy
100
AcDbLine
 10
63.18327476355091
 20
141.7357001839787
 30
0.0
 11
52.22891441197333
 21
132.2502109365928
 31
0.0
1001
ACAD
1000
DSTYLE
1002
{
1070
   147
1040
0.625
1070
    77
1070
     1
1002
}
  0
MTEXT
  5
394A
330
1F
100
AcDbEntity
  8
SOLBET_Wymiary_Opisy
100
AcDbMText
 10
50.64358574122696
 20
135.36452146573
 30
0.0
 40
2.5
 41
0.0
 71
     3
 72
     1
  1
Podbitka
  7
Solbet_2_5
 73
     1
 44
1.0
1001
ACAD
1000
MTEXTBEGIN
1070
    73
1070
     1
1070
    44
1040
1.0
1070
    74
1070
     0
1000
MTEXTEND
  0
LWPOLYLINE
  5
394B
330
1F
100
AcDbEntity
  8
SOLBET_Wymiary_Opisy
100
AcDbPolyline
 90
        3
 70
     0
 43
0.0
 10
69.82026288369616
 20
141.9485871563725
 10
53.14356842510227
 20
127.315887216741
 10
19.88616381402073
 20
127.2944769890916
1001
ACAD
1000
DSTYLE
1002
{
1070
   147
1040
0.625
1070
    77
1070
     1
1002
}
  0
MTEXT
  5
394C
330
1F
100
AcDbEntity
  8
SOLBET_Wymiary_Opisy
100
AcDbMText
 10
50.91787391150012
 20
130.4796698633625
 30
0.0
 40
2.5
 41
0.0
 71
     3
 72
     1
  1
Kratka wentylacyjna
  7
Solbet_2_5
 73
     1
 44
1.0
1001
ACAD
1000
MTEXTBEGIN
1070
    73
1070
     1
1070
    44
1040
1.0
1070
    74
1070
     0
1000
MTEXTEND
  0
INSERT
  5
394D
330
1F
100
AcDbEntity
  8
SOLBET_Wymiary_Opisy
100
AcDbBlockReference
  2
_DotSmall
 10
69.82026288369616
 20
141.9485871563725
 30
0.0
 41
2.499999999999993
 42
2.5
 43
2.5
 50
42.1178892405643
1001
ACAD
1000
DSTYLE
1002
{
1070
   147
1040
0.625
1070
    77
1070
     1
1002
}
  0
LINE
  5
394E
330
1F
100
AcDbEntity
  8
SOLBET_Wymiary_Opisy
100
AcDbLine
 10
52.22891441197333
 20
132.2502109365928
 30
0.0
 11
37.35453449644058
 21
132.2502109365928
 31
0.0
  0
LINE
  5
394F
330
1F
100
AcDbEntity
  8
SOLBET_Zbrojenie_Konstrukcja
100
AcDbLine
 10
65.75798742010602
 20
142.3301832489654
 30
0.0
 11
72.75798742010602
 21
142.3301832489654
 31
0.0
  0
LINE
  5
3950
330
1F
100
AcDbEntity
  8
SOLBET_Zbrojenie_Konstrukcja
100
AcDbLine
 10
72.75798742010602
 20
141.1801832489653
 30
0.0
 11
65.75798742010602
 21
141.1801832489653
 31
0.0
  0
MTEXT
  5
3A8A
102
{ACAD_XDICTIONARY
360
3A8B
102
}
330
1F
100
AcDbEntity
  8
SOLBET_Wymiary_Opisy
100
AcDbMText
 10
176.9024892334916
 20
7.273150535415538
 30
0.0
 40
5.0
 41
0.0
 71
     1
 72
     5
  1
Skala 1:20
  7
Solbet_5
 73
     1
 44
1.0
1001
ACAD
1000
MTEXTBEGIN
1070
    73
1070
     1
1070
    44
1040
1.0
1070
    74
1070
     0
1000
MTEXTEND
1000
ACAD_MTEXT_DEFINED_HEIGHT_BEGIN
1070
    46
1040
5.395147572682731
1000
ACAD_MTEXT_DEFINED_HEIGHT_END
  0
LWPOLYLINE
  5
3A8D
330
1F
100
AcDbEntity
  8
SOLBET_Ramka_05
100
AcDbPolyline
 90
        4
 70
     1
 43
0.0
 10
173.8838231125778
 20
9.804221198935465
 10
210.0
 20
9.804221198935465
 10
210.0
 20
0.0
 10
173.8838231125779
 20
0.0
  0
ENDSEC
  0
SECTION
  2
OBJECTS
  0
DICTIONARY
  5
C
330
0
100
AcDbDictionary
281
     1
  3
ACAD_COLOR
350
6B
  3
ACAD_GROUP
350
D
  3
ACAD_LAYOUT
350
1A
  3
ACAD_MATERIAL
350
6A
  3
ACAD_MLEADERSTYLE
350
12D
  3
ACAD_MLINESTYLE
350
17
  3
ACAD_PLOTSETTINGS
350
19
  3
ACAD_PLOTSTYLENAME
350
E
  3
ACAD_SCALELIST
350
10C
  3
ACAD_TABLESTYLE
350
7E
  3
ACAD_VISUALSTYLE
350
EF
  3
ACDB_RECOMPOSE_DATA
350
15D
  3
AcDbVariableDictionary
350
5E
  3
DWGPROPS
350
3ABB
  0
DICTIONARY
  5
443
330
8
100
AcDbDictionary
280
     1
281
     1
  0
DICTIONARY
  5
3E5
330
2
100
AcDbDictionary
280
     1
281
     1
  3
ACAD_LAYERFILTERS
360
1883
  3
ACLYDICTIONARY
360
1882
  0
DICTIONARY
  5
13C
330
10
100
AcDbDictionary
280
     1
281
     1
  3
ADSK_XREC_LAYER_RECONCILED
360
3F4
  0
DICTIONARY
  5
403
330
3DD
100
AcDbDictionary
280
     1
281
     1
  3
ADSK_XREC_LAYER_RECONCILED
360
404
  0
DICTIONARY
  5
405
330
3DF
100
AcDbDictionary
280
     1
281
     1
  3
ADSK_XREC_LAYER_RECONCILED
360
406
  0
DICTIONARY
  5
409
330
3E1
100
AcDbDictionary
280
     1
281
     1
  3
ADSK_XREC_LAYER_RECONCILED
360
40A
  0
DICTIONARY
  5
40B
330
3E2
100
AcDbDictionary
280
     1
281
     1
  3
ADSK_XREC_LAYER_RECONCILED
360
40C
  0
DICTIONARY
  5
40F
330
3E4
100
AcDbDictionary
280
     1
281
     1
  3
ADSK_XREC_LAYER_RECONCILED
360
410
  0
DICTIONARY
  5
411
330
3E8
100
AcDbDictionary
280
     1
281
     1
  3
ADSK_XREC_LAYER_RECONCILED
360
412
  0
DICTIONARY
  5
3A4D
330
3A4C
100
AcDbDictionary
280
     1
281
     1
  3
ASDK_XREC_ANNO_SCALE_INFO
360
3A4E
  0
DICTIONARY
  5
4A3
330
1F
100
AcDbDictionary
280
     1
281
     1
  3
ACAD_SORTENTS
360
4A4
  0
DICTIONARY
  5
37F0
330
37EF
100
AcDbDictionary
280
     1
281
     1
  3
ACAD_MTEXT_RT
360
3AC8
  3
AcDbContextDataManager
360
37F1
  0
DICTIONARY
  5
3AC9
330
3823
100
AcDbDictionary
280
     1
281
     1
  3
ACAD_MTEXT_RT
360
3ACA
  0
DICTIONARY
  5
3ACB
330
3826
100
AcDbDictionary
280
     1
281
     1
  3
ACAD_MTEXT_RT
360
3ACC
  0
DICTIONARY
  5
3ACD
330
3828
100
AcDbDictionary
280
     1
281
     1
  3
ACAD_MTEXT_RT
360
3ACE
  0
DICTIONARY
  5
3ACF
330
382F
100
AcDbDictionary
280
     1
281
     1
  3
ACAD_MTEXT_RT
360
3AD0
  0
DICTIONARY
  5
3A8B
330
3A8A
100
AcDbDictionary
280
     1
281
     1
  3
ACAD_MTEXT_2008_RT
360
3A8C
  0
DICTIONARY
  5
6B
102
{ACAD_REACTORS
330
C
102
}
330
C
100
AcDbDictionary
281
     1
  0
DICTIONARY
  5
D
102
{ACAD_REACTORS
330
C
102
}
330
C
100
AcDbDictionary
281
     1
  0
DICTIONARY
  5
1A
102
{ACAD_REACTORS
330
C
102
}
330
C
100
AcDbDictionary
281
     1
  3
Arkusz1
350
D3
  3
Arkusz2
350
D7
  3
Model
350
22
  0
DICTIONARY
  5
6A
102
{ACAD_REACTORS
330
C
102
}
330
C
100
AcDbDictionary
281
     1
  3
ByBlock
350
ED
  3
ByLayer
350
EC
  3
Global
350
EE
  0
DICTIONARY
  5
12D
102
{ACAD_REACTORS
330
C
102
}
330
C
100
AcDbDictionary
281
     1
  3
Standard
350
12E
  0
DICTIONARY
  5
17
102
{ACAD_REACTORS
330
C
102
}
330
C
100
AcDbDictionary
281
     1
  3
SOLBET_IZOLACJA
350
7E9
  3
Standard
350
18
  0
DICTIONARY
  5
19
102
{ACAD_REACTORS
330
C
102
}
330
C
100
AcDbDictionary
281
     1
  0
ACDBDICTIONARYWDFLT
  5
E
102
{ACAD_REACTORS
330
C
102
}
330
C
100
AcDbDictionary
281
     1
  3
Normal
350
F
100
AcDbDictionaryWithDefault
340
F
  0
DICTIONARY
  5
10C
102
{ACAD_REACTORS
330
C
102
}
330
C
100
AcDbDictionary
281
     1
  3
A0
350
10D
  3
A1
350
188
  3
A2
350
189
  3
A3
350
18A
  3
A4
350
18B
  3
A5
350
18C
  3
A6
350
18D
  3
A7
350
18E
  3
A8
350
18F
  3
A9
350
190
  3
B0
350
191
  3
B1
350
192
  3
B2
350
193
  3
B3
350
194
  3
B4
350
195
  3
B5
350
196
  3
B6
350
197
  3
B7
350
198
  3
B8
350
199
  3
B9
350
19A
  3
C0
350
19B
  3
C1
350
19C
  3
C2
350
19D
  3
C3
350
19E
  3
C4
350
19F
  3
C5
350
1A0
  3
C6
350
1A1
  3
C7
350
1A2
  3
C8
350
1A3
  3
C9
350
1A4
  3
D0
350
1A5
  3
D1
350
1A6
  3
D2
350
1A7
  0
DICTIONARY
  5
7E
102
{ACAD_REACTORS
330
C
102
}
330
C
100
AcDbDictionary
281
     1
  3
Standard
350
7F
  0
DICTIONARY
  5
EF
102
{ACAD_REACTORS
330
C
102
}
330
C
100
AcDbDictionary
281
     1
  3
2dWireframe
350
F5
  3
3D Hidden
350
F7
  3
3dWireframe
350
F6
  3
Basic
350
F4
  3
Brighten
350
FB
  3
ColorChange
350
FF
  3
Conceptual
350
F8
  3
Dim
350
FA
  3
Facepattern
350
FE
  3
Flat
350
F0
  3
FlatWithEdges
350
F1
  3
Gouraud
350
F2
  3
GouraudWithEdges
350
F3
  3
Linepattern
350
FD
  3
Realistic
350
F9
  3
Thicken
350
FC
  0
XRECORD
  5
15D
102
{ACAD_REACTORS
330
C
102
}
330
C
100
AcDbXrecord
280
     1
 90
        1
330
7F
330
37EF
  0
DICTIONARY
  5
5E
102
{ACAD_REACTORS
330
C
102
}
330
C
100
AcDbDictionary
281
     1
  3
CANNOSCALE
350
146
  3
CMLEADERSTYLE
350
145
  3
CTABLESTYLE
350
84
  3
DIMASSOC
350
5F
  3
HIDETEXT
350
63
  3
INDEXCTL
350
466
  3
LIGHTINGUNITS
350
464
  3
MSLTSCALE
350
463
  3
PSOLHEIGHT
350
3ABA
  3
PSOLWIDTH
350
3AB9
  3
SORTENTS
350
465
  0
XRECORD
  5
3ABB
102
{ACAD_REACTORS
330
C
102
}
330
C
100
AcDbXrecord
280
     1
  1
DWGPROPS COOKIE
  2

  3

  4

  6

  7

  8
Olus
  9

300
=
301
=
302
=
303
=
304
=
305
=
306
=
307
=
308
=
309
=
 40
0.7248589236111112
 41
2454690.075573148
 42
2454848.889296424
  1

 90
        0
  0
DICTIONARY
  5
1883
102
{ACAD_REACTORS
330
3E5
102
}
330
3E5
100
AcDbDictionary
281
     1
  0
DICTIONARY
  5
1882
102
{ACAD_REACTORS
330
3E5
102
}
330
3E5
100
AcDbDictionary
281
     1
1001
ACAD
1000
<All
  0
XRECORD
  5
3F4
102
{ACAD_REACTORS
330
13C
102
}
330
13C
100
AcDbXrecord
280
     1
290
     1
  0
XRECORD
  5
404
102
{ACAD_REACTORS
330
403
102
}
330
403
100
AcDbXrecord
280
     1
290
     1
  0
XRECORD
  5
406
102
{ACAD_REACTORS
330
405
102
}
330
405
100
AcDbXrecord
280
     1
290
     1
  0
XRECORD
  5
40A
102
{ACAD_REACTORS
330
409
102
}
330
409
100
AcDbXrecord
280
     1
290
     1
  0
XRECORD
  5
40C
102
{ACAD_REACTORS
330
40B
102
}
330
40B
100
AcDbXrecord
280
     1
290
     1
  0
XRECORD
  5
410
102
{ACAD_REACTORS
330
40F
102
}
330
40F
100
AcDbXrecord
280
     1
290
     1
  0
XRECORD
  5
412
102
{ACAD_REACTORS
330
411
102
}
330
411
100
AcDbXrecord
280
     1
290
     1
  0
XRECORD
  5
3A4E
102
{ACAD_REACTORS
330
3A4D
102
}
330
3A4D
100
AcDbXrecord
280
     1
 70
     1
340
10D
340
3DF
 70
    -1
  0
SORTENTSTABLE
  5
4A4
102
{ACAD_REACTORS
330
4A3
102
}
330
4A3
100
AcDbSortentsTable
330
1F
331
37C1
  5
37C1
331
3782
  5
3782
331
37F8
  5
37F8
331
37C9
  5
37C9
331
378A
  5
378A
331
37D1
  5
37D1
331
3792
  5
3792
331
3808
  5
3808
331
3810
  5
3810
331
3746
  5
3746
331
3763
  5
3763
331
376B
  5
376B
331
37AA
  5
37AA
331
37E1
  5
37E1
331
3828
  5
3828
331
3773
  5
3773
331
377B
  5
377B
331
37BA
  5
37BA
331
3838
  5
3838
331
374E
  5
374E
331
3756
  5
3756
331
375E
  5
375E
331
37C2
  5
37C2
331
3783
  5
3783
331
37F9
  5
37F9
331
37CA
  5
37CA
331
378B
  5
378B
331
3801
  5
3801
331
3793
  5
3793
331
3809
  5
3809
331
379B
  5
379B
331
3811
  5
3811
331
3747
  5
3747
331
3764
  5
3764
331
37A3
  5
37A3
331
3821
  5
3821
331
3868
  5
3866
331
376C
  5
376C
331
37AB
  5
37AB
331
37E2
  5
37E2
331
3774
  5
3774
331
37B3
  5
37B3
331
37EA
  5
37EA
331
377C
  5
377C
331
37BB
  5
37BB
331
3839
  5
3839
331
374F
  5
374F
331
3757
  5
3757
331
375F
  5
375F
331
37C3
  5
37C3
331
3784
  5
3784
331
37FA
  5
37FA
331
378C
  5
378C
331
3802
  5
3802
331
3794
  5
3794
331
380A
  5
380A
331
379C
  5
379C
331
3812
  5
3812
331
3765
  5
3765
331
37A4
  5
37A4
331
37DB
  5
37DB
331
3822
  5
3822
331
3869
  5
3868
331
376D
  5
376D
331
37AC
  5
37AC
331
37E3
  5
37E3
331
3775
  5
3775
331
37EB
  5
37EB
331
377D
  5
377D
331
37BC
  5
37BC
331
383A
  5
383A
331
3748
  5
3748
331
3750
  5
3750
331
3758
  5
3758
331
37C4
  5
37C4
331
3785
  5
3785
331
37FB
  5
37FB
331
37CC
  5
37CC
331
3803
  5
3803
331
3795
  5
3795
331
380B
  5
380B
331
3813
  5
3813
331
3766
  5
3766
331
3823
  5
3823
331
37AD
  5
37AD
331
37E4
  5
37E4
331
3776
  5
3776
331
37EC
  5
37EC
331
377E
  5
377E
331
37BD
  5
37BD
331
37F4
  5
37F4
331
383B
  5
383B
331
3749
  5
3749
331
3751
  5
3751
331
3759
  5
3759
331
37C5
  5
37C5
331
3786
  5
3786
331
37FC
  5
37FC
331
37CD
  5
37CD
331
378E
  5
378E
331
3804
  5
3804
331
3796
  5
3796
331
380C
  5
380C
331
379E
  5
379E
331
3814
  5
3814
331
3767
  5
3767
331
37A6
  5
37A6
331
3824
  5
3824
331
376F
  5
376F
331
37AE
  5
37AE
331
3777
  5
3777
331
37B6
  5
37B6
331
37ED
  5
37ED
331
377F
  5
377F
331
37BE
  5
37BE
331
37F5
  5
37F5
331
374A
  5
374A
331
3752
  5
3752
331
375A
  5
375A
331
37C6
  5
37C6
331
3787
  5
3787
331
37FD
  5
37FD
331
37CE
  5
37CE
331
378F
  5
378F
331
3805
  5
3805
331
3797
  5
3797
331
380D
  5
380D
331
3864
  5
3864
331
379F
  5
379F
331
3760
  5
3760
331
3768
  5
3768
331
37A7
  5
37A7
331
37DE
  5
37DE
331
3825
  5
3825
331
3770
  5
3770
331
37AF
  5
37AF
331
37E6
  5
37E6
331
382D
  5
382D
331
3778
  5
3778
331
37B7
  5
37B7
331
37EE
  5
37EE
331
3835
  5
3835
331
37BF
  5
37BF
331
37F6
  5
37F6
331
374B
  5
374B
331
3753
  5
3753
331
375B
  5
375B
331
3780
  5
3780
331
37FE
  5
37FE
331
37C7
  5
37C7
331
3788
  5
3788
331
3845
  5
3845
331
37CF
  5
37CF
331
3790
  5
3790
331
3806
  5
3806
331
3798
  5
3798
331
380E
  5
380E
331
3865
  5
3869
331
3761
  5
3761
331
37A0
  5
37A0
331
3769
  5
3769
331
37A8
  5
37A8
331
37DF
  5
37DF
331
3826
  5
3826
331
3771
  5
3771
331
37B0
  5
37B0
331
37E7
  5
37E7
331
382E
  5
382E
331
3779
  5
3779
331
37B8
  5
37B8
331
37EF
  5
37EF
331
3836
  5
3836
331
37F7
  5
37F7
331
374C
  5
374C
331
3754
  5
3754
331
375C
  5
375C
331
37C0
  5
37C0
331
3781
  5
3781
331
37C8
  5
37C8
331
3789
  5
3789
331
37FF
  5
37FF
331
37D0
  5
37D0
331
3807
  5
3807
331
3799
  5
3799
331
380F
  5
380F
331
3866
  5
3865
331
3762
  5
3762
331
37A1
  5
37A1
331
376A
  5
376A
331
37E0
  5
37E0
331
3827
  5
3827
331
3772
  5
3772
331
37B1
  5
37B1
331
37E8
  5
37E8
331
382F
  5
382F
331
377A
  5
377A
331
37B9
  5
37B9
331
3837
  5
3837
331
374D
  5
374D
331
3755
  5
3755
331
375D
  5
375D
  0
XRECORD
  5
3AC8
102
{ACAD_REACTORS
330
37F0
102
}
330
37F0
100
AcDbXrecord
280
     1
 40
210527.0
  1
{\LDETAL 93\P}Wzmocnienie ściany kolankowej jednowarstwowej
  0
DICTIONARY
  5
37F1
102
{ACAD_REACTORS
330
37F0
102
}
330
37F0
100
AcDbDictionary
281
     1
  3
ACDB_ANNOTATIONSCALES
350
37F2
  0
XRECORD
  5
3ACA
102
{ACAD_REACTORS
330
3AC9
102
}
330
3AC9
100
AcDbXrecord
280
     1
 40
204950.0
  1
Murłata przymocowana \Pśrubami kotwionymi w wieńcu
  0
XRECORD
  5
3ACC
102
{ACAD_REACTORS
330
3ACB
102
}
330
3ACB
100
AcDbXrecord
280
     1
 40
30785.0
  1
Słup żelbetowy
  0
XRECORD
  5
3ACE
102
{ACAD_REACTORS
330
3ACD
102
}
330
3ACD
100
AcDbXrecord
280
     1
 40
94764.0
  1
Zbrojenie górne strefy przypodporowej
  0
XRECORD
  5
3AD0
102
{ACAD_REACTORS
330
3ACF
102
}
330
3ACF
100
AcDbXrecord
280
     1
 40
25446.0
  1
Wieniec żelbetowy
  0
XRECORD
  5
3A8C
102
{ACAD_REACTORS
330
3A8B
102
}
330
3A8B
100
AcDbXrecord
280
     1
 40
24748.0
  1
\pxqc;C\P(5 : 1)
  0
LAYOUT
  5
D3
102
{ACAD_XDICTIONARY
360
3ABF
102
}
102
{ACAD_REACTORS
330
1A
102
}
330
1A
100
AcDbPlotSettings
  1

  2
C:\Documents and Settings\basas\Application Data\Autodesk\AutoCAD 2005\R16.1\enu\plotters\Default Windows System Printer.pc3
  4

  6

 40
0.0
 41
0.0
 42
0.0
 43
0.0
 44
0.0
 45
0.0
 46
0.0
 47
0.0
 48
0.0
 49
0.0
140
0.0
141
0.0
142
1.0
143
1.0
 70
   688
 72
     0
 73
     0
 74
     5
  7

 75
    16
147
1.0
148
0.0
149
0.0
100
AcDbLayout
  1
Arkusz1
 70
     1
 71
     1
 10
0.0
 20
0.0
 11
12.0
 21
9.0
 12
0.0
 22
0.0
 32
0.0
 14
0.0
 24
0.0
 34
0.0
 15
0.0
 25
0.0
 35
0.0
146
0.0
 13
0.0
 23
0.0
 33
0.0
 16
1.0
 26
0.0
 36
0.0
 17
0.0
 27
1.0
 37
0.0
 76
     0
330
D2
  0
LAYOUT
  5
D7
102
{ACAD_XDICTIONARY
360
3AC1
102
}
102
{ACAD_REACTORS
330
1A
102
}
330
1A
100
AcDbPlotSettings
  1

  2
C:\Documents and Settings\basas\Application Data\Autodesk\AutoCAD 2005\R16.1\enu\plotters\Default Windows System Printer.pc3
  4

  6

 40
0.0
 41
0.0
 42
0.0
 43
0.0
 44
0.0
 45
0.0
 46
0.0
 47
0.0
 48
0.0
 49
0.0
140
0.0
141
0.0
142
1.0
143
1.0
 70
   688
 72
     0
 73
     0
 74
     5
  7

 75
    16
147
1.0
148
0.0
149
0.0
100
AcDbLayout
  1
Arkusz2
 70
     1
 71
     2
 10
0.0
 20
0.0
 11
12.0
 21
9.0
 12
0.0
 22
0.0
 32
0.0
 14
0.0
 24
0.0
 34
0.0
 15
0.0
 25
0.0
 35
0.0
146
0.0
 13
0.0
 23
0.0
 33
0.0
 16
1.0
 26
0.0
 36
0.0
 17
0.0
 27
1.0
 37
0.0
 76
     0
330
D6
  0
LAYOUT
  5
22
102
{ACAD_XDICTIONARY
360
3ABC
102
}
102
{ACAD_REACTORS
330
1A
102
}
330
1A
100
AcDbPlotSettings
  1

  2
none_device
  4
Letter_(8.50_x_11.00_Inches)
  6

 40
6.349999904632568
 41
6.349999904632568
 42
6.350006103515625
 43
6.350006103515625
 44
215.8999938964844
 45
279.3999938964844
 46
11.54999923706054
 47
-13.65000009536743
 48
0.0
 49
0.0
140
210.0
141
297.0
142
1.0
143
1.0
 70
 11936
 72
     1
 73
     0
 74
     4
  7

 75
     0
147
0.9999999999999998
148
0.0
149
0.0
100
AcDbLayout
  1
Model
 70
     1
 71
     0
 10
0.0
 20
0.0
 11
12.0
 21
9.0
 12
0.0
 22
0.0
 32
0.0
 14
0.0
 24
0.0
 34
0.0
 15
0.0
 25
0.0
 35
0.0
146
0.0
 13
0.0
 23
0.0
 33
0.0
 16
1.0
 26
0.0
 36
0.0
 17
0.0
 27
1.0
 37
0.0
 76
     0
330
1F
331
EA
1001
ACAD_PSEXT
1000
Brak
1000
Brak
1000
Nie można zastosować.
1000
Arkusz nie zostanie wydrukowany dopóki nie wybrano konfiguracji plotera.
1070
     0
  0
MATERIAL
  5
ED
102
{ACAD_XDICTIONARY
360
3AC5
102
}
102
{ACAD_REACTORS
330
6A
102
}
330
6A
100
AcDbMaterial
  1
ByBlock
 73
     2
 78
     2
172
     2
176
     2
270
     2
274
     2
  0
MATERIAL
  5
EC
102
{ACAD_XDICTIONARY
360
3AC3
102
}
102
{ACAD_REACTORS
330
6A
102
}
330
6A
100
AcDbMaterial
  1
ByLayer
 73
     2
 78
     2
172
     2
176
     2
270
     2
274
     2
  0
MATERIAL
  5
EE
102
{ACAD_XDICTIONARY
360
173
102
}
102
{ACAD_REACTORS
330
6A
102
}
330
6A
100
AcDbMaterial
  1
Global
 73
     2
 43
0.0007999999797903
 43
0.0
 43
0.0
 43
0.0
 43
0.0
 43
0.0007999999797903
 43
0.0
 43
0.0
 43
0.0
 43
0.0
 43
1.0
 43
0.0
 43
0.0
 43
0.0
 43
0.0
 43
1.0
 78
     2
172
     2
 49
0.0007999999797903
 49
0.0
 49
0.0
 49
0.0
 49
0.0
 49
0.0007999999797903
 49
0.0
 49
0.0
 49
0.0
 49
0.0
 49
1.0
 49
0.0
 49
0.0
 49
0.0
 49
0.0
 49
1.0
176
     2
142
0.0007999999797903
142
0.0
142
0.0
142
0.0
142
0.0
142
0.0007999999797903
142
0.0
142
0.0
142
0.0
142
0.0
142
1.0
142
0.0
142
0.0
142
0.0
142
0.0
142
1.0
270
     2
144
0.0007999999797903
144
0.0
144
0.0
144
0.0
144
0.0
144
0.0007999999797903
144
0.0
144
0.0
144
0.0
144
0.0
144
1.0
144
0.0
144
0.0
144
0.0
144
0.0
144
1.0
274
     2
1001
ACAD
1070
    -1
1070
     3
1070
     0
1000

1071
        0
1070
     0
  0
ACAD_PROXY_OBJECT
  5
12E
102
{ACAD_REACTORS
330
12D
102
}
330
12D
100
AcDbProxyObject
 90
      499
 91
      508
 95
       23
 70
     0
 93
      618
310
40901902A4063FBFFFFFE0000000000000020400000000000020404254DD185B99185C99000000000000000104090140501A0000000000000410000000000000004102576400000000000003903F
340
14
340
0
340
11
340
0
 94
        0
1001
ACAD_MLEADERVER
1070
     2
1001
ACAD
1000
AcRTDxfName
1000
MLEADERSTYLE
  0
MLINESTYLE
  5
7E9
102
{ACAD_REACTORS
330
17
102
}
330
17
100
AcDbMlineStyle
  2
SOLBET_IZOLACJA
 70
   272
  3

 62
   256
 51
90.0
 52
90.0
 71
     2
 49
0.008
 62
   256
  6
BYLAYER
 49
-0.008
 62
   256
  6
BYLAYER
  0
MLINESTYLE
  5
18
102
{ACAD_REACTORS
330
17
102
}
330
17
100
AcDbMlineStyle
  2
STANDARD
 70
     0
  3

 62
   256
 51
90.0
 52
90.0
 71
     2
 49
0.5
 62
   256
  6
BYLAYER
 49
-0.5
 62
   256
  6
BYLAYER
  0
ACDBPLACEHOLDER
  5
F
102
{ACAD_REACTORS
330
E
102
}
330
E
  0
ACAD_PROXY_OBJECT
  5
10D
102
{ACAD_REACTORS
330
10C
102
}
330
10C
100
AcDbProxyObject
 90
      499
 91
      507
 95
       23
 70
     0
 93
       49
310
904313A31005FF
 94
        0
1001
ACAD
1000
AcRTDxfName
1000
SCALE
  0
ACAD_PROXY_OBJECT
  5
188
102
{ACAD_REACTORS
330
10C
102
}
330
10C
100
AcDbProxyObject
 90
      499
 91
      507
 95
       23
 70
     0
 93
      113
310
904313A3200400000000000000407F
 94
        0
1001
ACAD
1000
AcRTDxfName
1000
SCALE
  0
ACAD_PROXY_OBJECT
  5
189
102
{ACAD_REACTORS
330
10C
102
}
330
10C
100
AcDbProxyObject
 90
      499
 91
      507
 95
       23
 70
     0
 93
      113
310
904313A3400400000000000010407F
 94
        0
1001
ACAD
1000
AcRTDxfName
1000
SCALE
  0
ACAD_PROXY_OBJECT
  5
18A
102
{ACAD_REACTORS
330
10C
102
}
330
10C
100
AcDbProxyObject
 90
      499
 91
      507
 95
       23
 70
     0
 93
      113
310
904313A3500400000000000014407F
 94
        0
1001
ACAD
1000
AcRTDxfName
1000
SCALE
  0
ACAD_PROXY_OBJECT
  5
18B
102
{ACAD_REACTORS
330
10C
102
}
330
10C
100
AcDbProxyObject
 90
      499
 91
      507
 95
       23
 70
     0
 93
      113
310
904313A3800400000000000020407F
 94
        0
1001
ACAD
1000
AcRTDxfName
1000
SCALE
  0
ACAD_PROXY_OBJECT
  5
18C
102
{ACAD_REACTORS
330
10C
102
}
330
10C
100
AcDbProxyObject
 90
      499
 91
      507
 95
       23
 70
     0
 93
      121
310
905313A313000400000000000024407F
 94
        0
1001
ACAD
1000
AcRTDxfName
1000
SCALE
  0
ACAD_PROXY_OBJECT
  5
18D
102
{ACAD_REACTORS
330
10C
102
}
330
10C
100
AcDbProxyObject
 90
      499
 91
      507
 95
       23
 70
     0
 93
      121
310
905313A313600400000000000030407F
 94
        0
1001
ACAD
1000
AcRTDxfName
1000
SCALE
  0
ACAD_PROXY_OBJECT
  5
18E
102
{ACAD_REACTORS
330
10C
102
}
330
10C
100
AcDbProxyObject
 90
      499
 91
      507
 95
       23
 70
     0
 93
      121
310
905313A323000400000000000034407F
 94
        0
1001
ACAD
1000
AcRTDxfName
1000
SCALE
  0
ACAD_PROXY_OBJECT
  5
18F
102
{ACAD_REACTORS
330
10C
102
}
330
10C
100
AcDbProxyObject
 90
      499
 91
      507
 95
       23
 70
     0
 93
      121
310
905313A33300040000000000003E407F
 94
        0
1001
ACAD
1000
AcRTDxfName
1000
SCALE
  0
ACAD_PROXY_OBJECT
  5
190
102
{ACAD_REACTORS
330
10C
102
}
330
10C
100
AcDbProxyObject
 90
      499
 91
      507
 95
       23
 70
     0
 93
      121
310
905313A343000400000000000044407F
 94
        0
1001
ACAD
1000
AcRTDxfName
1000
SCALE
  0
ACAD_PROXY_OBJECT
  5
191
102
{ACAD_REACTORS
330
10C
102
}
330
10C
100
AcDbProxyObject
 90
      499
 91
      507
 95
       23
 70
     0
 93
      121
310
905313A353000400000000000049407F
 94
        0
1001
ACAD
1000
AcRTDxfName
1000
SCALE
  0
ACAD_PROXY_OBJECT
  5
192
102
{ACAD_REACTORS
330
10C
102
}
330
10C
100
AcDbProxyObject
 90
      499
 91
      507
 95
       23
 70
     0
 93
      129
310
906313A31303000400000000000059407F
 94
        0
1001
ACAD
1000
AcRTDxfName
1000
SCALE
  0
ACAD_PROXY_OBJECT
  5
193
102
{ACAD_REACTORS
330
10C
102
}
330
10C
100
AcDbProxyObject
 90
      499
 91
      507
 95
       23
 70
     0
 93
      113
310
904323A3100000000000000001017F
 94
        0
1001
ACAD
1000
AcRTDxfName
1000
SCALE
  0
ACAD_PROXY_OBJECT
  5
194
102
{ACAD_REACTORS
330
10C
102
}
330
10C
100
AcDbProxyObject
 90
      499
 91
      507
 95
       23
 70
     0
 93
      113
310
904343A3100000000000000041017F
 94
        0
1001
ACAD
1000
AcRTDxfName
1000
SCALE
  0
ACAD_PROXY_OBJECT
  5
195
102
{ACAD_REACTORS
330
10C
102
}
330
10C
100
AcDbProxyObject
 90
      499
 91
      507
 95
       23
 70
     0
 93
      113
310
904383A3100000000000000081017F
 94
        0
1001
ACAD
1000
AcRTDxfName
1000
SCALE
  0
ACAD_PROXY_OBJECT
  5
196
102
{ACAD_REACTORS
330
10C
102
}
330
10C
100
AcDbProxyObject
 90
      499
 91
      507
 95
       23
 70
     0
 93
      121
310
90531303A3100000000000000091017F
 94
        0
1001
ACAD
1000
AcRTDxfName
1000
SCALE
  0
ACAD_PROXY_OBJECT
  5
197
102
{ACAD_REACTORS
330
10C
102
}
330
10C
100
AcDbProxyObject
 90
      499
 91
      507
 95
       23
 70
     0
 93
      129
310
9063130303A3100000000000000165017F
 94
        0
1001
ACAD
1000
AcRTDxfName
1000
SCALE
  0
ACAD_PROXY_OBJECT
  5
198
102
{ACAD_REACTORS
330
10C
102
}
330
10C
100
AcDbProxyObject
 90
      499
 91
      507
 95
       23
 70
     0
 93
      265
310
90F312F31323822203D2031272D302200000000000000200FC00000000000028407F
 94
        0
1001
ACAD
1000
AcRTDxfName
1000
SCALE
  0
ACAD_PROXY_OBJECT
  5
199
102
{ACAD_REACTORS
330
10C
102
}
330
10C
100
AcDbProxyObject
 90
      499
 91
      507
 95
       23
 70
     0
 93
      257
310
90E312F363422203D2031272D302200000000000000240FC00000000000028407F
 94
        0
1001
ACAD
1000
AcRTDxfName
1000
SCALE
  0
ACAD_PROXY_OBJECT
  5
19A
102
{ACAD_REACTORS
330
10C
102
}
330
10C
100
AcDbProxyObject
 90
      499
 91
      507
 95
       23
 70
     0
 93
      257
310
90E312F333222203D2031272D302200000000000000280FC00000000000028407F
 94
        0
1001
ACAD
1000
AcRTDxfName
1000
SCALE
  0
ACAD_PROXY_OBJECT
  5
19B
102
{ACAD_REACTORS
330
10C
102
}
330
10C
100
AcDbProxyObject
 90
      499
 91
      507
 95
       23
 70
     0
 93
      257
310
90E312F313622203D2031272D3022000000000000002C0FC00000000000028407F
 94
        0
1001
ACAD
1000
AcRTDxfName
1000
SCALE
  0
ACAD_PROXY_OBJECT
  5
19C
102
{ACAD_REACTORS
330
10C
102
}
330
10C
100
AcDbProxyObject
 90
      499
 91
      507
 95
       23
 70
     0
 93
      257
310
90E332F333222203D2031272D3022000000000000002E0FC00000000000028407F
 94
        0
1001
ACAD
1000
AcRTDxfName
1000
SCALE
  0
ACAD_PROXY_OBJECT
  5
19D
102
{ACAD_REACTORS
330
10C
102
}
330
10C
100
AcDbProxyObject
 90
      499
 91
      507
 95
       23
 70
     0
 93
      249
310
90D312F3822203D2031272D302200000000000000300FC00000000000028407F
 94
        0
1001
ACAD
1000
AcRTDxfName
1000
SCALE
  0
ACAD_PROXY_OBJECT
  5
19E
102
{ACAD_REACTORS
330
10C
102
}
330
10C
100
AcDbProxyObject
 90
      499
 91
      507
 95
       23
 70
     0
 93
      257
310
90E332F313622203D2031272D302200000000000000320FC00000000000028407F
 94
        0
1001
ACAD
1000
AcRTDxfName
1000
SCALE
  0
ACAD_PROXY_OBJECT
  5
19F
102
{ACAD_REACTORS
330
10C
102
}
330
10C
100
AcDbProxyObject
 90
      499
 91
      507
 95
       23
 70
     0
 93
      249
310
90D312F3422203D2031272D302200000000000000340FC00000000000028407F
 94
        0
1001
ACAD
1000
AcRTDxfName
1000
SCALE
  0
ACAD_PROXY_OBJECT
  5
1A0
102
{ACAD_REACTORS
330
10C
102
}
330
10C
100
AcDbProxyObject
 90
      499
 91
      507
 95
       23
 70
     0
 93
      249
310
90D332F3822203D2031272D302200000000000000360FC00000000000028407F
 94
        0
1001
ACAD
1000
AcRTDxfName
1000
SCALE
  0
ACAD_PROXY_OBJECT
  5
1A1
102
{ACAD_REACTORS
330
10C
102
}
330
10C
100
AcDbProxyObject
 90
      499
 91
      507
 95
       23
 70
     0
 93
      249
310
90D312F3222203D2031272D302200000000000000380FC00000000000028407F
 94
        0
1001
ACAD
1000
AcRTDxfName
1000
SCALE
  0
ACAD_PROXY_OBJECT
  5
1A2
102
{ACAD_REACTORS
330
10C
102
}
330
10C
100
AcDbProxyObject
 90
      499
 91
      507
 95
       23
 70
     0
 93
      249
310
90D332F3422203D2031272D3022000000000000003A0FC00000000000028407F
 94
        0
1001
ACAD
1000
AcRTDxfName
1000
SCALE
  0
ACAD_PROXY_OBJECT
  5
1A3
102
{ACAD_REACTORS
330
10C
102
}
330
10C
100
AcDbProxyObject
 90
      499
 91
      507
 95
       23
 70
     0
 93
      169
310
90B3122203D2031272D302200400000000000028407F
 94
        0
1001
ACAD
1000
AcRTDxfName
1000
SCALE
  0
ACAD_PROXY_OBJECT
  5
1A4
102
{ACAD_REACTORS
330
10C
102
}
330
10C
100
AcDbProxyObject
 90
      499
 91
      507
 95
       23
 70
     0
 93
      265
310
90F312D312F3222203D2031272D3022000000000000003E0FC00000000000028407F
 94
        0
1001
ACAD
1000
AcRTDxfName
1000
SCALE
  0
ACAD_PROXY_OBJECT
  5
1A5
102
{ACAD_REACTORS
330
10C
102
}
330
10C
100
AcDbProxyObject
 90
      499
 91
      507
 95
       23
 70
     0
 93
      233
310
90B3322203D2031272D3022000000000000000210000000000000028407F
 94
        0
1001
ACAD
1000
AcRTDxfName
1000
SCALE
  0
ACAD_PROXY_OBJECT
  5
1A6
102
{ACAD_REACTORS
330
10C
102
}
330
10C
100
AcDbProxyObject
 90
      499
 91
      507
 95
       23
 70
     0
 93
      233
310
90B3622203D2031272D3022000000000000000610000000000000028407F
 94
        0
1001
ACAD
1000
AcRTDxfName
1000
SCALE
  0
ACAD_PROXY_OBJECT
  5
1A7
102
{ACAD_REACTORS
330
10C
102
}
330
10C
100
AcDbProxyObject
 90
      499
 91
      507
 95
       23
 70
     0
 93
      257
310
90E31272D3022203D2031272D3022000000000000000A10000000000000028407F
 94
        0
1001
ACAD
1000
AcRTDxfName
1000
SCALE
  0
TABLESTYLE
  5
7F
102
{ACAD_XDICTIONARY
360
162
102
}
102
{ACAD_REACTORS
330
7E
102
}
330
7E
100
AcDbTableStyle
  3
Standard
 70
     0
 71
     0
 40
1.5
 41
1.5
280
     0
281
     0
  7
Standard
140
4.5
170
     2
 62
     0
 63
     7
283
     0
274
    -2
284
     1
 64
     0
275
    -2
285
     1
 65
     0
276
    -2
286
     1
 66
     0
277
    -2
287
     1
 67
     0
278
    -2
288
     1
 68
     0
279
    -2
289
     1
 69
     0
  7
Standard
140
6.0
170
     5
 62
     0
 63
     7
283
     0
274
    -2
284
     1
 64
     0
275
    -2
285
     1
 65
     0
276
    -2
286
     1
 66
     0
277
    -2
287
     1
 67
     0
278
    -2
288
     1
 68
     0
279
    -2
289
     1
 69
     0
  7
Standard
140
4.5
170
     5
 62
     0
 63
     7
283
     0
274
    -2
284
     1
 64
     0
275
    -2
285
     1
 65
     0
276
    -2
286
     1
 66
     0
277
    -2
287
     1
 67
     0
278
    -2
288
     1
 68
     0
279
    -2
289
     1
 69
     0
  0
VISUALSTYLE
  5
F5
102
{ACAD_REACTORS
330
EF
102
}
330
EF
100
AcDbVisualStyle
  2
2dWireframe
 70
     4
 71
     0
 72
     2
 73
     1
 90
        0
 40
-0.6
 41
-30.0
 62
     5
 63
     7
 74
     1
 91
        4
 64
     7
 65
   257
 75
     1
175
     1
 42
1.0
 92
        0
 66
   257
 43
1.0
 76
     1
 77
     6
 78
     2
 67
     7
 79
     5
170
     0
171
     0
290
     0
174
     0
 93
        1
 44
0.0
173
     0
291
     0
 45
0.0
1001
ACAD
1000
AcDbSavedByObjectVersion
1070
     0
  0
VISUALSTYLE
  5
F7
102
{ACAD_REACTORS
330
EF
102
}
330
EF
100
AcDbVisualStyle
  2
3D Hidden
 70
     6
 71
     1
 72
     2
 73
     2
 90
        0
 40
-0.6
 41
-30.0
 62
     5
 63
     7
 74
     2
 91
        2
 64
     7
 65
   257
 75
     2
175
     1
 42
40.0
 92
        0
 66
   257
 43
1.0
 76
     1
 77
     6
 78
     2
 67
     7
 79
     3
170
     0
171
     0
290
     0
174
     0
 93
        1
 44
0.0
173
     0
291
     0
 45
0.0
1001
ACAD
1000
AcDbSavedByObjectVersion
1070
     0
  0
VISUALSTYLE
  5
F6
102
{ACAD_REACTORS
330
EF
102
}
330
EF
100
AcDbVisualStyle
  2
3dWireframe
 70
     5
 71
     0
 72
     2
 73
     1
 90
        0
 40
-0.6
 41
-30.0
 62
     5
 63
     7
 74
     1
 91
        4
 64
     7
 65
   257
 75
     1
175
     1
 42
1.0
 92
        0
 66
   257
 43
1.0
 76
     1
 77
     6
 78
     2
 67
     7
 79
     5
170
     0
171
     0
290
     0
174
     0
 93
        1
 44
0.0
173
     0
291
     0
 45
0.0
1001
ACAD
1000
AcDbSavedByObjectVersion
1070
     0
  0
VISUALSTYLE
  5
F4
102
{ACAD_REACTORS
330
EF
102
}
330
EF
100
AcDbVisualStyle
  2
Basic
 70
     7
 71
     1
 72
     0
 73
     1
 90
        0
 40
-0.6
 41
-30.0
 62
     5
 63
     7
 74
     0
 91
        4
 64
     7
 65
   257
 75
     1
175
     1
 42
1.0
 92
        8
 66
     7
 43
1.0
 76
     1
 77
     6
 78
     2
 67
     7
 79
     5
170
     0
171
     0
290
     0
174
     0
 93
        1
 44
0.0
173
     0
291
     1
 45
0.0
1001
ACAD
1000
AcDbSavedByObjectVersion
1070
     0
  0
VISUALSTYLE
  5
FB
102
{ACAD_REACTORS
330
EF
102
}
330
EF
100
AcDbVisualStyle
  2
Brighten
 70
    12
 71
     2
 72
     2
 73
     1
 90
        0
 40
-0.6
 41
-30.0
 62
     5
 63
     7
 74
     1
 91
        4
 64
     7
 65
   257
 75
     1
175
     1
 42
1.0
 92
        8
 66
     7
 43
1.0
 76
     1
 77
     6
 78
     2
 67
     7
 79
     5
170
     0
171
     0
290
     0
174
     0
 93
        1
 44
50.0
173
     0
291
     1
 45
0.0
1001
ACAD
1000
AcDbSavedByObjectVersion
1070
     0
  0
VISUALSTYLE
  5
FF
102
{ACAD_REACTORS
330
EF
102
}
330
EF
100
AcDbVisualStyle
  2
ColorChange
 70
    16
 71
     2
 72
     2
 73
     3
 90
        0
 40
-0.6
 41
-30.0
 62
     5
 63
     8
 74
     1
 91
        4
 64
     7
 65
   257
 75
     1
175
     1
 42
1.0
 92
        8
 66
     8
 43
1.0
 76
     1
 77
     6
 78
     2
 67
     7
 79
     5
170
     0
171
     0
290
     0
174
     0
 93
        1
 44
0.0
173
     0
291
     1
 45
0.0
1001
ACAD
1000
AcDbSavedByObjectVersion
1070
     0
  0
VISUALSTYLE
  5
F8
102
{ACAD_REACTORS
330
EF
102
}
330
EF
100
AcDbVisualStyle
  2
Conceptual
 70
     9
 71
     3
 72
     2
 73
     1
 90
        0
 40
-0.6
 41
-30.0
 62
     5
 63
     7
 74
     2
 91
        2
 64
     7
 65
   257
 75
     1
175
     1
 42
40.0
 92
        8
 66
     7
 43
1.0
 76
     1
 77
     6
 78
     2
 67
     7
 79
     3
170
     0
171
     0
290
     0
174
     0
 93
        1
 44
0.0
173
     0
291
     0
 45
0.0
1001
ACAD
1000
AcDbSavedByObjectVersion
1070
     0
  0
VISUALSTYLE
  5
FA
102
{ACAD_REACTORS
330
EF
102
}
330
EF
100
AcDbVisualStyle
  2
Dim
 70
    11
 71
     2
 72
     2
 73
     1
 90
        0
 40
-0.6
 41
-30.0
 62
     5
 63
     7
 74
     1
 91
        4
 64
     7
 65
   257
 75
     1
175
     1
 42
1.0
 92
        8
 66
     7
 43
1.0
 76
     1
 77
     6
 78
     2
 67
     7
 79
     5
170
     0
171
     0
290
     0
174
     0
 93
        1
 44
-50.0
173
     0
291
     1
 45
0.0
1001
ACAD
1000
AcDbSavedByObjectVersion
1070
     0
  0
VISUALSTYLE
  5
FE
102
{ACAD_REACTORS
330
EF
102
}
330
EF
100
AcDbVisualStyle
  2
Facepattern
 70
    15
 71
     2
 72
     2
 73
     1
 90
        0
 40
-0.6
 41
-30.0
 62
     5
 63
     7
 74
     1
 91
        4
 64
     7
 65
   257
 75
     1
175
     1
 42
1.0
 92
        8
 66
     7
 43
1.0
 76
     1
 77
     6
 78
     2
 67
     7
 79
     5
170
     0
171
     0
290
     0
174
     0
 93
        1
 44
0.0
173
     0
291
     1
 45
0.0
1001
ACAD
1000
AcDbSavedByObjectVersion
1070
     0
  0
VISUALSTYLE
  5
F0
102
{ACAD_REACTORS
330
EF
102
}
330
EF
100
AcDbVisualStyle
  2
Flat
 70
     0
 71
     2
 72
     1
 73
     1
 90
        2
 40
-0.6
 41
30.0
 62
     5
 63
     7
 74
     0
 91
        4
 64
     7
 65
   257
 75
     1
175
     1
 42
1.0
 92
        8
 66
     7
 43
1.0
 76
     1
 77
     6
 78
     2
 67
     7
 79
     5
170
     0
171
     0
290
     0
174
     0
 93
        1
 44
0.0
173
     0
291
     1
 45
0.0
1001
ACAD
1000
AcDbSavedByObjectVersion
1070
     0
  0
VISUALSTYLE
  5
F1
102
{ACAD_REACTORS
330
EF
102
}
330
EF
100
AcDbVisualStyle
  2
FlatWithEdges
 70
     1
 71
     2
 72
     1
 73
     1
 90
        2
 40
-0.6
 41
30.0
 62
     5
 63
     7
 74
     1
 91
        4
 64
     7
 65
   257
 75
     1
175
     1
 42
1.0
 92
        0
 66
   257
 43
1.0
 76
     1
 77
     6
 78
     2
 67
     7
 79
     5
170
     0
171
     0
290
     0
174
     0
 93
        1
 44
0.0
173
     0
291
     1
 45
0.0
1001
ACAD
1000
AcDbSavedByObjectVersion
1070
     0
  0
VISUALSTYLE
  5
F2
102
{ACAD_REACTORS
330
EF
102
}
330
EF
100
AcDbVisualStyle
  2
Gouraud
 70
     2
 71
     2
 72
     2
 73
     1
 90
        2
 40
-0.6
 41
30.0
 62
     5
 63
     7
 74
     0
 91
        4
 64
     7
 65
   257
 75
     1
175
     1
 42
1.0
 92
        0
 66
     7
 43
1.0
 76
     1
 77
     6
 78
     2
 67
     7
 79
     5
170
     0
171
     0
290
     0
174
     0
 93
        1
 44
0.0
173
     0
291
     1
 45
0.0
1001
ACAD
1000
AcDbSavedByObjectVersion
1070
     0
  0
VISUALSTYLE
  5
F3
102
{ACAD_REACTORS
330
EF
102
}
330
EF
100
AcDbVisualStyle
  2
GouraudWithEdges
 70
     3
 71
     2
 72
     2
 73
     1
 90
        2
 40
-0.6
 41
30.0
 62
     5
 63
     7
 74
     1
 91
        4
 64
     7
 65
   257
 75
     1
175
     1
 42
1.0
 92
        0
 66
   257
 43
1.0
 76
     1
 77
     6
 78
     2
 67
     7
 79
     5
170
     0
171
     0
290
     0
174
     0
 93
        1
 44
0.0
173
     0
291
     1
 45
0.0
1001
ACAD
1000
AcDbSavedByObjectVersion
1070
     0
  0
VISUALSTYLE
  5
FD
102
{ACAD_REACTORS
330
EF
102
}
330
EF
100
AcDbVisualStyle
  2
Linepattern
 70
    14
 71
     2
 72
     2
 73
     1
 90
        0
 40
-0.6
 41
-30.0
 62
     5
 63
     7
 74
     1
 91
        4
 64
     7
 65
   257
 75
     7
175
     7
 42
1.0
 92
        8
 66
     7
 43
1.0
 76
     1
 77
     6
 78
     2
 67
     7
 79
     5
170
     0
171
     0
290
     0
174
     0
 93
        1
 44
0.0
173
     0
291
     1
 45
0.0
1001
ACAD
1000
AcDbSavedByObjectVersion
1070
     0
  0
VISUALSTYLE
  5
F9
102
{ACAD_REACTORS
330
EF
102
}
330
EF
100
AcDbVisualStyle
  2
Realistic
 70
     8
 71
     2
 72
     2
 73
     1
 90
        0
 40
-0.6
 41
-30.0
 62
     5
 63
     7
 74
     1
 91
        0
 64
     7
 65
   257
 75
     1
175
     1
 42
1.0
 92
        8
 66
     8
 43
1.0
 76
     1
 77
     6
 78
     2
 67
     7
 79
     5
170
     0
171
     0
290
     0
174
     0
 93
       13
 44
0.0
173
     0
291
     0
 45
0.0
1001
ACAD
1000
AcDbSavedByObjectVersion
1070
     0
  0
VISUALSTYLE
  5
FC
102
{ACAD_REACTORS
330
EF
102
}
330
EF
100
AcDbVisualStyle
  2
Thicken
 70
    13
 71
     2
 72
     2
 73
     1
 90
        0
 40
-0.6
 41
-30.0
 62
     5
 63
     7
 74
     1
 91
        4
 64
     7
 65
   257
 75
     1
175
     1
 42
1.0
 92
       12
 66
     7
 43
1.0
 76
     1
 77
     6
 78
     2
 67
     7
 79
     5
170
     0
171
     0
290
     0
174
     0
 93
        1
 44
0.0
173
     0
291
     1
 45
0.0
1001
ACAD
1000
AcDbSavedByObjectVersion
1070
     0
  0
DICTIONARYVAR
  5
146
102
{ACAD_REACTORS
330
5E
102
}
330
5E
100
DictionaryVariables
280
     0
  1
1:1
  0
DICTIONARYVAR
  5
145
102
{ACAD_REACTORS
330
5E
102
}
330
5E
100
DictionaryVariables
280
     0
  1
STANDARD
  0
DICTIONARYVAR
  5
84
102
{ACAD_REACTORS
330
5E
102
}
330
5E
100
DictionaryVariables
280
     0
  1
STANDARD
  0
DICTIONARYVAR
  5
5F
102
{ACAD_REACTORS
330
5E
102
}
330
5E
100
DictionaryVariables
280
     0
  1
2
  0
DICTIONARYVAR
  5
63
102
{ACAD_REACTORS
330
5E
102
}
330
5E
100
DictionaryVariables
280
     0
  1
1
  0
DICTIONARYVAR
  5
466
102
{ACAD_REACTORS
330
5E
102
}
330
5E
100
DictionaryVariables
280
     0
  1
0
  0
DICTIONARYVAR
  5
464
102
{ACAD_REACTORS
330
5E
102
}
330
5E
100
DictionaryVariables
280
     0
  1
2
  0
DICTIONARYVAR
  5
463
102
{ACAD_REACTORS
330
5E
102
}
330
5E
100
DictionaryVariables
280
     0
  1
1
  0
DICTIONARYVAR
  5
3ABA
102
{ACAD_REACTORS
330
5E
102
}
330
5E
100
DictionaryVariables
280
     0
  1
80.000000
  0
DICTIONARYVAR
  5
3AB9
102
{ACAD_REACTORS
330
5E
102
}
330
5E
100
DictionaryVariables
280
     0
  1
5.000000
  0
DICTIONARYVAR
  5
465
102
{ACAD_REACTORS
330
5E
102
}
330
5E
100
DictionaryVariables
280
     0
  1
127
  0
DICTIONARY
  5
37F2
102
{ACAD_REACTORS
330
37F1
102
}
330
37F1
100
AcDbDictionary
281
     1
  0
DICTIONARY
  5
3ABF
330
D3
100
AcDbDictionary
280
     1
281
     1
  3
ACAD_XREC_ROUNDTRIP
360
3AC0
  0
DICTIONARY
  5
3AC1
330
D7
100
AcDbDictionary
280
     1
281
     1
  3
ACAD_XREC_ROUNDTRIP
360
3AC2
  0
DICTIONARY
  5
3ABC
330
22
100
AcDbDictionary
280
     1
281
     1
  3
ACAD_XREC_ROUNDTRIP
360
3ABD
  0
DICTIONARY
  5
3AC5
330
ED
100
AcDbDictionary
280
     1
281
     1
  3
ACAD_XREC_ROUNDTRIP
360
3AC6
  0
DICTIONARY
  5
3AC3
330
EC
100
AcDbDictionary
280
     1
281
     1
  3
ACAD_XREC_ROUNDTRIP
360
3AC4
  0
DICTIONARY
  5
173
330
EE
100
AcDbDictionary
280
     1
281
     1
  3
ACAD_XREC_ROUNDTRIP
360
3AC7
  3
BUMPTILE
360
175
  3
DIFFUSETILE
360
174
  3
OPACITYTILE
360
176
  3
REFLECTIONTILE
360
177
  0
DICTIONARY
  5
162
330
7F
100
AcDbDictionary
280
     1
281
     1
  3
ACAD_ROUNDTRIP_2008_TABLESTYLE_CELLSTYLEMAP
360
3A4B
  3
ACAD_XREC_ROUNDTRIP
360
3ABE
  0
XRECORD
  5
3AC0
102
{ACAD_REACTORS
330
3ABF
102
}
330
3ABF
100
AcDbXrecord
280
     1
102
SHADEPLOT
 70
     0
102
SHADEPLOTRESLEVEL
 70
     2
102
SHADEPLOTCUSTOMDPI
 70
   300
  0
XRECORD
  5
3AC2
102
{ACAD_REACTORS
330
3AC1
102
}
330
3AC1
100
AcDbXrecord
280
     1
102
SHADEPLOT
 70
     0
102
SHADEPLOTRESLEVEL
 70
     2
102
SHADEPLOTCUSTOMDPI
 70
   300
  0
XRECORD
  5
3ABD
102
{ACAD_REACTORS
330
3ABC
102
}
330
3ABC
100
AcDbXrecord
280
     1
102
SHADEPLOT
 70
     0
102
SHADEPLOTRESLEVEL
 70
     2
102
SHADEPLOTCUSTOMDPI
 70
   300
  0
XRECORD
  5
3AC6
102
{ACAD_REACTORS
330
3AC5
102
}
330
3AC5
100
AcDbXrecord
280
     1
102
MATERIAL
148
0.0
149
0.0
149
0.0
 93
        0
 94
       63
282
     0
 72
     1
 77
     1
171
     1
175
     1
179
     1
273
     0
  0
XRECORD
  5
3AC4
102
{ACAD_REACTORS
330
3AC3
102
}
330
3AC3
100
AcDbXrecord
280
     1
102
MATERIAL
148
0.0
149
0.0
149
0.0
 93
        0
 94
       63
282
     0
 72
     1
 77
     1
171
     1
175
     1
179
     1
273
     0
  0
XRECORD
  5
3AC7
102
{ACAD_REACTORS
330
173
102
}
330
173
100
AcDbXrecord
280
     1
102
MATERIAL
148
0.0
149
0.0
149
0.0
 93
        0
 94
       63
282
     0
 72
     1
 77
     1
171
     1
175
     1
179
     1
273
     0
  0
XRECORD
  5
175
102
{ACAD_REACTORS
330
173
102
}
330
173
100
AcDbXrecord
280
     1
270
     1
271
     1
  0
XRECORD
  5
174
102
{ACAD_REACTORS
330
173
102
}
330
173
100
AcDbXrecord
280
     1
270
     1
271
     1
  0
XRECORD
  5
176
102
{ACAD_REACTORS
330
173
102
}
330
173
100
AcDbXrecord
280
     1
270
     1
271
     1
  0
XRECORD
  5
177
102
{ACAD_REACTORS
330
173
102
}
330
173
100
AcDbXrecord
280
     1
270
     1
271
     1
  0
ACAD_PROXY_OBJECT
  5
3A4B
102
{ACAD_REACTORS
330
162
102
}
330
162
100
AcDbProxyObject
 90
      499
 91
      509
 95
       23
 70
     0
 93
     5304
310
40D054060020000020000003200101A000080002A5058000000C10000000000000006101010000000000003E0FC000000000000F83F0000000000003E0FC000000000000F83F02B5E8DC0F42B1CFC0AD7A3703D0AC73F419019018000000C1003FBFFFFFE0000000000003C8FD029018000000C1003FBFFFFFE00000000000
310
03C8FD049018000000C1003FBFFFFFE0000000000003C8FD089018000000C1003FBFFFFFE0000000000003C8FD109018000000C1003FBFFFFFE0000000000003C8FD209018000000C1003FBFFFFFE0000000000003C8FD01405075F5449544C450041501A8000000C800406800020000A94160000003040000000000000012
310
40404000000000000F83F0000000000003E0FC000000000000F83F0000000000003E0FC0AD7A3703D0AC73F02B5E8DC0F42B1CFD0640640600000030400FEFFFFFF8000000000000F23F40A40600000030400FEFFFFFF8000000000000F23F41240600000030400FEFFFFFF8000000000000F23F42240600000030400FEFFF
310
FFF8000000000000F23F44240600000030400FEFFFFFF8000000000000F23F48240600000030400FEFFFFFF8000000000000F23F409014217D2115051115480105406A0000003200101A000080002A5028000000C10000000000000004901010000000000003E0FC000000000000F83F0000000000003E0FC000000000000F
310
83F02B5E8DC0F42B1CFC0AD7A3703D0AC73F419019018000000C1003FBFFFFFE0000000000003C8FD029018000000C1003FBFFFFFE0000000000003C8FD049018000000C1003FBFFFFFE0000000000003C8FD089018000000C1003FBFFFFFE0000000000003C8FD109018000000C1003FBFFFFFE0000000000003C8FD20901
310
8000000C1003FBFFFFFE0000000000003C8FD03409065F444154410025
340
11
340
14
340
14
340
14
340
14
340
14
340
14
340
11
340
14
340
14
340
14
340
14
340
14
340
14
340
11
340
14
340
14
340
14
340
14
340
14
340
14
 94
        0
1001
ACAD
1000
AcRTDxfName
1000
CELLSTYLEMAP
  0
XRECORD
  5
3ABE
102
{ACAD_REACTORS
330
162
102
}
330
162
100
AcDbXrecord
280
     1
102
ACAD_ROUNDTRIP_PRE2007_TABLESTYLE
 90
      512
 91
        0
  1

 92
      512
 93
        0
  2

 94
      512
 95
        0
  3

  0
ENDSEC
  0
EOF
