  0
SECTION
  2
HEADER
  9
$ACADVER
  1
AC1015
  9
$ACADMAINTVER
 70
    20
  9
$DWGCODEPAGE
  3
ANSI_1250
  9
$INSBASE
 10
0.0
 20
0.0
 30
0.0
  9
$EXTMIN
 10
-0.0096104944217927
 20
-0.0135919849680022
 30
-0.0000000000000058
  9
$EXTMAX
 10
210.0096144061858
 20
297.0135975173197
 30
0.0000000000000104
  9
$LIMMIN
 10
0.0
 20
0.0
  9
$LIMMAX
 10
210.0
 20
297.0
  9
$ORTHOMODE
 70
     0
  9
$REGENMODE
 70
     1
  9
$FILLMODE
 70
     1
  9
$QTEXTMODE
 70
     0
  9
$MIRRTEXT
 70
     0
  9
$LTSCALE
 40
1.0
  9
$ATTMODE
 70
     2
  9
$TEXTSIZE
 40
5.0
  9
$TRACEWID
 40
1.0
  9
$TEXTSTYLE
  7
Solbet_5
  9
$CLAYER
  8
SOLBET_Zbrojenie_Konstrukcja
  9
$CELTYPE
  6
ByLayer
  9
$CECOLOR
 62
   256
  9
$CELTSCALE
 40
1.0
  9
$DISPSILH
 70
     0
  9
$DIMSCALE
 40
1.0
  9
$DIMASZ
 40
2.5
  9
$DIMEXO
 40
0.0
  9
$DIMDLI
 40
3.75
  9
$DIMRND
 40
0.0
  9
$DIMDLE
 40
0.0
  9
$DIMEXE
 40
1.25
  9
$DIMTP
 40
0.0
  9
$DIMTM
 40
0.0
  9
$DIMTXT
 40
2.5
  9
$DIMCEN
 40
2.5
  9
$DIMTSZ
 40
0.0
  9
$DIMTOL
 70
     0
  9
$DIMLIM
 70
     0
  9
$DIMTIH
 70
     0
  9
$DIMTOH
 70
     0
  9
$DIMSE1
 70
     0
  9
$DIMSE2
 70
     0
  9
$DIMTAD
 70
     1
  9
$DIMZIN
 70
     8
  9
$DIMBLK
  1

  9
$DIMASO
 70
     1
  9
$DIMSHO
 70
     1
  9
$DIMPOST
  1

  9
$DIMAPOST
  1

  9
$DIMALT
 70
     0
  9
$DIMALTD
 70
     3
  9
$DIMALTF
 40
0.03937007874016
  9
$DIMLFAC
 40
1.0
  9
$DIMTOFL
 70
     1
  9
$DIMTVP
 40
0.0
  9
$DIMTIX
 70
     0
  9
$DIMSOXD
 70
     0
  9
$DIMSAH
 70
     0
  9
$DIMBLK1
  1

  9
$DIMBLK2
  1

  9
$DIMSTYLE
  2
Solbet
  9
$DIMCLRD
 70
     0
  9
$DIMCLRE
 70
     0
  9
$DIMCLRT
 70
     0
  9
$DIMTFAC
 40
1.0
  9
$DIMGAP
 40
0.625
  9
$DIMJUST
 70
     0
  9
$DIMSD1
 70
     0
  9
$DIMSD2
 70
     0
  9
$DIMTOLJ
 70
     0
  9
$DIMTZIN
 70
     8
  9
$DIMALTZ
 70
     0
  9
$DIMALTTZ
 70
     0
  9
$DIMUPT
 70
     0
  9
$DIMDEC
 70
     2
  9
$DIMTDEC
 70
     2
  9
$DIMALTU
 70
     2
  9
$DIMALTTD
 70
     3
  9
$DIMTXSTY
  7
Solbet_2_5
  9
$DIMAUNIT
 70
     0
  9
$DIMADEC
 70
     0
  9
$DIMALTRND
 40
0.0
  9
$DIMAZIN
 70
     0
  9
$DIMDSEP
 70
    44
  9
$DIMATFIT
 70
     3
  9
$DIMFRAC
 70
     0
  9
$DIMLDRBLK
  1

  9
$DIMLUNIT
 70
     2
  9
$DIMLWD
 70
    -2
  9
$DIMLWE
 70
    -2
  9
$DIMTMOVE
 70
     0
  9
$LUNITS
 70
     2
  9
$LUPREC
 70
     4
  9
$SKETCHINC
 40
1.0
  9
$FILLETRAD
 40
0.0
  9
$AUNITS
 70
     0
  9
$AUPREC
 70
     0
  9
$MENU
  1
.
  9
$ELEVATION
 40
0.0
  9
$PELEVATION
 40
0.0
  9
$THICKNESS
 40
0.0
  9
$LIMCHECK
 70
     0
  9
$CHAMFERA
 40
0.0
  9
$CHAMFERB
 40
0.0
  9
$CHAMFERC
 40
0.0
  9
$CHAMFERD
 40
0.0
  9
$SKPOLY
 70
     0
  9
$TDCREATE
 40
2454690.075573148
  9
$TDUCREATE
 40
2454690.033906482
  9
$TDUPDATE
 40
2454848.889658287
  9
$TDUUPDATE
 40
2454848.847991620
  9
$TDINDWG
 40
0.7560821065
  9
$TDUSRTIMER
 40
0.7560775810
  9
$USRTIMER
 70
     1
  9
$ANGBASE
 50
0.0
  9
$ANGDIR
 70
     0
  9
$PDMODE
 70
     0
  9
$PDSIZE
 40
0.0
  9
$PLINEWID
 40
0.0
  9
$SPLFRAME
 70
     0
  9
$SPLINETYPE
 70
     6
  9
$SPLINESEGS
 70
     8
  9
$HANDSEED
  5
3C89
  9
$SURFTAB1
 70
     6
  9
$SURFTAB2
 70
     6
  9
$SURFTYPE
 70
     6
  9
$SURFU
 70
     6
  9
$SURFV
 70
     6
  9
$UCSBASE
  2

  9
$UCSNAME
  2

  9
$UCSORG
 10
0.0
 20
0.0
 30
0.0
  9
$UCSXDIR
 10
1.0
 20
0.0
 30
0.0
  9
$UCSYDIR
 10
0.0
 20
1.0
 30
0.0
  9
$UCSORTHOREF
  2

  9
$UCSORTHOVIEW
 70
     0
  9
$UCSORGTOP
 10
0.0
 20
0.0
 30
0.0
  9
$UCSORGBOTTOM
 10
0.0
 20
0.0
 30
0.0
  9
$UCSORGLEFT
 10
0.0
 20
0.0
 30
0.0
  9
$UCSORGRIGHT
 10
0.0
 20
0.0
 30
0.0
  9
$UCSORGFRONT
 10
0.0
 20
0.0
 30
0.0
  9
$UCSORGBACK
 10
0.0
 20
0.0
 30
0.0
  9
$PUCSBASE
  2

  9
$PUCSNAME
  2

  9
$PUCSORG
 10
0.0
 20
0.0
 30
0.0
  9
$PUCSXDIR
 10
1.0
 20
0.0
 30
0.0
  9
$PUCSYDIR
 10
0.0
 20
1.0
 30
0.0
  9
$PUCSORTHOREF
  2

  9
$PUCSORTHOVIEW
 70
     0
  9
$PUCSORGTOP
 10
0.0
 20
0.0
 30
0.0
  9
$PUCSORGBOTTOM
 10
0.0
 20
0.0
 30
0.0
  9
$PUCSORGLEFT
 10
0.0
 20
0.0
 30
0.0
  9
$PUCSORGRIGHT
 10
0.0
 20
0.0
 30
0.0
  9
$PUCSORGFRONT
 10
0.0
 20
0.0
 30
0.0
  9
$PUCSORGBACK
 10
0.0
 20
0.0
 30
0.0
  9
$USERI1
 70
     0
  9
$USERI2
 70
     0
  9
$USERI3
 70
     0
  9
$USERI4
 70
     0
  9
$USERI5
 70
     0
  9
$USERR1
 40
0.0
  9
$USERR2
 40
0.0
  9
$USERR3
 40
0.0
  9
$USERR4
 40
0.0
  9
$USERR5
 40
0.0
  9
$WORLDVIEW
 70
     1
  9
$SHADEDGE
 70
     3
  9
$SHADEDIF
 70
    70
  9
$TILEMODE
 70
     1
  9
$MAXACTVP
 70
    64
  9
$PINSBASE
 10
0.0
 20
0.0
 30
0.0
  9
$PLIMCHECK
 70
     0
  9
$PEXTMIN
 10
0.0
 20
0.0
 30
0.0
  9
$PEXTMAX
 10
0.0
 20
0.0
 30
0.0
  9
$PLIMMIN
 10
0.0
 20
0.0
  9
$PLIMMAX
 10
12.0
 20
9.0
  9
$UNITMODE
 70
     0
  9
$VISRETAIN
 70
     1
  9
$PLINEGEN
 70
     0
  9
$PSLTSCALE
 70
     1
  9
$TREEDEPTH
 70
  3020
  9
$CMLSTYLE
  2
SOLBET_IZOLACJA
  9
$CMLJUST
 70
     0
  9
$CMLSCALE
 40
20.0
  9
$PROXYGRAPHICS
 70
     1
  9
$MEASUREMENT
 70
     1
  9
$CELWEIGHT
370
    -1
  9
$ENDCAPS
280
     0
  9
$JOINSTYLE
280
     0
  9
$LWDISPLAY
290
     1
  9
$INSUNITS
 70
     4
  9
$HYPERLINKBASE
  1

  9
$STYLESHEET
  1

  9
$XEDIT
290
     1
  9
$CEPSNTYPE
380
     0
  9
$PSTYLEMODE
290
     1
  9
$FINGERPRINTGUID
  2
{6B12AB33-8E39-428E-8E85-461C8D99A3CB}
  9
$VERSIONGUID
  2
{49729027-B29E-4956-8711-D8E87AA844F8}
  9
$EXTNAMES
290
     1
  9
$PSVPSCALE
 40
0.0
  9
$OLESTARTUP
290
     0
  0
ENDSEC
  0
SECTION
  2
CLASSES
  0
CLASS
  1
ACDBDICTIONARYWDFLT
  2
AcDbDictionaryWithDefault
  3
ObjectDBX Classes
 90
        0
280
     0
281
     0
  0
CLASS
  1
ACDBPLACEHOLDER
  2
AcDbPlaceHolder
  3
ObjectDBX Classes
 90
        0
280
     0
281
     0
  0
CLASS
  1
LAYOUT
  2
AcDbLayout
  3
ObjectDBX Classes
 90
        0
280
     0
281
     0
  0
CLASS
  1
DICTIONARYVAR
  2
AcDbDictionaryVar
  3
ObjectDBX Classes
 90
        0
280
     0
281
     0
  0
CLASS
  1
TABLESTYLE
  2
AcDbTableStyle
  3
ObjectDBX Classes
 90
     4095
280
     0
281
     0
  0
CLASS
  1
MATERIAL
  2
AcDbMaterial
  3
ObjectDBX Classes
 90
     1024
280
     0
281
     0
  0
CLASS
  1
VISUALSTYLE
  2
AcDbVisualStyle
  3
ObjectDBX Classes
 90
     4095
280
     0
281
     0
  0
CLASS
  1
SCALE
  2
AcDbScale
  3
ObjectDBX Classes
 90
     1153
280
     0
281
     0
  0
CLASS
  1
MLEADERSTYLE
  2
AcDbMLeaderStyle
  3
ACDB_MLEADERSTYLE_CLASS
 90
     4095
280
     0
281
     0
  0
CLASS
  1
CELLSTYLEMAP
  2
AcDbCellStyleMap
  3
ObjectDBX Classes
 90
     1152
280
     0
281
     0
  0
CLASS
  1
DIMASSOC
  2
AcDbDimAssoc
  3
"AcDbDimAssoc|Product Desc:     AcDim ARX App For Dimension|Company:          Autodesk, Inc.|WEB Address:      www.autodesk.com"
 90
    32768
280
     0
281
     0
  0
CLASS
  1
SORTENTSTABLE
  2
AcDbSortentsTable
  3
ObjectDBX Classes
 90
        0
280
     0
281
     0
  0
CLASS
  1
MULTILEADER
  2
AcDbMLeader
  3
ACDB_MLEADER_CLASS
 90
    33793
280
     0
281
     1
  0
CLASS
  1
ACDB_MTEXTOBJECTCONTEXTDATA_CLASS
  2
AcDbMTextObjectContextData
  3
ObjectDBX Classes
 90
    33921
280
     0
281
     0
  0
ENDSEC
  0
SECTION
  2
TABLES
  0
TABLE
  2
VPORT
  5
8
102
{ACAD_XDICTIONARY
360
443
102
}
330
0
100
AcDbSymbolTable
 70
     1
  0
VPORT
  5
EA
330
8
100
AcDbSymbolTableRecord
100
AcDbViewportTableRecord
  2
*Active
 70
     0
 10
0.0
 20
0.0
 11
1.0
 21
1.0
 12
105.000001955882
 22
148.5000027661758
 13
0.0
 23
0.0
 14
10.0
 24
10.0
 15
10.0
 25
10.0
 16
0.0
 26
0.0
 36
1.0
 17
0.0
 27
0.0
 37
0.0
 40
300.3274916078686
 41
1.74582560296846
 42
50.0
 43
0.0
 44
0.0
 50
0.0
 51
0.0
 71
     0
 72
  1000
 73
     1
 74
     3
 75
     0
 76
     0
 77
     0
 78
     0
281
     0
 65
     1
110
0.0
120
0.0
130
0.0
111
1.0
121
0.0
131
0.0
112
0.0
122
1.0
132
0.0
 79
     0
146
0.0
  0
ENDTAB
  0
TABLE
  2
LTYPE
  5
5
330
0
100
AcDbSymbolTable
 70
     2
  0
LTYPE
  5
14
330
5
100
AcDbSymbolTableRecord
100
AcDbLinetypeTableRecord
  2
ByBlock
 70
     0
  3

 72
    65
 73
     0
 40
0.0
  0
LTYPE
  5
15
330
5
100
AcDbSymbolTableRecord
100
AcDbLinetypeTableRecord
  2
ByLayer
 70
     0
  3

 72
    65
 73
     0
 40
0.0
  0
LTYPE
  5
16
330
5
100
AcDbSymbolTableRecord
100
AcDbLinetypeTableRecord
  2
Continuous
 70
     0
  3
Solid line
 72
    65
 73
     0
 40
0.0
  0
LTYPE
  5
3A64
330
5
100
AcDbSymbolTableRecord
100
AcDbLinetypeTableRecord
  2
BATTING
 70
     0
  3
Batting SSSSSSSSSSSSSSSSSSSSSSSSSSSSSSSSSSSSSSSSSSSSSSS
 72
    65
 73
     4
 40
10.16254
 49
0.00254
 74
     0
 49
-2.54
 74
     4
 75
   134
340
3A63
 46
2.54
 50
0.0
 44
-2.54
 45
0.0
 49
-5.08
 74
     4
 75
   134
340
3A63
 46
2.54
 50
180.0
 44
2.54
 45
0.0
 49
-2.54
 74
     0
  0
ENDTAB
  0
TABLE
  2
LAYER
  5
2
102
{ACAD_XDICTIONARY
360
3E5
102
}
330
0
100
AcDbSymbolTable
 70
    13
  0
LAYER
  5
10
102
{ACAD_XDICTIONARY
360
13C
102
}
330
2
100
AcDbSymbolTableRecord
100
AcDbLayerTableRecord
  2
0
 70
     0
 62
     7
  6
Continuous
370
    -3
390
F
  0
LAYER
  5
2BB
330
2
100
AcDbSymbolTableRecord
100
AcDbLayerTableRecord
  2
DEFPOINTS
 70
     0
 62
     7
  6
Continuous
290
     0
370
    -3
390
F
  0
LAYER
  5
3DD
102
{ACAD_XDICTIONARY
360
403
102
}
330
2
100
AcDbSymbolTableRecord
100
AcDbLayerTableRecord
  2
SOLBET_Bloczki
 70
     0
 62
   140
  6
Continuous
370
    -3
390
F
1001
AcAecLayerStandard
1000

1000

  0
LAYER
  5
3DF
102
{ACAD_XDICTIONARY
360
405
102
}
330
2
100
AcDbSymbolTableRecord
100
AcDbLayerTableRecord
  2
SOLBET_Wymiary_Opisy
 70
     0
 62
     1
  6
Continuous
370
    -3
390
F
1001
AcAecLayerStandard
1000

1000

  0
LAYER
  5
3E1
102
{ACAD_XDICTIONARY
360
409
102
}
330
2
100
AcDbSymbolTableRecord
100
AcDbLayerTableRecord
  2
SOLBET_Izolacja
 70
     0
 62
    40
  6
Continuous
370
    -3
390
F
1001
AcAecLayerStandard
1000

1000

  0
LAYER
  5
3E2
102
{ACAD_XDICTIONARY
360
40B
102
}
330
2
100
AcDbSymbolTableRecord
100
AcDbLayerTableRecord
  2
SOLBET_Zbrojenie_Konstrukcja
 70
     0
 62
     7
  6
Continuous
370
    -3
390
F
1001
AcAecLayerStandard
1000

1000

  0
LAYER
  5
3E4
102
{ACAD_XDICTIONARY
360
40F
102
}
330
2
100
AcDbSymbolTableRecord
100
AcDbLayerTableRecord
  2
SOLBET_Tynki_Posadzki
 70
     0
 62
     3
  6
Continuous
370
    -3
390
F
1001
AcAecLayerStandard
1000

1000

  0
LAYER
  5
3E8
102
{ACAD_XDICTIONARY
360
411
102
}
330
2
100
AcDbSymbolTableRecord
100
AcDbLayerTableRecord
  2
SOLBET_Ramka_05
 70
     0
 62
     2
  6
Continuous
370
    -3
390
F
1001
AcAecLayerStandard
1000

1000

  0
LAYER
  5
472
330
2
100
AcDbSymbolTableRecord
100
AcDbLayerTableRecord
  2
SOLBET_Zaprawy
 70
     0
 62
     4
  6
Continuous
370
    -3
390
F
1001
AcAecLayerStandard
1000

1000

  0
LAYER
  5
4E2
330
2
100
AcDbSymbolTableRecord
100
AcDbLayerTableRecord
  2
SOLBET_Emulsje_Folie
 70
     0
 62
     6
  6
Continuous
370
    -3
390
F
1001
AcAecLayerStandard
1000

1000

  0
LAYER
  5
397A
330
2
100
AcDbSymbolTableRecord
100
AcDbLayerTableRecord
  2
SOLBET_Beton
 70
     0
 62
     9
  6
Continuous
370
    -3
390
F
1001
AcAecLayerStandard
1000

1000

  0
LAYER
  5
3AAC
330
2
100
AcDbSymbolTableRecord
100
AcDbLayerTableRecord
  2
SOLBET_Grunt
 70
     0
 62
    42
  6
Continuous
370
    -3
390
F
1001
AcAecLayerStandard
1000

1000

  0
LAYER
  5
3B7D
102
{ACAD_XDICTIONARY
360
3B7E
102
}
330
2
100
AcDbSymbolTableRecord
100
AcDbLayerTableRecord
  2
SOLBET_Wymiary_Opisy @ 1
 70
     0
 62
     1
  6
Continuous
370
    -3
390
F
1001
AcAecLayerStandard
1000

1000

1001
AcadAnnotativeDecomposition
1000
AnnotativeData
1002
{
1070
     1
1070
     1
1002
}
  0
ENDTAB
  0
TABLE
  2
STYLE
  5
3
330
0
100
AcDbSymbolTable
 70
     5
  0
STYLE
  5
11
330
3
100
AcDbSymbolTableRecord
100
AcDbTextStyleTableRecord
  2
Standard
 70
     0
 40
0.0
 41
1.0
 50
0.0
 71
     0
 42
2.5
  3
txt.shx
  4

  0
STYLE
  5
7D7
330
3
100
AcDbSymbolTableRecord
100
AcDbTextStyleTableRecord
  2
Solbet_5
 70
     0
 40
5.0
 41
1.0
 50
0.0
 71
     0
 42
5.0
  3
isocpeur.ttf
  4

1001
ACAD
1000
ISOCPEUR
1071
       34
  0
STYLE
  5
7D9
330
3
100
AcDbSymbolTableRecord
100
AcDbTextStyleTableRecord
  2
Solbet_2_5
 70
     0
 40
2.5
 41
1.0
 50
0.0
 71
     0
 42
2.5
  3
isocpeur.ttf
  4

1001
ACAD
1000
ISOCPEUR
1071
       34
  0
STYLE
  5
28D1
330
3
100
AcDbSymbolTableRecord
100
AcDbTextStyleTableRecord
  2
Solbet_1
 70
     0
 40
1.0
 41
1.0
 50
0.0
 71
     0
 42
2.5
  3
isocpeur.ttf
  4

1001
ACAD
1000
ISOCPEUR
1071
       34
  0
STYLE
  5
3A63
330
3
100
AcDbSymbolTableRecord
100
AcDbTextStyleTableRecord
  2

 70
     1
 40
0.0
 41
1.0
 50
0.0
 71
     0
 42
5.0
  3
ltypeshp.shx
  4

  0
ENDTAB
  0
TABLE
  2
VIEW
  5
6
330
0
100
AcDbSymbolTable
 70
     0
  0
ENDTAB
  0
TABLE
  2
UCS
  5
7
330
0
100
AcDbSymbolTable
 70
     0
  0
ENDTAB
  0
TABLE
  2
APPID
  5
9
330
0
100
AcDbSymbolTable
 70
    13
  0
APPID
  5
12
330
9
100
AcDbSymbolTableRecord
100
AcDbRegAppTableRecord
  2
ACAD
 70
     0
  0
APPID
  5
9E
330
9
100
AcDbSymbolTableRecord
100
AcDbRegAppTableRecord
  2
ACAD_PSEXT
 70
     0
  0
APPID
  5
133
330
9
100
AcDbSymbolTableRecord
100
AcDbRegAppTableRecord
  2
AcadAnnoPO
 70
     0
  0
APPID
  5
134
330
9
100
AcDbSymbolTableRecord
100
AcDbRegAppTableRecord
  2
AcadAnnotative
 70
     0
  0
APPID
  5
135
330
9
100
AcDbSymbolTableRecord
100
AcDbRegAppTableRecord
  2
ACAD_DSTYLE_DIMJAG
 70
     0
  0
APPID
  5
136
330
9
100
AcDbSymbolTableRecord
100
AcDbRegAppTableRecord
  2
ACAD_DSTYLE_DIMTALN
 70
     0
  0
APPID
  5
165
330
9
100
AcDbSymbolTableRecord
100
AcDbRegAppTableRecord
  2
ACAD_MLEADERVER
 70
     0
  0
APPID
  5
2C4
330
9
100
AcDbSymbolTableRecord
100
AcDbRegAppTableRecord
  2
ASO_SCHRAFF
 70
     0
  0
APPID
  5
3DE
330
9
100
AcDbSymbolTableRecord
100
AcDbRegAppTableRecord
  2
AcAecLayerStandard
 70
     0
  0
APPID
  5
7DE
330
9
100
AcDbSymbolTableRecord
100
AcDbRegAppTableRecord
  2
ACAD_EXEMPT_FROM_CAD_STANDARDS
 70
     0
  0
APPID
  5
948
330
9
100
AcDbSymbolTableRecord
100
AcDbRegAppTableRecord
  2
ACAD_DSTYLE_DIMBREAK
 70
     0
  0
APPID
  5
1D0A
330
9
100
AcDbSymbolTableRecord
100
AcDbRegAppTableRecord
  2
AcadAnnotativeDecomposition
 70
     0
  0
APPID
  5
2274
330
9
100
AcDbSymbolTableRecord
100
AcDbRegAppTableRecord
  2
AcDbAttr
 70
     0
  0
ENDTAB
  0
TABLE
  2
DIMSTYLE
  5
A
330
0
100
AcDbSymbolTable
 70
     1
100
AcDbDimStyleTable
 71
     1
340
949
  0
DIMSTYLE
105
949
330
A
100
AcDbSymbolTableRecord
100
AcDbDimStyleTableRecord
  2
Solbet
 70
     0
 41
2.5
 42
0.0
 43
3.75
 44
1.25
 73
     0
 74
     0
 77
     1
 78
     8
140
2.5
141
2.5
143
0.03937007874016
147
0.625
171
     3
172
     1
271
     2
272
     2
274
     3
278
    44
283
     0
284
     8
340
7D9
1001
ACAD_DSTYLE_DIMBREAK
1070
   391
1040
3.75
1001
ACAD_DSTYLE_DIMJAG
1070
   388
1040
1.5
1001
ACAD_DSTYLE_DIMTALN
1070
   392
1070
     0
  0
ENDTAB
  0
TABLE
  2
BLOCK_RECORD
  5
1
330
0
100
AcDbSymbolTable
 70
    10
  0
BLOCK_RECORD
  5
1F
102
{ACAD_XDICTIONARY
360
4A3
102
}
330
1
100
AcDbSymbolTableRecord
100
AcDbBlockTableRecord
  2
*Model_Space
340
22
  0
BLOCK_RECORD
  5
D2
330
1
100
AcDbSymbolTableRecord
100
AcDbBlockTableRecord
  2
*Paper_Space
340
D3
  0
BLOCK_RECORD
  5
D6
330
1
100
AcDbSymbolTableRecord
100
AcDbBlockTableRecord
  2
*Paper_Space0
340
D7
  0
BLOCK_RECORD
  5
958
330
1
100
AcDbSymbolTableRecord
100
AcDbBlockTableRecord
  2
_DotSmall
340
0
102
{BLKREFS
331
39ED
331
39F8
331
39FC
331
39FE
331
3A28
331
3A2C
331
3A2E
331
3A36
331
3A38
331
3A48
331
3A70
102
}
  0
BLOCK_RECORD
  5
3497
330
1
100
AcDbSymbolTableRecord
100
AcDbBlockTableRecord
  2
ASOWDBLK
340
0
102
{BLKREFS
331
3968
331
3969
331
396A
331
396B
331
396C
331
396D
331
396E
331
396F
331
3970
331
3971
331
3972
331
3973
102
}
  0
BLOCK_RECORD
  5
34D5
330
1
100
AcDbSymbolTableRecord
100
AcDbBlockTableRecord
  2
*X3
340
0
102
{BLKREFS
331
39B9
102
}
  0
BLOCK_RECORD
  5
39C5
102
{ACAD_XDICTIONARY
360
39D1
102
}
330
1
100
AcDbSymbolTableRecord
100
AcDbBlockTableRecord
  2
SOLBET_Bloczek_Optimal_420x240x590_P+W_PRA
340
0
1001
ACAD
1000
DesignCenter Data
1002
{
1070
     1
1070
     4
1002
}
  0
BLOCK_RECORD
  5
3A7F
102
{ACAD_XDICTIONARY
360
3A89
102
}
330
1
100
AcDbSymbolTableRecord
100
AcDbBlockTableRecord
  2
SOLBET_Plytka_60x240x590_brak_PRA
340
0
1001
ACAD
1000
DesignCenter Data
1002
{
1070
     1
1070
     4
1002
}
  0
BLOCK_RECORD
  5
3AD1
102
{ACAD_XDICTIONARY
360
3ADD
102
}
330
1
100
AcDbSymbolTableRecord
100
AcDbBlockTableRecord
  2
SOLBET_Bloczek_Ideal_420x240x590_P+W_PRA
340
0
1001
ACAD
1000
DesignCenter Data
1002
{
1070
     1
1070
     4
1002
}
  0
BLOCK_RECORD
  5
3BB1
102
{ACAD_XDICTIONARY
360
3BBD
102
}
330
1
100
AcDbSymbolTableRecord
100
AcDbBlockTableRecord
  2
SOLBET_Bloczek_Ideal_420x240x590_P+W_KG400_PRA
340
0
102
{BLKREFS
331
3BC1
331
3BC2
331
3BC3
331
3BC4
331
3BC5
331
3BC6
102
}
1001
ACAD
1000
DesignCenter Data
1002
{
1070
     1
1070
     4
1002
}
  0
BLOCK_RECORD
  5
3BC7
102
{ACAD_XDICTIONARY
360
3BD1
102
}
330
1
100
AcDbSymbolTableRecord
100
AcDbBlockTableRecord
  2
SOLBET_Plytka_60x240x590_KG600_PRA
340
0
102
{BLKREFS
331
3BD5
102
}
1001
ACAD
1000
DesignCenter Data
1002
{
1070
     1
1070
     4
1002
}
  0
ENDTAB
  0
ENDSEC
  0
SECTION
  2
BLOCKS
  0
BLOCK
  5
20
330
1F
100
AcDbEntity
  8
0
100
AcDbBlockBegin
  2
*Model_Space
 70
     0
 10
0.0
 20
0.0
 30
0.0
  3
*Model_Space
  1

  0
ENDBLK
  5
21
330
1F
100
AcDbEntity
  8
0
100
AcDbBlockEnd
  0
BLOCK
  5
D4
330
D2
100
AcDbEntity
 67
     1
  8
0
100
AcDbBlockBegin
  2
*Paper_Space
 70
     0
 10
0.0
 20
0.0
 30
0.0
  3
*Paper_Space
  1

  0
ENDBLK
  5
D5
330
D2
100
AcDbEntity
 67
     1
  8
0
100
AcDbBlockEnd
  0
BLOCK
  5
D8
330
D6
100
AcDbEntity
 67
     1
  8
0
100
AcDbBlockBegin
  2
*Paper_Space0
 70
     0
 10
0.0
 20
0.0
 30
0.0
  3
*Paper_Space0
  1

  0
ENDBLK
  5
D9
330
D6
100
AcDbEntity
 67
     1
  8
0
100
AcDbBlockEnd
  0
BLOCK
  5
95A
330
958
100
AcDbEntity
  8
0
100
AcDbBlockBegin
  2
_DotSmall
 70
     0
 10
0.0
 20
0.0
 30
0.0
  3
_DotSmall
  1

  0
LWPOLYLINE
  5
959
330
958
100
AcDbEntity
  8
0
  6
ByBlock
 62
     0
100
AcDbPolyline
 90
        2
 70
     1
 43
0.5
 10
-0.0625
 20
0.0
 42
1.0
 10
0.0625
 20
0.0
 42
1.0
  0
ENDBLK
  5
95B
330
958
100
AcDbEntity
  8
0
100
AcDbBlockEnd
  0
BLOCK
  5
3498
330
3497
100
AcDbEntity
  8
0
100
AcDbBlockBegin
  2
ASOWDBLK
 70
     0
 10
0.0
 20
0.0
 30
0.0
  3
ASOWDBLK
  1
ASOWDBLK
  0
ARC
  5
3499
330
3497
100
AcDbEntity
  8
0
  6
Continuous
 62
     0
100
AcDbCircle
 10
0.0
 20
0.25
 30
0.0
 40
0.25
100
AcDbArc
 50
270.0000011238745
 51
36.86989141244799
  0
ARC
  5
349A
330
3497
100
AcDbEntity
  8
0
  6
Continuous
 62
     0
100
AcDbCircle
 10
0.25
 20
0.75
 30
0.0
 40
0.25
100
AcDbArc
 50
323.1300909874582
 51
216.8699112602908
  0
LINE
  5
349B
330
3497
100
AcDbEntity
  8
0
  6
Continuous
 62
     0
100
AcDbLine
 10
0.05
 20
0.6
 30
0.0
 11
0.2
 21
0.4
 31
0.0
  0
ARC
  5
349C
330
3497
100
AcDbEntity
  8
0
  6
Continuous
 62
     0
100
AcDbCircle
 10
0.5
 20
0.25
 30
0.0
 40
0.25
100
AcDbArc
 50
143.1301284353948
 51
270.0000011238745
  0
LINE
  5
349D
330
3497
100
AcDbEntity
  8
0
  6
Continuous
 62
     0
100
AcDbLine
 10
0.45
 20
0.6
 30
0.0
 11
0.3
 21
0.4
 31
0.0
  0
ENDBLK
  5
349E
330
3497
100
AcDbEntity
  8
0
100
AcDbBlockEnd
  0
BLOCK
  5
34D6
330
34D5
100
AcDbEntity
  8
0
100
AcDbBlockBegin
  2
*X3
 70
     1
 10
0.0
 20
0.0
 30
0.0
  3
*X3
  1
ASOWDBLK
  0
LINE
  5
34D7
330
34D5
100
AcDbEntity
  8
0
 62
     0
100
AcDbLine
 10
11.99304811965889
 20
9.120426821088543
 30
0.0
 11
12.03304811965889
 21
9.16042682108854
 31
0.0
  0
LINE
  5
34D8
330
34D5
100
AcDbEntity
  8
0
 62
     0
100
AcDbLine
 10
11.94885394583473
 20
9.120426821088543
 30
0.0
 11
11.98885394583473
 21
9.16042682108854
 31
0.0
  0
LINE
  5
34D9
330
34D5
100
AcDbEntity
  8
0
 62
     0
100
AcDbLine
 10
11.90465977201057
 20
9.120426821088543
 30
0.0
 11
11.94465977201057
 21
9.16042682108854
 31
0.0
  0
LINE
  5
34DA
330
34D5
100
AcDbEntity
  8
0
 62
     0
100
AcDbLine
 10
11.86046559818641
 20
9.120426821088543
 30
0.0
 11
11.90046559818641
 21
9.16042682108854
 31
0.0
  0
LINE
  5
34DB
330
34D5
100
AcDbEntity
  8
0
 62
     0
100
AcDbLine
 10
11.81627142436225
 20
9.120426821088543
 30
0.0
 11
11.85627142436225
 21
9.16042682108854
 31
0.0
  0
LINE
  5
34DC
330
34D5
100
AcDbEntity
  8
0
 62
     0
100
AcDbLine
 10
11.77207725053809
 20
9.120426821088543
 30
0.0
 11
11.81207725053809
 21
9.16042682108854
 31
0.0
  0
LINE
  5
34DD
330
34D5
100
AcDbEntity
  8
0
 62
     0
100
AcDbLine
 10
11.72788307671393
 20
9.120426821088543
 30
0.0
 11
11.76788307671393
 21
9.16042682108854
 31
0.0
  0
LINE
  5
34DE
330
34D5
100
AcDbEntity
  8
0
 62
     0
100
AcDbLine
 10
11.68368890288977
 20
9.120426821088543
 30
0.0
 11
11.72368890288977
 21
9.16042682108854
 31
0.0
  0
LINE
  5
34DF
330
34D5
100
AcDbEntity
  8
0
 62
     0
100
AcDbLine
 10
11.63949472906562
 20
9.120426821088543
 30
0.0
 11
11.67949472906562
 21
9.16042682108854
 31
0.0
  0
LINE
  5
34E0
330
34D5
100
AcDbEntity
  8
0
 62
     0
100
AcDbLine
 10
11.59530055524146
 20
9.120426821088543
 30
0.0
 11
11.63530055524145
 21
9.16042682108854
 31
0.0
  0
LINE
  5
34E1
330
34D5
100
AcDbEntity
  8
0
 62
     0
100
AcDbLine
 10
11.5511063814173
 20
9.120426821088543
 30
0.0
 11
11.59110638141729
 21
9.16042682108854
 31
0.0
  0
LINE
  5
34E2
330
34D5
100
AcDbEntity
  8
0
 62
     0
100
AcDbLine
 10
11.50691220759314
 20
9.120426821088543
 30
0.0
 11
11.54691220759314
 21
9.16042682108854
 31
0.0
  0
LINE
  5
34E3
330
34D5
100
AcDbEntity
  8
0
 62
     0
100
AcDbLine
 10
11.46271803376898
 20
9.120426821088543
 30
0.0
 11
11.50271803376898
 21
9.16042682108854
 31
0.0
  0
LINE
  5
34E4
330
34D5
100
AcDbEntity
  8
0
 62
     0
100
AcDbLine
 10
11.41852385994482
 20
9.120426821088543
 30
0.0
 11
11.45852385994482
 21
9.16042682108854
 31
0.0
  0
LINE
  5
34E5
330
34D5
100
AcDbEntity
  8
0
 62
     0
100
AcDbLine
 10
11.39401831761913
 20
9.140115452587011
 30
0.0
 11
11.41432968612066
 21
9.16042682108854
 31
0.0
  0
LINE
  5
34E6
330
34D5
100
AcDbEntity
  8
0
 62
     0
100
AcDbLine
 10
12.03724229348305
 20
9.120426821088543
 30
0.0
 11
12.07724229348305
 21
9.16042682108854
 31
0.0
  0
LINE
  5
34E7
330
34D5
100
AcDbEntity
  8
0
 62
     0
100
AcDbLine
 10
12.08143646730721
 20
9.120426821088543
 30
0.0
 11
12.12143646730721
 21
9.16042682108854
 31
0.0
  0
LINE
  5
34E8
330
34D5
100
AcDbEntity
  8
0
 62
     0
100
AcDbLine
 10
12.12563064113137
 20
9.120426821088543
 30
0.0
 11
12.16563064113137
 21
9.16042682108854
 31
0.0
  0
LINE
  5
34E9
330
34D5
100
AcDbEntity
  8
0
 62
     0
100
AcDbLine
 10
12.16982481495553
 20
9.120426821088543
 30
0.0
 11
12.20982481495552
 21
9.16042682108854
 31
0.0
  0
LINE
  5
34EA
330
34D5
100
AcDbEntity
  8
0
 62
     0
100
AcDbLine
 10
12.21401898877969
 20
9.120426821088543
 30
0.0
 11
12.25401898877968
 21
9.16042682108854
 31
0.0
  0
LINE
  5
34EB
330
34D5
100
AcDbEntity
  8
0
 62
     0
100
AcDbLine
 10
12.25821316260385
 20
9.120426821088543
 30
0.0
 11
12.29821316260384
 21
9.16042682108854
 31
0.0
  0
LINE
  5
34EC
330
34D5
100
AcDbEntity
  8
0
 62
     0
100
AcDbLine
 10
12.302407336428
 20
9.120426821088543
 30
0.0
 11
12.342407336428
 21
9.16042682108854
 31
0.0
  0
LINE
  5
34ED
330
34D5
100
AcDbEntity
  8
0
 62
     0
100
AcDbLine
 10
12.34660151025216
 20
9.120426821088543
 30
0.0
 11
12.38660151025216
 21
9.16042682108854
 31
0.0
  0
LINE
  5
34EE
330
34D5
100
AcDbEntity
  8
0
 62
     0
100
AcDbLine
 10
12.39079568407632
 20
9.120426821088543
 30
0.0
 11
12.43079568407632
 21
9.16042682108854
 31
0.0
  0
LINE
  5
34EF
330
34D5
100
AcDbEntity
  8
0
 62
     0
100
AcDbLine
 10
12.43498985790048
 20
9.120426821088543
 30
0.0
 11
12.47498985790048
 21
9.16042682108854
 31
0.0
  0
LINE
  5
34F0
330
34D5
100
AcDbEntity
  8
0
 62
     0
100
AcDbLine
 10
12.47918403172464
 20
9.120426821088543
 30
0.0
 11
12.51918403172464
 21
9.16042682108854
 31
0.0
  0
LINE
  5
34F1
330
34D5
100
AcDbEntity
  8
0
 62
     0
100
AcDbLine
 10
12.5233782055488
 20
9.120426821088543
 30
0.0
 11
12.5633782055488
 21
9.16042682108854
 31
0.0
  0
LINE
  5
34F2
330
34D5
100
AcDbEntity
  8
0
 62
     0
100
AcDbLine
 10
12.56757237937296
 20
9.120426821088543
 30
0.0
 11
12.60757237937296
 21
9.16042682108854
 31
0.0
  0
LINE
  5
34F3
330
34D5
100
AcDbEntity
  8
0
 62
     0
100
AcDbLine
 10
12.61176655319712
 20
9.120426821088543
 30
0.0
 11
12.65176655319712
 21
9.16042682108854
 31
0.0
  0
LINE
  5
34F4
330
34D5
100
AcDbEntity
  8
0
 62
     0
100
AcDbLine
 10
12.65596072702128
 20
9.120426821088543
 30
0.0
 11
12.68399674713724
 21
9.1484628412045
 31
0.0
  0
LINE
  5
34F5
330
34D5
100
AcDbEntity
  8
0
 62
     0
100
AcDbLine
 10
12.04858244068372
 20
9.120426821088543
 30
0.0
 11
12.00858244068372
 21
9.16042682108854
 31
0.0
  0
LINE
  5
34F6
330
34D5
100
AcDbEntity
  8
0
 62
     0
100
AcDbLine
 10
12.00438826685956
 20
9.120426821088543
 30
0.0
 11
11.96438826685956
 21
9.16042682108854
 31
0.0
  0
LINE
  5
34F7
330
34D5
100
AcDbEntity
  8
0
 62
     0
100
AcDbLine
 10
11.9601940930354
 20
9.120426821088543
 30
0.0
 11
11.9201940930354
 21
9.16042682108854
 31
0.0
  0
LINE
  5
34F8
330
34D5
100
AcDbEntity
  8
0
 62
     0
100
AcDbLine
 10
11.91599991921124
 20
9.120426821088543
 30
0.0
 11
11.87599991921124
 21
9.16042682108854
 31
0.0
  0
LINE
  5
34F9
330
34D5
100
AcDbEntity
  8
0
 62
     0
100
AcDbLine
 10
11.87180574538708
 20
9.120426821088543
 30
0.0
 11
11.83180574538708
 21
9.16042682108854
 31
0.0
  0
LINE
  5
34FA
330
34D5
100
AcDbEntity
  8
0
 62
     0
100
AcDbLine
 10
11.82761157156292
 20
9.120426821088543
 30
0.0
 11
11.78761157156293
 21
9.16042682108854
 31
0.0
  0
LINE
  5
34FB
330
34D5
100
AcDbEntity
  8
0
 62
     0
100
AcDbLine
 10
11.78341739773876
 20
9.120426821088543
 30
0.0
 11
11.74341739773877
 21
9.16042682108854
 31
0.0
  0
LINE
  5
34FC
330
34D5
100
AcDbEntity
  8
0
 62
     0
100
AcDbLine
 10
11.7392232239146
 20
9.120426821088543
 30
0.0
 11
11.69922322391461
 21
9.16042682108854
 31
0.0
  0
LINE
  5
34FD
330
34D5
100
AcDbEntity
  8
0
 62
     0
100
AcDbLine
 10
11.69502905009045
 20
9.120426821088543
 30
0.0
 11
11.65502905009045
 21
9.16042682108854
 31
0.0
  0
LINE
  5
34FE
330
34D5
100
AcDbEntity
  8
0
 62
     0
100
AcDbLine
 10
11.65083487626629
 20
9.120426821088543
 30
0.0
 11
11.61083487626629
 21
9.16042682108854
 31
0.0
  0
LINE
  5
34FF
330
34D5
100
AcDbEntity
  8
0
 62
     0
100
AcDbLine
 10
11.60664070244213
 20
9.120426821088543
 30
0.0
 11
11.56664070244213
 21
9.16042682108854
 31
0.0
  0
LINE
  5
3500
330
34D5
100
AcDbEntity
  8
0
 62
     0
100
AcDbLine
 10
11.56244652861797
 20
9.120426821088543
 30
0.0
 11
11.52244652861797
 21
9.16042682108854
 31
0.0
  0
LINE
  5
3501
330
34D5
100
AcDbEntity
  8
0
 62
     0
100
AcDbLine
 10
11.51825235479381
 20
9.120426821088543
 30
0.0
 11
11.47825235479381
 21
9.16042682108854
 31
0.0
  0
LINE
  5
3502
330
34D5
100
AcDbEntity
  8
0
 62
     0
100
AcDbLine
 10
11.47405818096965
 20
9.120426821088543
 30
0.0
 11
11.43405818096965
 21
9.16042682108854
 31
0.0
  0
LINE
  5
3503
330
34D5
100
AcDbEntity
  8
0
 62
     0
100
AcDbLine
 10
11.42986400714549
 20
9.120426821088543
 30
0.0
 11
11.39401831761913
 21
9.156272510614906
 31
0.0
  0
LINE
  5
3504
330
34D5
100
AcDbEntity
  8
0
 62
     0
100
AcDbLine
 10
12.09277661450788
 20
9.120426821088543
 30
0.0
 11
12.05277661450788
 21
9.16042682108854
 31
0.0
  0
LINE
  5
3505
330
34D5
100
AcDbEntity
  8
0
 62
     0
100
AcDbLine
 10
12.13697078833203
 20
9.120426821088543
 30
0.0
 11
12.09697078833204
 21
9.16042682108854
 31
0.0
  0
LINE
  5
3506
330
34D5
100
AcDbEntity
  8
0
 62
     0
100
AcDbLine
 10
12.1811649621562
 20
9.120426821088543
 30
0.0
 11
12.1411649621562
 21
9.16042682108854
 31
0.0
  0
LINE
  5
3507
330
34D5
100
AcDbEntity
  8
0
 62
     0
100
AcDbLine
 10
12.22535913598036
 20
9.120426821088543
 30
0.0
 11
12.18535913598036
 21
9.16042682108854
 31
0.0
  0
LINE
  5
3508
330
34D5
100
AcDbEntity
  8
0
 62
     0
100
AcDbLine
 10
12.26955330980451
 20
9.120426821088543
 30
0.0
 11
12.22955330980451
 21
9.16042682108854
 31
0.0
  0
LINE
  5
3509
330
34D5
100
AcDbEntity
  8
0
 62
     0
100
AcDbLine
 10
12.31374748362867
 20
9.120426821088543
 30
0.0
 11
12.27374748362868
 21
9.16042682108854
 31
0.0
  0
LINE
  5
350A
330
34D5
100
AcDbEntity
  8
0
 62
     0
100
AcDbLine
 10
12.35794165745283
 20
9.120426821088543
 30
0.0
 11
12.31794165745283
 21
9.16042682108854
 31
0.0
  0
LINE
  5
350B
330
34D5
100
AcDbEntity
  8
0
 62
     0
100
AcDbLine
 10
12.40213583127699
 20
9.120426821088543
 30
0.0
 11
12.36213583127699
 21
9.16042682108854
 31
0.0
  0
LINE
  5
350C
330
34D5
100
AcDbEntity
  8
0
 62
     0
100
AcDbLine
 10
12.44633000510115
 20
9.120426821088543
 30
0.0
 11
12.40633000510115
 21
9.16042682108854
 31
0.0
  0
LINE
  5
350D
330
34D5
100
AcDbEntity
  8
0
 62
     0
100
AcDbLine
 10
12.49052417892531
 20
9.120426821088543
 30
0.0
 11
12.45052417892531
 21
9.16042682108854
 31
0.0
  0
LINE
  5
350E
330
34D5
100
AcDbEntity
  8
0
 62
     0
100
AcDbLine
 10
12.53471835274947
 20
9.120426821088543
 30
0.0
 11
12.49471835274947
 21
9.16042682108854
 31
0.0
  0
LINE
  5
350F
330
34D5
100
AcDbEntity
  8
0
 62
     0
100
AcDbLine
 10
12.57891252657363
 20
9.120426821088543
 30
0.0
 11
12.53891252657363
 21
9.16042682108854
 31
0.0
  0
LINE
  5
3510
330
34D5
100
AcDbEntity
  8
0
 62
     0
100
AcDbLine
 10
12.62310670039779
 20
9.120426821088543
 30
0.0
 11
12.58310670039779
 21
9.16042682108854
 31
0.0
  0
LINE
  5
3511
330
34D5
100
AcDbEntity
  8
0
 62
     0
100
AcDbLine
 10
12.66730087422195
 20
9.120426821088543
 30
0.0
 11
12.62730087422195
 21
9.16042682108854
 31
0.0
  0
LINE
  5
3512
330
34D5
100
AcDbEntity
  8
0
 62
     0
100
AcDbLine
 10
12.68399674713724
 20
9.147925121997415
 30
0.0
 11
12.67149504804611
 21
9.16042682108854
 31
0.0
  0
ENDBLK
  5
3513
330
34D5
100
AcDbEntity
  8
0
100
AcDbBlockEnd
  0
BLOCK
  5
39D3
330
39C5
100
AcDbEntity
  8
0
100
AcDbBlockBegin
  2
SOLBET_Bloczek_Optimal_420x240x590_P+W_PRA
 70
     2
 10
0.0
 20
0.0
 30
0.0
  3
SOLBET_Bloczek_Optimal_420x240x590_P+W_PRA
  1

  0
ATTDEF
  5
39C6
330
39C5
100
AcDbEntity
  8
SOLBET_Wymiary_Opisy
100
AcDbText
 10
-0.0000000703746536
 20
6.303237281370451
 30
0.0
 40
0.9913121336814832
  1
420x240x590
  7
Solbet_1
100
AcDbAttributeDefinition
  3

  2
WYMIARY
 70
     3
1001
AcDbAttr
1070
     0
1070
     1
  0
ATTDEF
  5
39C7
330
39C5
100
AcDbEntity
  8
SOLBET_Wymiary_Opisy
100
AcDbText
 10
-0.0000000703746536
 20
4.790717873654354
 30
0.0
 40
0.9913121336814832
  1
400
  7
Solbet_1
100
AcDbAttributeDefinition
  3

  2
KLASA_GĘSTOŚCI
 70
     9
1001
AcDbAttr
1070
     0
1070
     1
  0
ATTDEF
  5
39C8
330
39C5
100
AcDbEntity
  8
SOLBET_Wymiary_Opisy
100
AcDbText
 10
-0.0000000703746536
 20
3.269569038442127
 30
0.0
 40
0.9913121336814832
  1
Pióra+Wpusty
  7
Solbet_1
100
AcDbAttributeDefinition
  3

  2
PROFILOWANIE
 70
     3
1001
AcDbAttr
1070
     0
1070
     1
  0
ATTDEF
  5
39C9
330
39C5
100
AcDbEntity
  8
SOLBET_Wymiary_Opisy
100
AcDbText
 10
-0.0000000703746536
 20
0.2448646291013483
 30
0.0
 40
0.9913121336814832
  1
SOLBET
  7
Solbet_1
100
AcDbAttributeDefinition
  3

  2
FIRMA
 70
     3
1001
AcDbAttr
1070
     0
1070
     1
  0
ATTDEF
  5
39CA
330
39C5
100
AcDbEntity
  8
SOLBET_Wymiary_Opisy
100
AcDbText
 10
-0.0000000703746536
 20
9.333547279718283
 30
0.0
 40
0.9913121336814832
  1
Bloczek
  7
Solbet_1
100
AcDbAttributeDefinition
  3
Nazwa
  2
NAZWA
 70
     3
1001
AcDbAttr
1070
     0
1070
     1
  0
ATTDEF
  5
39CB
330
39C5
100
AcDbEntity
  8
SOLBET_Wymiary_Opisy
100
AcDbText
 10
-0.0000000703746536
 20
7.794499099484078
 30
0.0
 40
0.9913121336814832
  1
OPTIMAL
  7
Solbet_1
100
AcDbAttributeDefinition
  3

  2
SYSTEM
 70
     3
1001
AcDbAttr
1070
     0
1070
     1
  0
ATTDEF
  5
39CC
330
39C5
100
AcDbEntity
  8
SOLBET_Wymiary_Opisy
100
AcDbText
 10
-0.0000000703746536
 20
1.74418138862846
 30
0.0
 40
0.9913121336814832
  1
Prawo
  7
Solbet_1
100
AcDbAttributeDefinition
  3

  2
WIDOK
 70
    11
1001
AcDbAttr
1070
     0
1070
     1
  0
LINE
  5
39CD
330
39C5
100
AcDbEntity
  8
SOLBET_Bloczki
100
AcDbLine
 10
21.00000014074931
 20
12.00000020414847
 30
0.0
 11
21.00000014074931
 21
0.000000204148364
 31
0.0
  0
LINE
  5
39CE
330
39C5
100
AcDbEntity
  8
SOLBET_Bloczki
100
AcDbLine
 10
21.00000014074931
 20
12.00000020414847
 30
0.0
 11
0.0000001407493072
 21
12.00000020414847
 31
0.0
  0
LINE
  5
39CF
330
39C5
100
AcDbEntity
  8
SOLBET_Bloczki
100
AcDbLine
 10
0.0000001407493072
 20
12.00000020414847
 30
0.0
 11
0.0000001407493072
 21
0.000000204148364
 31
0.0
  0
LINE
  5
39D0
330
39C5
100
AcDbEntity
  8
SOLBET_Bloczki
100
AcDbLine
 10
0.0000001407493072
 20
0.000000204148364
 30
0.0
 11
21.00000014074931
 21
0.000000204148364
 31
0.0
  0
ENDBLK
  5
39D4
330
39C5
100
AcDbEntity
  8
0
100
AcDbBlockEnd
  0
BLOCK
  5
3A8B
330
3A7F
100
AcDbEntity
  8
0
100
AcDbBlockBegin
  2
SOLBET_Plytka_60x240x590_brak_PRA
 70
     2
 10
0.0
 20
0.0
 30
0.0
  3
SOLBET_Plytka_60x240x590_brak_PRA
  1

  0
ATTDEF
  5
3A80
330
3A7F
100
AcDbEntity
  8
SOLBET_Wymiary_Opisy
100
AcDbText
 10
0.0000000428741699
 20
4.865619229844077
 30
0.0
 40
1.006810973315101
  1
60x240x590
  7
Solbet_1
100
AcDbAttributeDefinition
  3

  2
WYMIARY
 70
     3
1001
AcDbAttr
1070
     0
1070
     1
  0
ATTDEF
  5
3A81
330
3A7F
100
AcDbEntity
  8
SOLBET_Wymiary_Opisy
100
AcDbText
 10
0.0000000428741699
 20
3.329452077944857
 30
0.0
 40
1.006810973315101
  1
600
  7
Solbet_1
100
AcDbAttributeDefinition
  3

  2
KLASA_GĘSTOŚCI
 70
     3
1001
AcDbAttr
1070
     0
1070
     1
  0
ATTDEF
  5
3A82
330
3A7F
100
AcDbEntity
  8
SOLBET_Wymiary_Opisy
100
AcDbText
 10
0.0000000428741699
 20
0.2486930628063702
 30
0.0
 40
1.006810973315101
  1
SOLBET
  7
Solbet_1
100
AcDbAttributeDefinition
  3

  2
FIRMA
 70
     3
1001
AcDbAttr
1070
     0
1070
     1
  0
ATTDEF
  5
3A83
330
3A7F
100
AcDbEntity
  8
SOLBET_Wymiary_Opisy
100
AcDbText
 10
0.0000000428741699
 20
6.498884010242274
 30
0.0
 40
1.006810973315101
  1
Płytka
  7
Solbet_1
100
AcDbAttributeDefinition
  3
Nazwa
  2
NAZWA
 70
     3
1001
AcDbAttr
1070
     0
1070
     1
  0
ATTDEF
  5
3A84
330
3A7F
100
AcDbEntity
  8
SOLBET_Wymiary_Opisy
100
AcDbText
 10
0.0000000428741699
 20
1.771451147448315
 30
0.0
 40
1.006810973315101
  1
Prawo
  7
Solbet_1
100
AcDbAttributeDefinition
  3

  2
WIDOK
 70
    11
1001
AcDbAttr
1070
     0
1070
     1
  0
LINE
  5
3A85
330
3A7F
100
AcDbEntity
  8
SOLBET_Bloczki
100
AcDbLine
 10
2.99999991809318
 20
12.00000009173755
 30
0.0
 11
2.999999918093408
 21
0.0000000917375473
 31
0.0
  0
LINE
  5
3A86
330
3A7F
100
AcDbEntity
  8
SOLBET_Bloczki
100
AcDbLine
 10
2.999999918093408
 20
0.0000000917375473
 30
0.0
 11
-0.0000000819065917
 21
0.0000000917375473
 31
0.0
  0
LINE
  5
3A87
330
3A7F
100
AcDbEntity
  8
SOLBET_Bloczki
100
AcDbLine
 10
-0.0000000819065917
 20
0.0000000917375473
 30
0.0
 11
-0.0000000819065917
 21
12.00000009173755
 31
0.0
  0
LINE
  5
3A88
330
3A7F
100
AcDbEntity
  8
SOLBET_Bloczki
100
AcDbLine
 10
-0.0000000819065917
 20
12.00000009173755
 30
0.0
 11
2.99999991809318
 21
12.00000009173755
 31
0.0
  0
ENDBLK
  5
3A8C
330
3A7F
100
AcDbEntity
  8
0
100
AcDbBlockEnd
  0
BLOCK
  5
3ADF
330
3AD1
100
AcDbEntity
  8
0
100
AcDbBlockBegin
  2
SOLBET_Bloczek_Ideal_420x240x590_P+W_PRA
 70
     2
 10
0.0
 20
0.0
 30
0.0
  3
SOLBET_Bloczek_Ideal_420x240x590_P+W_PRA
  1

  0
ATTDEF
  5
3AD2
330
3AD1
100
AcDbEntity
  8
SOLBET_Wymiary_Opisy
100
AcDbText
 10
-0.0000000703746536
 20
6.303237281370451
 30
0.0
 40
0.9913121336814832
  1
420x240x590
  7
Solbet_1
100
AcDbAttributeDefinition
  3

  2
WYMIARY
 70
     3
1001
AcDbAttr
1070
     0
1070
     1
  0
ATTDEF
  5
3AD3
330
3AD1
100
AcDbEntity
  8
SOLBET_Wymiary_Opisy
100
AcDbText
 10
-0.0000000703746536
 20
4.790717873654354
 30
0.0
 40
0.9913121336814832
  1
400
  7
Solbet_1
100
AcDbAttributeDefinition
  3

  2
KLASA_GĘSTOŚCI
 70
     9
1001
AcDbAttr
1070
     0
1070
     1
  0
ATTDEF
  5
3AD4
330
3AD1
100
AcDbEntity
  8
SOLBET_Wymiary_Opisy
100
AcDbText
 10
-0.0000000703746536
 20
3.269569038442127
 30
0.0
 40
0.9913121336814832
  1
Pióra+Wpusty
  7
Solbet_1
100
AcDbAttributeDefinition
  3

  2
PROFILOWANIE
 70
     3
1001
AcDbAttr
1070
     0
1070
     1
  0
ATTDEF
  5
3AD5
330
3AD1
100
AcDbEntity
  8
SOLBET_Wymiary_Opisy
100
AcDbText
 10
-0.0000000703746536
 20
0.2448646291013483
 30
0.0
 40
0.9913121336814832
  1
SOLBET
  7
Solbet_1
100
AcDbAttributeDefinition
  3

  2
FIRMA
 70
     3
1001
AcDbAttr
1070
     0
1070
     1
  0
ATTDEF
  5
3AD6
330
3AD1
100
AcDbEntity
  8
SOLBET_Wymiary_Opisy
100
AcDbText
 10
-0.0000000703746536
 20
9.333547279718283
 30
0.0
 40
0.9913121336814832
  1
Bloczek
  7
Solbet_1
100
AcDbAttributeDefinition
  3
Nazwa
  2
NAZWA
 70
     3
1001
AcDbAttr
1070
     0
1070
     1
  0
ATTDEF
  5
3AD7
330
3AD1
100
AcDbEntity
  8
SOLBET_Wymiary_Opisy
100
AcDbText
 10
-0.0000000703746536
 20
7.794499099484078
 30
0.0
 40
0.9913121336814832
  1
SOLBET IDEAL
  7
Solbet_1
100
AcDbAttributeDefinition
  3

  2
SYSTEM
 70
     3
1001
AcDbAttr
1070
     0
1070
     1
  0
ATTDEF
  5
3AD8
330
3AD1
100
AcDbEntity
  8
SOLBET_Wymiary_Opisy
100
AcDbText
 10
-0.0000000703746536
 20
1.74418138862846
 30
0.0
 40
0.9913121336814832
  1
Prawo
  7
Solbet_1
100
AcDbAttributeDefinition
  3

  2
WIDOK
 70
    11
1001
AcDbAttr
1070
     0
1070
     1
  0
LINE
  5
3AD9
330
3AD1
100
AcDbEntity
  8
SOLBET_Bloczki
100
AcDbLine
 10
21.00000014074931
 20
12.00000020414847
 30
0.0
 11
21.00000014074931
 21
0.000000204148364
 31
0.0
  0
LINE
  5
3ADA
330
3AD1
100
AcDbEntity
  8
SOLBET_Bloczki
100
AcDbLine
 10
21.00000014074931
 20
12.00000020414847
 30
0.0
 11
0.0000001407493072
 21
12.00000020414847
 31
0.0
  0
LINE
  5
3ADB
330
3AD1
100
AcDbEntity
  8
SOLBET_Bloczki
100
AcDbLine
 10
0.0000001407493072
 20
12.00000020414847
 30
0.0
 11
0.0000001407493072
 21
0.000000204148364
 31
0.0
  0
LINE
  5
3ADC
330
3AD1
100
AcDbEntity
  8
SOLBET_Bloczki
100
AcDbLine
 10
0.0000001407493072
 20
0.000000204148364
 30
0.0
 11
21.00000014074931
 21
0.000000204148364
 31
0.0
  0
ENDBLK
  5
3AE0
330
3AD1
100
AcDbEntity
  8
0
100
AcDbBlockEnd
  0
BLOCK
  5
3BBF
330
3BB1
100
AcDbEntity
  8
0
100
AcDbBlockBegin
  2
SOLBET_Bloczek_Ideal_420x240x590_P+W_KG400_PRA
 70
     2
 10
0.0
 20
0.0
 30
0.0
  3
SOLBET_Bloczek_Ideal_420x240x590_P+W_KG400_PRA
  1

  0
ATTDEF
  5
3BB2
330
3BB1
100
AcDbEntity
  8
SOLBET_Wymiary_Opisy
100
AcDbText
 10
-0.0000000703746536
 20
6.303237281370451
 30
0.0
 40
0.9913121336814832
  1
420x240x590
  7
Solbet_1
100
AcDbAttributeDefinition
  3

  2
WYMIARY
 70
    11
1001
AcDbAttr
1070
     0
1070
     1
  0
ATTDEF
  5
3BB3
330
3BB1
100
AcDbEntity
  8
SOLBET_Wymiary_Opisy
100
AcDbText
 10
-0.0000000703746536
 20
4.790717873654354
 30
0.0
 40
0.9913121336814832
  1
400
  7
Solbet_1
100
AcDbAttributeDefinition
  3

  2
KLASA_GĘSTOŚCI
 70
    11
1001
AcDbAttr
1070
     0
1070
     1
  0
ATTDEF
  5
3BB4
330
3BB1
100
AcDbEntity
  8
SOLBET_Wymiary_Opisy
100
AcDbText
 10
-0.0000000703746536
 20
3.269569038442127
 30
0.0
 40
0.9913121336814832
  1
Pióra+Wpusty
  7
Solbet_1
100
AcDbAttributeDefinition
  3

  2
PROFILOWANIE
 70
    11
1001
AcDbAttr
1070
     0
1070
     1
  0
ATTDEF
  5
3BB5
330
3BB1
100
AcDbEntity
  8
SOLBET_Wymiary_Opisy
100
AcDbText
 10
-0.0000000703746536
 20
0.2448646291013483
 30
0.0
 40
0.9913121336814832
  1
SOLBET
  7
Solbet_1
100
AcDbAttributeDefinition
  3

  2
FIRMA
 70
    11
1001
AcDbAttr
1070
     0
1070
     1
  0
ATTDEF
  5
3BB6
330
3BB1
100
AcDbEntity
  8
SOLBET_Wymiary_Opisy
100
AcDbText
 10
-0.0000000703746536
 20
9.333547279718283
 30
0.0
 40
0.9913121336814832
  1
Bloczek
  7
Solbet_1
100
AcDbAttributeDefinition
  3
Nazwa
  2
NAZWA
 70
    11
1001
AcDbAttr
1070
     0
1070
     1
  0
ATTDEF
  5
3BB7
330
3BB1
100
AcDbEntity
  8
SOLBET_Wymiary_Opisy
100
AcDbText
 10
-0.0000000703746536
 20
7.794499099484078
 30
0.0
 40
0.9913121336814832
  1
SOLBET Ideal
  7
Solbet_1
100
AcDbAttributeDefinition
  3

  2
SYSTEM
 70
    11
1001
AcDbAttr
1070
     0
1070
     1
  0
ATTDEF
  5
3BB8
330
3BB1
100
AcDbEntity
  8
SOLBET_Wymiary_Opisy
100
AcDbText
 10
-0.0000000703746536
 20
1.74418138862846
 30
0.0
 40
0.9913121336814832
  1
Prawo
  7
Solbet_1
100
AcDbAttributeDefinition
  3

  2
WIDOK
 70
    11
1001
AcDbAttr
1070
     0
1070
     1
  0
LINE
  5
3BB9
330
3BB1
100
AcDbEntity
  8
SOLBET_Bloczki
100
AcDbLine
 10
21.00000014074931
 20
12.00000020414847
 30
0.0
 11
21.00000014074931
 21
0.000000204148364
 31
0.0
  0
LINE
  5
3BBA
330
3BB1
100
AcDbEntity
  8
SOLBET_Bloczki
100
AcDbLine
 10
21.00000014074931
 20
12.00000020414847
 30
0.0
 11
0.0000001407493072
 21
12.00000020414847
 31
0.0
  0
LINE
  5
3BBB
330
3BB1
100
AcDbEntity
  8
SOLBET_Bloczki
100
AcDbLine
 10
0.0000001407493072
 20
12.00000020414847
 30
0.0
 11
0.0000001407493072
 21
0.000000204148364
 31
0.0
  0
LINE
  5
3BBC
330
3BB1
100
AcDbEntity
  8
SOLBET_Bloczki
100
AcDbLine
 10
0.0000001407493072
 20
0.000000204148364
 30
0.0
 11
21.00000014074931
 21
0.000000204148364
 31
0.0
  0
ENDBLK
  5
3BC0
330
3BB1
100
AcDbEntity
  8
0
100
AcDbBlockEnd
  0
BLOCK
  5
3BD3
330
3BC7
100
AcDbEntity
  8
0
100
AcDbBlockBegin
  2
SOLBET_Plytka_60x240x590_KG600_PRA
 70
     2
 10
0.0
 20
0.0
 30
0.0
  3
SOLBET_Plytka_60x240x590_KG600_PRA
  1

  0
ATTDEF
  5
3BC8
330
3BC7
100
AcDbEntity
  8
SOLBET_Wymiary_Opisy
100
AcDbText
 10
0.0000000428741699
 20
4.865619229844077
 30
0.0
 40
1.006810973315101
  1
60x240x590
  7
Solbet_1
100
AcDbAttributeDefinition
  3

  2
WYMIARY
 70
    11
1001
AcDbAttr
1070
     0
1070
     1
  0
ATTDEF
  5
3BC9
330
3BC7
100
AcDbEntity
  8
SOLBET_Wymiary_Opisy
100
AcDbText
 10
0.0000000428741699
 20
3.329452077944857
 30
0.0
 40
1.006810973315101
  1
600
  7
Solbet_1
100
AcDbAttributeDefinition
  3

  2
KLASA_GĘSTOŚCI
 70
    11
1001
AcDbAttr
1070
     0
1070
     1
  0
ATTDEF
  5
3BCA
330
3BC7
100
AcDbEntity
  8
SOLBET_Wymiary_Opisy
100
AcDbText
 10
0.0000000428741699
 20
0.2486930628063702
 30
0.0
 40
1.006810973315101
  1
SOLBET
  7
Solbet_1
100
AcDbAttributeDefinition
  3

  2
FIRMA
 70
    11
1001
AcDbAttr
1070
     0
1070
     1
  0
ATTDEF
  5
3BCB
330
3BC7
100
AcDbEntity
  8
SOLBET_Wymiary_Opisy
100
AcDbText
 10
0.0000000428741699
 20
6.498884010242274
 30
0.0
 40
1.006810973315101
  1
Płytka
  7
Solbet_1
100
AcDbAttributeDefinition
  3
Nazwa
  2
NAZWA
 70
    11
1001
AcDbAttr
1070
     0
1070
     1
  0
ATTDEF
  5
3BCC
330
3BC7
100
AcDbEntity
  8
SOLBET_Wymiary_Opisy
100
AcDbText
 10
0.0000000428741699
 20
1.771451147448315
 30
0.0
 40
1.006810973315101
  1
Prawo
  7
Solbet_1
100
AcDbAttributeDefinition
  3

  2
WIDOK
 70
    11
1001
AcDbAttr
1070
     0
1070
     1
  0
LINE
  5
3BCD
330
3BC7
100
AcDbEntity
  8
SOLBET_Bloczki
100
AcDbLine
 10
2.99999991809318
 20
12.00000009173755
 30
0.0
 11
2.999999918093408
 21
0.0000000917375473
 31
0.0
  0
LINE
  5
3BCE
330
3BC7
100
AcDbEntity
  8
SOLBET_Bloczki
100
AcDbLine
 10
2.999999918093408
 20
0.0000000917375473
 30
0.0
 11
-0.0000000819065917
 21
0.0000000917375473
 31
0.0
  0
LINE
  5
3BCF
330
3BC7
100
AcDbEntity
  8
SOLBET_Bloczki
100
AcDbLine
 10
-0.0000000819065917
 20
0.0000000917375473
 30
0.0
 11
-0.0000000819065917
 21
12.00000009173755
 31
0.0
  0
LINE
  5
3BD0
330
3BC7
100
AcDbEntity
  8
SOLBET_Bloczki
100
AcDbLine
 10
-0.0000000819065917
 20
12.00000009173755
 30
0.0
 11
2.99999991809318
 21
12.00000009173755
 31
0.0
  0
ENDBLK
  5
3BD4
330
3BC7
100
AcDbEntity
  8
0
100
AcDbBlockEnd
  0
ENDSEC
  0
SECTION
  2
ENTITIES
  0
LWPOLYLINE
  5
3903
330
1F
100
AcDbEntity
  8
SOLBET_Zbrojenie_Konstrukcja
100
AcDbPolyline
 90
       16
 70
     1
 43
0.0
 10
64.17993101043567
 20
129.0900332470178
 42
0.0869419154568836
 10
64.22664775632028
 20
129.0656293572124
 42
0.04426695874853
 10
64.28325598196124
 20
129.05300233654
 42
0.0327594189474477
 10
64.36139188473635
 20
129.0478774630828
 42
0.0327594189473721
 10
64.439527787526
 20
129.05300233654
 42
0.0442669587487512
 10
64.49613601315241
 20
129.0656293572124
 42
0.0869419154555393
 10
64.54285275903703
 20
129.0900332470173
 42
0.233077666948955
 10
64.5519488586101
 20
129.1084862207776
 42
0.2330776669476068
 10
64.54285275903703
 20
129.1269391945375
 42
0.0869419154571649
 10
64.49613601315241
 20
129.1513430843429
 42
0.0442669587478621
 10
64.439527787526
 20
129.1639701050149
 42
0.032759418947709
 10
64.36139188473635
 20
129.1690949784724
 42
0.0327594189469762
 10
64.28325598196124
 20
129.1639701050153
 42
0.0442669587489952
 10
64.22664775632028
 20
129.1513430843429
 42
0.0869419154555225
 10
64.17993101043567
 20
129.1269391945379
 42
0.2095631734287794
 10
64.17092836869006
 20
129.110569477391
 42
0.256839199828224
1001
ASO_SCHRAFF
1005
0
1070
     1
1002
{
1070
     1
1005
0
1002
}
1002
{
1070
     2
1005
0
1002
}
1002
{
1070
     4
1000
SOFIFUELL
1040
1.0
1040
0.0
1070
     0
1000
T__SCHR
1070
   256
1000
_bylayer
1040
50.0
1070
     1
1002
}
  0
LWPOLYLINE
  5
3904
102
{ACAD_REACTORS
330
3B2F
102
}
330
1F
100
AcDbEntity
  8
SOLBET_Zbrojenie_Konstrukcja
100
AcDbPolyline
 90
       16
 70
     1
 43
0.0
 10
64.36139188473635
 20
129.0478774630828
 42
-0.0327594189470737
 10
64.28325598196124
 20
129.05300233654
 42
-0.0442669587490688
 10
64.22664775632028
 20
129.0656293572124
 42
-0.0869419154566485
 10
64.17993101043567
 20
129.0900332470173
 42
-0.2330776669510323
 10
64.17083491087715
 20
129.1084862207776
 42
-0.2330776669455295
 10
64.17993101043567
 20
129.1269391945375
 42
-0.086941915456222
 10
64.22664775632028
 20
129.1513430843429
 42
-0.0442669587489878
 10
64.28325598196124
 20
129.1639701050153
 42
-0.032759418946939
 10
64.36139188473635
 20
129.1690949784724
 42
-0.032759418947148
 10
64.439527787526
 20
129.1639701050153
 42
-0.0442669587490284
 10
64.49613601315241
 20
129.1513430843429
 42
-0.0869419154566317
 10
64.54285275903703
 20
129.1269391945375
 42
-0.233077666949109
 10
64.5519488586101
 20
129.1084862207776
 42
-0.2330776669474527
 10
64.54285275903703
 20
129.0900332470173
 42
-0.0869419154562388
 10
64.49613601315241
 20
129.0656293572124
 42
-0.0442669587490685
 10
64.439527787526
 20
129.05300233654
 42
-0.0327594189470737
  0
LWPOLYLINE
  5
3905
330
1F
100
AcDbEntity
  8
SOLBET_Zbrojenie_Konstrukcja
100
AcDbPolyline
 90
       16
 70
     1
 43
0.0
 10
74.70236350479126
 20
129.0900332470178
 42
-0.0869419154568836
 10
74.65564675890664
 20
129.0656293572124
 42
-0.04426695874853
 10
74.59903853326569
 20
129.05300233654
 42
-0.0327594189474477
 10
74.52090263047603
 20
129.0478774630828
 42
-0.0327594189473721
 10
74.44276672770093
 20
129.05300233654
 42
-0.0442669587487512
 10
74.38615850205997
 20
129.0656293572124
 42
-0.0869419154555393
 10
74.33944175618989
 20
129.0900332470173
 42
-0.233077666948955
 10
74.33034565661682
 20
129.1084862207776
 42
-0.2330776669476068
 10
74.33944175618989
 20
129.1269391945375
 42
-0.0869419154571649
 10
74.38615850207452
 20
129.1513430843429
 42
-0.0442669587478621
 10
74.44276672770093
 20
129.1639701050149
 42
-0.032759418947709
 10
74.52090263047603
 20
129.1690949784724
 42
-0.0327594189469762
 10
74.59903853325113
 20
129.1639701050153
 42
-0.0442669587489952
 10
74.65564675890664
 20
129.1513430843429
 42
-0.0869419154555225
 10
74.70236350479126
 20
129.1269391945379
 42
-0.2095631734287794
 10
74.71136614652232
 20
129.110569477391
 42
-0.256839199828224
1001
ASO_SCHRAFF
1005
0
1070
     1
1002
{
1070
     1
1005
0
1002
}
1002
{
1070
     2
1005
0
1002
}
1002
{
1070
     4
1000
SOFIFUELL
1040
1.0
1040
0.0
1070
     0
1000
T__SCHR
1070
   256
1000
_bylayer
1040
50.0
1070
     1
1002
}
  0
LWPOLYLINE
  5
3906
102
{ACAD_REACTORS
330
3B2F
102
}
330
1F
100
AcDbEntity
  8
SOLBET_Zbrojenie_Konstrukcja
100
AcDbPolyline
 90
       16
 70
     1
 43
0.0
 10
74.52090263047603
 20
129.0478774630828
 42
0.0327594189470737
 10
74.59903853325113
 20
129.05300233654
 42
0.0442669587490688
 10
74.65564675890664
 20
129.0656293572124
 42
0.0869419154566485
 10
74.70236350479126
 20
129.0900332470173
 42
0.2330776669510323
 10
74.71145960434978
 20
129.1084862207776
 42
0.2330776669455295
 10
74.70236350479126
 20
129.1269391945375
 42
0.086941915456222
 10
74.65564675890664
 20
129.1513430843429
 42
0.0442669587489878
 10
74.59903853325113
 20
129.1639701050153
 42
0.032759418946939
 10
74.52090263047603
 20
129.1690949784724
 42
0.032759418947148
 10
74.44276672770093
 20
129.1639701050153
 42
0.0442669587490284
 10
74.38615850207452
 20
129.1513430843429
 42
0.0869419154566317
 10
74.33944175618989
 20
129.1269391945375
 42
0.233077666949109
 10
74.33034565661682
 20
129.1084862207776
 42
0.2330776669474527
 10
74.33944175618989
 20
129.0900332470173
 42
0.0869419154562388
 10
74.38615850207452
 20
129.0656293572124
 42
0.0442669587490685
 10
74.44276672770093
 20
129.05300233654
 42
0.0327594189470737
  0
LINE
  5
390E
330
1F
100
AcDbEntity
  8
SOLBET_Beton
100
AcDbLine
 10
137.0771320297895
 20
122.4116953489683
 30
0.0
 11
138.8423744599527
 21
122.4116953489683
 31
0.0
  0
LINE
  5
3914
330
1F
100
AcDbEntity
  8
SOLBET_Tynki_Posadzki
100
AcDbLine
 10
78.84145981652136
 20
116.4116953489683
 30
0.0
 11
78.3434529840556
 21
116.9116953489683
 31
0.0
  0
LINE
  5
3915
330
1F
100
AcDbEntity
  8
SOLBET_Tynki_Posadzki
100
AcDbLine
 10
78.84145981652136
 20
116.4116953489683
 30
0.0
 11
138.8403812924184
 21
116.4116953489683
 31
0.0
  0
LINE
  5
3916
330
1F
100
AcDbEntity
  8
SOLBET_Tynki_Posadzki
100
AcDbLine
 10
78.84145981652136
 20
116.4116953489683
 30
0.0
 11
78.84145981652136
 21
75.35511286125438
 31
0.0
  0
LINE
  5
3917
330
1F
100
AcDbEntity
  8
SOLBET_Zaprawy
100
AcDbLine
 10
57.05813800998612
 20
75.35511286125438
 30
0.0
 11
57.05813800998612
 21
164.9116953489688
 31
0.0
  0
LINE
  5
3920
330
1F
100
AcDbEntity
  8
SOLBET_Izolacja
  6
Continuous
100
AcDbLine
 10
63.34145981652136
 20
116.9116953489683
 30
0.0
 11
63.34145981652136
 21
128.9116953489683
 31
0.0
  0
LWPOLYLINE
  5
3922
330
1F
100
AcDbEntity
  8
SOLBET_Zbrojenie_Konstrukcja
100
AcDbPolyline
 90
        5
 70
     0
 43
0.0
 10
73.21819787271261
 20
117.6616953489683
 10
73.21819787271261
 20
128.1616953489683
 10
64.21256657859657
 20
128.1616953489683
 10
64.21256657859657
 20
117.6616953489683
 10
73.21819787271261
 20
117.6616953489683
  0
LINE
  5
3923
330
1F
100
AcDbEntity
  8
SOLBET_Zbrojenie_Konstrukcja
100
AcDbLine
 10
65.62678014098082
 20
125.5474817865956
 30
0.0
 11
64.21256657859657
 21
126.9616953489685
 31
0.0
  0
LINE
  5
3924
330
1F
100
AcDbEntity
  8
SOLBET_Zbrojenie_Konstrukcja
100
AcDbLine
 10
66.82678014097792
 20
126.747481786595
 30
0.0
 11
65.41256657860822
 21
128.1616953489683
 31
0.0
  0
LWPOLYLINE
  5
3925
330
1F
100
AcDbEntity
  8
SOLBET_Zbrojenie_Konstrukcja
100
AcDbPolyline
 90
        2
 70
     1
 43
0.3
 10
64.38186006972273
 20
117.9779167492879
 42
1.0
 10
64.68186006971109
 20
117.9779167492879
 42
1.0
  0
LWPOLYLINE
  5
3926
330
1F
100
AcDbEntity
  8
SOLBET_Zbrojenie_Konstrukcja
100
AcDbPolyline
 90
        2
 70
     1
 43
0.3
 10
72.77650403292091
 20
117.9779167492879
 42
1.0
 10
73.07650403292382
 20
117.9779167492879
 42
1.0
  0
LWPOLYLINE
  5
3927
330
1F
100
AcDbEntity
  8
SOLBET_Zbrojenie_Konstrukcja
100
AcDbPolyline
 90
        2
 70
     1
 43
0.3
 10
72.77650403292091
 20
127.814828624349
 42
1.0
 10
73.07650403292382
 20
127.814828624349
 42
1.0
  0
LWPOLYLINE
  5
3928
330
1F
100
AcDbEntity
  8
SOLBET_Zbrojenie_Konstrukcja
100
AcDbPolyline
 90
        2
 70
     1
 43
0.3
 10
64.38186006972273
 20
127.8364482994307
 42
1.0
 10
64.68186006971109
 20
127.8364482994307
 42
1.0
  0
LINE
  5
3929
330
1F
100
AcDbEntity
  8
SOLBET_Wymiary_Opisy
100
AcDbLine
 10
138.8403812924184
 20
158.6273469496514
 30
0.0
 11
138.8403812924184
 21
75.35511286125438
 31
0.0
  0
LINE
  5
3931
330
1F
100
AcDbEntity
  8
SOLBET_Wymiary_Opisy
100
AcDbLine
 10
54.59025050457739
 20
75.35511286125438
 30
0.0
 11
138.8403812924184
 21
75.35511286125438
 31
0.0
  0
LINE
  5
3932
330
1F
100
AcDbEntity
  8
SOLBET_Tynki_Posadzki
100
AcDbLine
 10
56.59145981652137
 20
75.35511286125438
 30
0.0
 11
56.59145981652137
 21
164.9116953489688
 31
0.0
  0
LWPOLYLINE
  5
3933
330
1F
100
AcDbEntity
  8
SOLBET_Bloczki
100
AcDbPolyline
 90
        4
 70
     0
 43
0.0
 10
78.34145981652136
 20
75.35511286125438
 10
78.34145981652136
 20
80.9116953489679
 10
57.34145981652137
 20
80.9116953489679
 10
57.34145981652137
 20
75.35511286125438
  0
LINE
  5
3934
330
1F
100
AcDbEntity
  8
SOLBET_Wymiary_Opisy
 62
     1
100
AcDbLine
 10
78.34145981652136
 20
134.3601896137756
 30
0.0
 11
138.8403812924184
 21
133.703859519685
 31
0.0
  0
LINE
  5
3935
330
1F
100
AcDbEntity
  8
SOLBET_Wymiary_Opisy
 62
     1
100
AcDbLine
 10
78.34145981652136
 20
135.6181398675394
 30
0.0
 11
79.7424498146388
 21
134.3449907990721
 31
0.0
  0
LINE
  5
3936
330
1F
100
AcDbEntity
  8
SOLBET_Emulsje_Folie
100
AcDbLine
 10
79.84022573539869
 20
134.5939447759519
 30
0.0
 11
138.8430932890146
 21
133.9538448094008
 31
0.0
  0
LINE
  5
3937
330
1F
100
AcDbEntity
  8
SOLBET_Emulsje_Folie
100
AcDbLine
 10
78.59145981652137
 20
135.7287602767733
 30
0.0
 11
79.84022573539869
 21
134.5939447759519
 31
0.0
  0
LINE
  5
3938
330
1F
100
AcDbEntity
  8
SOLBET_Emulsje_Folie
100
AcDbLine
 10
78.59145981652137
 20
165.1616953489683
 30
0.0
 11
78.59145981652137
 21
135.7287602767733
 31
0.0
  0
LINE
  5
3939
330
1F
100
AcDbEntity
  8
SOLBET_Emulsje_Folie
100
AcDbLine
 10
78.59145981652137
 20
165.1616953489683
 30
0.0
 11
57.34145981652137
 21
165.1616953489683
 31
0.0
  0
LINE
  5
393A
330
1F
100
AcDbEntity
  8
SOLBET_Zbrojenie_Konstrukcja
100
AcDbLine
 10
55.96530283051425
 20
165.8424295969798
 30
0.0
 11
79.56450095236824
 21
165.4230480292895
 31
0.0
  0
LINE
  5
393B
330
1F
100
AcDbEntity
  8
SOLBET_Zbrojenie_Konstrukcja
100
AcDbLine
 10
79.81450095236823
 20
165.6686447499614
 30
0.0
 11
79.81450095236823
 21
155.4464270537009
 31
0.0
  0
LINE
  5
393C
330
1F
100
AcDbEntity
  8
SOLBET_Zbrojenie_Konstrukcja
100
AcDbLine
 10
55.71530283051425
 20
166.0969118222674
 30
0.0
 11
55.71530283051425
 21
152.6452550438139
 31
0.0
  0
LINE
  5
393D
330
1F
100
AcDbEntity
  8
SOLBET_Zbrojenie_Konstrukcja
100
AcDbLine
 10
55.71530283051425
 20
166.0969118222674
 30
0.0
 11
79.81450095236823
 21
165.6686447499614
 31
0.0
  0
LINE
  5
393E
330
1F
100
AcDbEntity
  8
SOLBET_Zbrojenie_Konstrukcja
100
AcDbLine
 10
79.56450095236824
 20
165.4230480292895
 30
0.0
 11
79.56450095236824
 21
155.8594276342105
 31
0.0
  0
LINE
  5
393F
330
1F
100
AcDbEntity
  8
SOLBET_Zbrojenie_Konstrukcja
100
AcDbLine
 10
55.96530283051425
 20
165.8424295969798
 30
0.0
 11
55.96530283051425
 21
153.1389041459033
 31
0.0
  0
LINE
  5
3940
330
1F
100
AcDbEntity
  8
SOLBET_Zbrojenie_Konstrukcja
100
AcDbLine
 10
55.71530283051425
 20
152.6452550438139
 30
0.0
 11
55.96530283051425
 21
152.6452550438139
 31
0.0
  0
LINE
  5
3941
330
1F
100
AcDbEntity
  8
SOLBET_Zbrojenie_Konstrukcja
100
AcDbLine
 10
79.56450095236824
 20
155.4464270537009
 30
0.0
 11
79.81450095236823
 21
155.4464270537009
 31
0.0
  0
LINE
  5
3942
330
1F
100
AcDbEntity
  8
SOLBET_Zbrojenie_Konstrukcja
100
AcDbLine
 10
55.96530283051425
 20
152.6452550438139
 30
0.0
 11
56.37504743522322
 21
153.3429083739643
 31
0.0
  0
LINE
  5
3943
330
1F
100
AcDbEntity
  8
SOLBET_Zbrojenie_Konstrukcja
100
AcDbLine
 10
56.37504743522322
 20
153.3429083739643
 30
0.0
 11
56.14805050956374
 21
153.450060230457
 31
0.0
  0
LINE
  5
3944
330
1F
100
AcDbEntity
  8
SOLBET_Zbrojenie_Konstrukcja
100
AcDbLine
 10
55.96530283051425
 20
153.1389041459033
 30
0.0
 11
56.14805050956374
 21
153.450060230457
 31
0.0
  0
LINE
  5
3945
330
1F
100
AcDbEntity
  8
SOLBET_Zbrojenie_Konstrukcja
100
AcDbLine
 10
79.56450095236824
 20
155.4464270537009
 30
0.0
 11
79.05720690929911
 21
156.1134968604469
 31
0.0
  0
LINE
  5
3946
330
1F
100
AcDbEntity
  8
SOLBET_Zbrojenie_Konstrukcja
100
AcDbLine
 10
79.05720690929911
 20
156.1134968604469
 30
0.0
 11
79.28183862371543
 21
156.2311164161365
 31
0.0
  0
LINE
  5
3947
330
1F
100
AcDbEntity
  8
SOLBET_Zbrojenie_Konstrukcja
100
AcDbLine
 10
79.56450095236824
 20
155.8594276342105
 30
0.0
 11
79.28183862371543
 21
156.2311164161365
 31
0.0
  0
LINE
  5
3949
330
1F
100
AcDbEntity
  8
SOLBET_Izolacja
100
AcDbLine
 10
79.84293773199488
 20
134.8439300656678
 30
0.0
 11
138.8458052856108
 21
134.2038300991171
 31
0.0
  0
LINE
  5
394A
330
1F
100
AcDbEntity
  8
SOLBET_Izolacja
100
AcDbLine
 10
78.59145981652137
 20
144.8580953258747
 30
0.0
 11
138.9542851491965
 21
144.2032416877659
 31
0.0
  0
LINE
  5
394B
330
1F
100
AcDbEntity
  8
SOLBET_Izolacja
100
AcDbLine
 10
78.594171813103
 20
145.108080615591
 30
0.0
 11
138.9569971457781
 21
144.4532269774818
 31
0.0
  0
INSERT
  5
3968
330
1F
100
AcDbEntity
  8
SOLBET_Izolacja
  6
Continuous
100
AcDbBlockReference
  2
ASOWDBLK
 10
83.62169526090838
 20
144.8035241893659
 30
0.0
 41
10.06106289314004
 42
10.0
 43
10.06106289313995
 50
179.3784439744001
  0
INSERT
  5
3969
330
1F
100
AcDbEntity
  8
SOLBET_Izolacja
  6
Continuous
100
AcDbBlockReference
  2
ASOWDBLK
 10
88.65193070529768
 20
144.7489530528568
 30
0.0
 41
10.06106289314004
 42
10.0
 43
10.06106289313995
 50
179.3784439744001
  0
INSERT
  5
396A
330
1F
100
AcDbEntity
  8
SOLBET_Izolacja
  6
Continuous
100
AcDbBlockReference
  2
ASOWDBLK
 10
93.68216614968673
 20
144.6943819163477
 30
0.0
 41
10.06106289314004
 42
10.0
 43
10.06106289313995
 50
179.3784439744001
  0
INSERT
  5
396B
330
1F
100
AcDbEntity
  8
SOLBET_Izolacja
  6
Continuous
100
AcDbBlockReference
  2
ASOWDBLK
 10
98.7124015940758
 20
144.6398107798385
 30
0.0
 41
10.06106289314004
 42
10.0
 43
10.06106289313995
 50
179.3784439744001
  0
INSERT
  5
396C
330
1F
100
AcDbEntity
  8
SOLBET_Izolacja
  6
Continuous
100
AcDbBlockReference
  2
ASOWDBLK
 10
103.7426370384651
 20
144.5852396433295
 30
0.0
 41
10.06106289314004
 42
10.0
 43
10.06106289313995
 50
179.3784439744001
  0
INSERT
  5
396D
330
1F
100
AcDbEntity
  8
SOLBET_Izolacja
  6
Continuous
100
AcDbBlockReference
  2
ASOWDBLK
 10
108.7728724828541
 20
144.5306685068203
 30
0.0
 41
10.06106289314004
 42
10.0
 43
10.06106289313995
 50
179.3784439744001
  0
INSERT
  5
396E
330
1F
100
AcDbEntity
  8
SOLBET_Izolacja
  6
Continuous
100
AcDbBlockReference
  2
ASOWDBLK
 10
113.8031079272432
 20
144.4760973703112
 30
0.0
 41
10.06106289314004
 42
10.0
 43
10.06106289313995
 50
179.3784439744001
  0
INSERT
  5
396F
330
1F
100
AcDbEntity
  8
SOLBET_Izolacja
  6
Continuous
100
AcDbBlockReference
  2
ASOWDBLK
 10
118.8333433716325
 20
144.4215262338021
 30
0.0
 41
10.06106289314004
 42
10.0
 43
10.06106289313995
 50
179.3784439744001
  0
INSERT
  5
3970
330
1F
100
AcDbEntity
  8
SOLBET_Izolacja
  6
Continuous
100
AcDbBlockReference
  2
ASOWDBLK
 10
123.8635788160215
 20
144.366955097293
 30
0.0
 41
10.06106289314004
 42
10.0
 43
10.06106289313995
 50
179.3784439744001
  0
INSERT
  5
3971
330
1F
100
AcDbEntity
  8
SOLBET_Izolacja
  6
Continuous
100
AcDbBlockReference
  2
ASOWDBLK
 10
128.8938142604106
 20
144.3123839607839
 30
0.0
 41
10.06106289314004
 42
10.0
 43
10.06106289313995
 50
179.3784439744001
  0
INSERT
  5
3972
330
1F
100
AcDbEntity
  8
SOLBET_Izolacja
  6
Continuous
100
AcDbBlockReference
  2
ASOWDBLK
 10
133.9240497047999
 20
144.2578128242748
 30
0.0
 41
10.06106289314004
 42
10.0
 43
10.06106289313995
 50
179.3784439744001
  0
INSERT
  5
3973
330
1F
100
AcDbEntity
  8
SOLBET_Izolacja
  6
Continuous
100
AcDbBlockReference
  2
ASOWDBLK
 10
138.954285149189
 20
144.2032416877657
 30
0.0
 41
10.06106289314004
 42
10.0
 43
10.06106289313995
 50
179.3784439744001
  0
LINE
  5
3984
330
1F
100
AcDbEntity
  8
SOLBET_Beton
100
AcDbLine
 10
77.07713202978948
 20
122.4116953489683
 30
0.0
 11
89.07713202978948
 21
122.4116953489683
 31
0.0
  0
LINE
  5
3986
330
1F
100
AcDbEntity
  8
SOLBET_Beton
100
AcDbLine
 10
89.07713202978948
 20
122.4116953489683
 30
0.0
 11
101.0771320297894
 21
122.4116953489683
 31
0.0
  0
LINE
  5
3988
330
1F
100
AcDbEntity
  8
SOLBET_Beton
100
AcDbLine
 10
113.0771320297895
 20
122.4116953489683
 30
0.0
 11
125.0771320297895
 21
122.4116953489683
 31
0.0
  0
LINE
  5
398A
330
1F
100
AcDbEntity
  8
SOLBET_Beton
100
AcDbLine
 10
101.0771320297894
 20
122.4116953489683
 30
0.0
 11
113.0771320297895
 21
122.4116953489683
 31
0.0
  0
LINE
  5
398C
330
1F
100
AcDbEntity
  8
SOLBET_Beton
100
AcDbLine
 10
125.0771320297895
 20
122.4116953489683
 30
0.0
 11
137.0771320297895
 21
122.4116953489683
 31
0.0
  0
LINE
  5
398E
330
1F
100
AcDbEntity
  8
SOLBET_Beton
100
AcDbLine
 10
138.8423744599527
 20
127.4116953489683
 30
0.0
 11
137.0771320297895
 21
127.4116953489683
 31
0.0
  0
LINE
  5
398F
330
1F
100
AcDbEntity
  8
SOLBET_Beton
100
AcDbLine
 10
137.0771320297895
 20
127.4116953489683
 30
0.0
 11
137.0771320297895
 21
118.9116953489683
 31
0.0
  0
LINE
  5
3990
330
1F
100
AcDbEntity
  8
SOLBET_Beton
100
AcDbLine
 10
89.07713202978948
 20
118.9116953489683
 30
0.0
 11
101.0771320297894
 21
118.9116953489683
 31
0.0
  0
LINE
  5
3991
330
1F
100
AcDbEntity
  8
SOLBET_Beton
100
AcDbLine
 10
101.0771320297894
 20
118.9116953489683
 30
0.0
 11
101.0771320297894
 21
127.4116953489683
 31
0.0
  0
LINE
  5
3992
330
1F
100
AcDbEntity
  8
SOLBET_Beton
100
AcDbLine
 10
101.0771320297894
 20
127.4116953489683
 30
0.0
 11
89.07713202978948
 21
127.4116953489683
 31
0.0
  0
LINE
  5
3993
330
1F
100
AcDbEntity
  8
SOLBET_Beton
100
AcDbLine
 10
89.07713202978948
 20
127.4116953489683
 30
0.0
 11
89.07713202978948
 21
118.9116953489683
 31
0.0
  0
LINE
  5
3994
330
1F
100
AcDbEntity
  8
SOLBET_Beton
100
AcDbLine
 10
77.07713202978948
 20
118.9116953489683
 30
0.0
 11
89.07713202978948
 21
118.9116953489683
 31
0.0
  0
LINE
  5
3995
330
1F
100
AcDbEntity
  8
SOLBET_Beton
100
AcDbLine
 10
89.07713202978948
 20
118.9116953489683
 30
0.0
 11
89.07713202978948
 21
127.4116953489683
 31
0.0
  0
LINE
  5
3996
330
1F
100
AcDbEntity
  8
SOLBET_Beton
100
AcDbLine
 10
89.07713202978948
 20
127.4116953489683
 30
0.0
 11
77.07713202978948
 21
127.4116953489683
 31
0.0
  0
LINE
  5
3997
330
1F
100
AcDbEntity
  8
SOLBET_Beton
100
AcDbLine
 10
77.07713202978948
 20
127.4116953489683
 30
0.0
 11
77.07713202978948
 21
118.9116953489683
 31
0.0
  0
LINE
  5
3998
330
1F
100
AcDbEntity
  8
SOLBET_Beton
100
AcDbLine
 10
113.0771320297895
 20
118.9116953489683
 30
0.0
 11
125.0771320297895
 21
118.9116953489683
 31
0.0
  0
LINE
  5
3999
330
1F
100
AcDbEntity
  8
SOLBET_Beton
100
AcDbLine
 10
125.0771320297895
 20
118.9116953489683
 30
0.0
 11
125.0771320297895
 21
127.4116953489683
 31
0.0
  0
LINE
  5
399A
330
1F
100
AcDbEntity
  8
SOLBET_Beton
100
AcDbLine
 10
125.0771320297895
 20
127.4116953489683
 30
0.0
 11
113.0771320297895
 21
127.4116953489683
 31
0.0
  0
LINE
  5
399B
330
1F
100
AcDbEntity
  8
SOLBET_Beton
100
AcDbLine
 10
113.0771320297895
 20
127.4116953489683
 30
0.0
 11
113.0771320297895
 21
118.9116953489683
 31
0.0
  0
LINE
  5
399C
330
1F
100
AcDbEntity
  8
SOLBET_Beton
100
AcDbLine
 10
101.0771320297894
 20
118.9116953489683
 30
0.0
 11
113.0771320297895
 21
118.9116953489683
 31
0.0
  0
LINE
  5
399D
330
1F
100
AcDbEntity
  8
SOLBET_Beton
100
AcDbLine
 10
113.0771320297895
 20
118.9116953489683
 30
0.0
 11
113.0771320297895
 21
127.4116953489683
 31
0.0
  0
LINE
  5
399E
330
1F
100
AcDbEntity
  8
SOLBET_Beton
100
AcDbLine
 10
113.0771320297895
 20
127.4116953489683
 30
0.0
 11
101.0771320297894
 21
127.4116953489683
 31
0.0
  0
LINE
  5
399F
330
1F
100
AcDbEntity
  8
SOLBET_Beton
100
AcDbLine
 10
101.0771320297894
 20
127.4116953489683
 30
0.0
 11
101.0771320297894
 21
118.9116953489683
 31
0.0
  0
LINE
  5
39A0
330
1F
100
AcDbEntity
  8
SOLBET_Beton
100
AcDbLine
 10
125.0771320297895
 20
118.9116953489683
 30
0.0
 11
137.0771320297895
 21
118.9116953489683
 31
0.0
  0
LINE
  5
39A1
330
1F
100
AcDbEntity
  8
SOLBET_Beton
100
AcDbLine
 10
137.0771320297895
 20
118.9116953489683
 30
0.0
 11
137.0771320297895
 21
127.4116953489683
 31
0.0
  0
LINE
  5
39A2
330
1F
100
AcDbEntity
  8
SOLBET_Beton
100
AcDbLine
 10
137.0771320297895
 20
127.4116953489683
 30
0.0
 11
125.0771320297895
 21
127.4116953489683
 31
0.0
  0
LINE
  5
39A3
330
1F
100
AcDbEntity
  8
SOLBET_Beton
100
AcDbLine
 10
125.0771320297895
 20
127.4116953489683
 30
0.0
 11
125.0771320297895
 21
118.9116953489683
 31
0.0
  0
LINE
  5
39A4
330
1F
100
AcDbEntity
  8
SOLBET_Zbrojenie_Konstrukcja
100
AcDbLine
 10
135.8414598165213
 20
125.4116953489684
 30
0.0
 11
138.8403812924266
 21
119.788717581646
 31
0.0
  0
LINE
  5
39A5
330
1F
100
AcDbEntity
  8
SOLBET_Zbrojenie_Konstrukcja
100
AcDbLine
 10
132.3747931498546
 20
118.9116953489683
 30
0.0
 11
135.8414598165213
 21
125.4116953489684
 31
0.0
  0
LINE
  5
39A7
330
1F
100
AcDbEntity
  8
SOLBET_Zbrojenie_Konstrukcja
100
AcDbLine
 10
108.3747931498544
 20
118.9116953489683
 30
0.0
 11
111.8414598165213
 21
125.4116953489684
 31
0.0
  0
LINE
  5
39A8
330
1F
100
AcDbEntity
  8
SOLBET_Zbrojenie_Konstrukcja
100
AcDbLine
 10
116.3747931498546
 20
118.9116953489683
 30
0.0
 11
119.8414598165211
 21
125.4116953489684
 31
0.0
  0
LINE
  5
39A9
330
1F
100
AcDbEntity
  8
SOLBET_Zbrojenie_Konstrukcja
100
AcDbLine
 10
124.3747931498546
 20
118.9116953489683
 30
0.0
 11
127.8414598165211
 21
125.4116953489684
 31
0.0
  0
LINE
  5
39AA
330
1F
100
AcDbEntity
  8
SOLBET_Zbrojenie_Konstrukcja
100
AcDbLine
 10
100.3747931498544
 20
118.9116953489683
 30
0.0
 11
103.8414598165213
 21
125.4116953489684
 31
0.0
  0
LINE
  5
39AB
330
1F
100
AcDbEntity
  8
SOLBET_Zbrojenie_Konstrukcja
100
AcDbLine
 10
92.37479314985444
 20
118.9116953489683
 30
0.0
 11
95.84145981652136
 21
125.4116953489684
 31
0.0
  0
LINE
  5
39AC
330
1F
100
AcDbEntity
  8
SOLBET_Zbrojenie_Konstrukcja
100
AcDbLine
 10
84.37479314985443
 20
118.9116953489683
 30
0.0
 11
87.84145981652136
 21
125.4116953489684
 31
0.0
  0
LINE
  5
39AD
330
1F
100
AcDbEntity
  8
SOLBET_Zbrojenie_Konstrukcja
100
AcDbLine
 10
76.37479314985466
 20
118.9116953489683
 30
0.0
 11
79.84145981652137
 21
125.4116953489684
 31
0.0
  0
LINE
  5
39AE
330
1F
100
AcDbEntity
  8
SOLBET_Zbrojenie_Konstrukcja
100
AcDbLine
 10
79.84145981652137
 20
125.4116953489684
 30
0.0
 11
83.30812648318806
 21
118.9116953489683
 31
0.0
  0
LINE
  5
39AF
330
1F
100
AcDbEntity
  8
SOLBET_Zbrojenie_Konstrukcja
100
AcDbLine
 10
87.84145981652136
 20
125.4116953489684
 30
0.0
 11
91.30812648318807
 21
118.9116953489683
 31
0.0
  0
LINE
  5
39B0
330
1F
100
AcDbEntity
  8
SOLBET_Zbrojenie_Konstrukcja
100
AcDbLine
 10
95.84145981652136
 20
125.4116953489684
 30
0.0
 11
99.30812648318806
 21
118.9116953489683
 31
0.0
  0
LINE
  5
39B1
330
1F
100
AcDbEntity
  8
SOLBET_Zbrojenie_Konstrukcja
100
AcDbLine
 10
103.8414598165213
 20
125.4116953489684
 30
0.0
 11
107.308126483188
 21
118.9116953489683
 31
0.0
  0
LINE
  5
39B2
330
1F
100
AcDbEntity
  8
SOLBET_Zbrojenie_Konstrukcja
  6
Continuous
100
AcDbLine
 10
138.8403812924266
 20
125.4116953489686
 30
0.0
 11
74.34145981652136
 21
125.4116953489682
 31
0.0
  0
LINE
  5
39B3
330
1F
100
AcDbEntity
  8
SOLBET_Zbrojenie_Konstrukcja
100
AcDbLine
 10
127.8414598165211
 20
125.4116953489684
 30
0.0
 11
131.308126483188
 21
118.9116953489683
 31
0.0
  0
LINE
  5
39B4
330
1F
100
AcDbEntity
  8
SOLBET_Zbrojenie_Konstrukcja
100
AcDbLine
 10
119.8414598165211
 20
125.4116953489684
 30
0.0
 11
123.308126483188
 21
118.9116953489683
 31
0.0
  0
LINE
  5
39B5
330
1F
100
AcDbEntity
  8
SOLBET_Zbrojenie_Konstrukcja
100
AcDbLine
 10
111.8414598165213
 20
125.4116953489684
 30
0.0
 11
115.308126483188
 21
118.9116953489683
 31
0.0
  0
LWPOLYLINE
  5
39B8
330
1F
100
AcDbEntity
  8
SOLBET_Beton
100
AcDbPolyline
 90
        5
 70
     1
 43
0.0
 10
74.34145981652136
 20
116.9116953489683
 10
78.34145981652136
 20
116.9116953489683
 10
138.8403812924266
 20
116.9116953489683
 10
138.8403812924266
 20
118.9116953489683
 10
74.34145981652136
 20
118.9116953489683
1001
ASO_SCHRAFF
1005
0
1070
     1
1002
{
1070
     1
1005
0
1002
}
1002
{
1070
     2
1005
0
1002
}
1002
{
1070
     4
1000
NET
1040
0.1
1040
45.0
1070
     0
1000
T__SCHR
1070
   256
1000
VONLAYER
1040
50.0
1070
     1
1002
}
  0
INSERT
  5
39B9
330
1F
100
AcDbEntity
  8
SOLBET_Beton
100
AcDbBlockReference
  2
*X3
 10
-495.3594560644352
 20
-339.1096457054588
 30
0.0
 41
50.0
 42
50.0
 43
50.0
1001
ASO_SCHRAFF
1005
0
1070
     0
1005
0
1001
ACAD
1000
HATCH
1002
{
1070
    16
1000
NET
1040
0.25
1040
0.7853981633974483
1002
}
  0
LINE
  5
39EA
330
1F
100
AcDbEntity
  8
SOLBET_Wymiary_Opisy
100
AcDbLine
 10
58.96291990712871
 20
122.4704594043381
 30
0.0
 11
50.59316006296604
 21
126.61754229002
 31
0.0
1001
ACAD
1000
DSTYLE
1002
{
1070
   147
1040
0.625
1070
    77
1070
     1
1002
}
  0
LINE
  5
39EB
330
1F
100
AcDbEntity
  8
SOLBET_Wymiary_Opisy
100
AcDbLine
 10
50.59316006296604
 20
126.61754229002
 30
0.0
 11
18.64424452621642
 21
126.61754229002
 31
0.0
1001
ACAD
1000
DSTYLE
1002
{
1070
   147
1040
0.625
1070
    77
1070
     1
1002
}
  0
MTEXT
  5
39EC
102
{ACAD_XDICTIONARY
360
3C80
102
}
330
1F
100
AcDbEntity
  8
SOLBET_Wymiary_Opisy
100
AcDbMText
 10
41.8980574062989
 20
129.9641516624022
 30
0.0
 40
2.5
 41
0.0
 71
     3
 72
     1
  1
P\U+0142ytka SOLBET
  7
Solbet_2_5
 73
     1
 44
1.0
1001
ACAD
1000
MTEXTBEGIN
1070
    73
1070
     1
1070
    44
1040
1.0
1070
    74
1070
     0
1000
MTEXTEND
  0
INSERT
  5
39ED
330
1F
100
AcDbEntity
  8
SOLBET_Wymiary_Opisy
100
AcDbBlockReference
  2
_DotSmall
 10
58.96291990712871
 20
122.4704594043381
 30
0.0
 41
2.499999999999954
 42
2.5
 43
2.5
 50
144.3732643216738
1001
ACAD
1000
DSTYLE
1002
{
1070
   147
1040
0.625
1070
    77
1070
     1
1002
}
  0
LINE
  5
39F5
330
1F
100
AcDbEntity
  8
SOLBET_Wymiary_Opisy
100
AcDbLine
 10
69.53533668124896
 20
129.3450024677332
 30
0.0
 11
50.59316006296604
 21
138.0294232892516
 31
0.0
1001
ACAD
1000
DSTYLE
1002
{
1070
   147
1040
0.625
1070
    77
1070
     1
1002
}
  0
LINE
  5
39F6
330
1F
100
AcDbEntity
  8
SOLBET_Wymiary_Opisy
100
AcDbLine
 10
50.59316006296604
 20
138.0294232892516
 30
0.0
 11
17.84905745631704
 21
138.0294232892516
 31
0.0
1001
ACAD
1000
DSTYLE
1002
{
1070
   147
1040
0.625
1070
    77
1070
     1
1002
}
  0
MTEXT
  5
39F7
330
1F
100
AcDbEntity
  8
SOLBET_Wymiary_Opisy
100
AcDbMText
 10
45.09905745631704
 20
141.2794232892516
 30
0.0
 40
2.5
 41
0.0
 71
     3
 72
     1
  1
Zbrojenie MURFOR
  7
Solbet_2_5
 73
     1
 44
1.0
1001
ACAD
1000
MTEXTBEGIN
1070
    73
1070
     1
1070
    44
1040
1.0
1070
    74
1070
     0
1000
MTEXTEND
  0
INSERT
  5
39F8
330
1F
100
AcDbEntity
  8
SOLBET_Wymiary_Opisy
100
AcDbBlockReference
  2
_DotSmall
 10
69.53533668124896
 20
129.3450024677332
 30
0.0
 41
2.499999999999954
 42
2.5
 43
2.5
 50
144.3732643216738
1001
ACAD
1000
DSTYLE
1002
{
1070
   147
1040
0.625
1070
    77
1070
     1
1002
}
  0
LINE
  5
39F9
330
1F
100
AcDbEntity
  8
SOLBET_Wymiary_Opisy
100
AcDbLine
 10
61.83063641462741
 20
126.8312572127213
 30
0.0
 11
50.59316006296604
 21
132.6456597349955
 31
0.0
1001
ACAD
1000
DSTYLE
1002
{
1070
   147
1040
0.625
1070
    77
1070
     1
1002
}
  0
LINE
  5
39FA
330
1F
100
AcDbEntity
  8
SOLBET_Wymiary_Opisy
100
AcDbLine
 10
50.59316006296604
 20
132.6456597349955
 30
0.0
 11
18.29215089250283
 21
132.6456597349955
 31
0.0
1001
ACAD
1000
DSTYLE
1002
{
1070
   147
1040
0.625
1070
    77
1070
     1
1002
}
  0
MTEXT
  5
39FB
330
1F
100
AcDbEntity
  8
SOLBET_Wymiary_Opisy
100
AcDbMText
 10
49.29215089250283
 20
135.8956597349955
 30
0.0
 40
2.5
 41
0.0
 71
     3
 72
     1
  1
Warstwa docieplenia
  7
Solbet_2_5
 73
     1
 44
1.0
1001
ACAD
1000
MTEXTBEGIN
1070
    73
1070
     1
1070
    44
1040
1.0
1070
    74
1070
     0
1000
MTEXTEND
  0
INSERT
  5
39FC
330
1F
100
AcDbEntity
  8
SOLBET_Wymiary_Opisy
100
AcDbBlockReference
  2
_DotSmall
 10
61.83063641462741
 20
126.8312572127213
 30
0.0
 41
2.499999999999954
 42
2.5
 43
2.5
 50
144.3732643216738
1001
ACAD
1000
DSTYLE
1002
{
1070
   147
1040
0.625
1070
    77
1070
     1
1002
}
  0
INSERT
  5
39FE
330
1F
100
AcDbEntity
  8
SOLBET_Wymiary_Opisy
100
AcDbBlockReference
  2
_DotSmall
 10
69.97997469781967
 20
120.7957502665633
 30
0.0
 41
2.499999999999954
 42
2.5
 43
2.5
 50
144.3732643216738
1001
ACAD
1000
DSTYLE
1002
{
1070
   147
1040
0.625
1070
    77
1070
     1
1002
}
  0
LWPOLYLINE
  5
39FF
330
1F
100
AcDbEntity
  8
SOLBET_Wymiary_Opisy
100
AcDbPolyline
 90
        3
 70
     0
 43
0.0
 10
69.97997469781967
 20
120.7957502665633
 10
85.54962672697683
 20
103.7109398490199
 10
113.5774103416834
 20
103.7109398490199
1001
ACAD
1000
DSTYLE
1002
{
1070
   147
1040
0.625
1070
    77
1070
     1
1002
}
  0
MTEXT
  5
3A00
102
{ACAD_XDICTIONARY
360
3C82
102
}
330
1F
100
AcDbEntity
  8
SOLBET_Wymiary_Opisy
100
AcDbMText
 10
86.3645625416666
 20
106.9740166875058
 30
0.0
 40
2.5
 41
45.61266565198366
 71
     1
 72
     1
  1
Wieniec \U+017Celbetowy
  7
Solbet_2_5
 73
     1
 44
1.0
1001
ACAD
1000
MTEXTBEGIN
1070
    73
1070
     1
1070
    44
1040
1.0
1070
    74
1070
     0
1000
MTEXTEND
  0
MTEXT
  5
3A01
102
{ACAD_XDICTIONARY
360
3A02
102
}
330
1F
100
AcDbEntity
  8
SOLBET_Wymiary_Opisy @ 1
100
AcDbMText
 10
10.36686329877307
 20
290.7299988460193
 30
0.0
 40
5.0
 41
124.2624847080697
 71
     1
 72
     5
  1
{\LDETAL 94\P}Po\U+0142\U+0105czenie stropodachu ze scian\U+0105
  7
Solbet_5
 73
     1
 44
1.0
1001
AcadAnnotative
1000
AnnotativeData
1002
{
1070
     1
1070
     0
1002
}
1001
ACAD
1000
MTEXTBEGIN
1070
    73
1070
     1
1070
    44
1040
1.0
1070
    74
1070
     0
1000
MTEXTEND
  0
LWPOLYLINE
  5
3A06
330
1F
100
AcDbEntity
  8
SOLBET_Ramka_05
100
AcDbPolyline
 90
        4
 70
     1
 43
0.0
 10
0.0
 20
0.0
 10
210.0
 20
0.0
 10
210.0
 20
297.0
 10
0.0
 20
297.0
  0
MTEXT
  5
3A1C
102
{ACAD_XDICTIONARY
360
3C85
102
}
330
1F
100
AcDbEntity
  8
SOLBET_Wymiary_Opisy
100
AcDbMText
 10
145.0886433697351
 20
158.4626220883383
 30
0.0
 40
2.5
 41
0.0
 71
     1
 72
     1
  1
\U+017Bwir
  7
Solbet_2_5
 73
     1
 44
1.0
1001
ACAD
1000
MTEXTBEGIN
1070
    73
1070
     1
1070
    44
1040
1.0
1070
    74
1070
     0
1000
MTEXTEND
  0
MTEXT
  5
3A20
330
1F
100
AcDbEntity
  8
SOLBET_Wymiary_Opisy
100
AcDbMText
 10
145.430608878778
 20
147.4920045947293
 30
0.0
 40
2.5
 41
0.0
 71
     1
 72
     1
  1
Izolacja termiczna
  7
Solbet_2_5
 73
     1
 44
1.0
1001
ACAD
1000
MTEXTBEGIN
1070
    73
1070
     1
1070
    44
1040
1.0
1070
    74
1070
     0
1000
MTEXTEND
  0
MTEXT
  5
3A24
330
1F
100
AcDbEntity
  8
SOLBET_Wymiary_Opisy
100
AcDbMText
 10
145.1927700700189
 20
127.3435773637031
 30
0.0
 40
2.5
 41
0.0
 71
     1
 72
     1
  1
Wylewka ze spadkiem
  7
Solbet_2_5
 73
     1
 44
1.0
1001
ACAD
1000
MTEXTBEGIN
1070
    73
1070
     1
1070
    44
1040
1.0
1070
    74
1070
     0
1000
MTEXTEND
  0
MTEXT
  5
3A26
330
1F
100
AcDbEntity
  8
SOLBET_Wymiary_Opisy
100
AcDbMText
 10
145.4346042570177
 20
118.9682109884256
 30
0.0
 40
2.5
 41
0.0
 71
     1
 72
     1
  1
Strop
  7
Solbet_2_5
 73
     1
 44
1.0
1001
ACAD
1000
MTEXTBEGIN
1070
    73
1070
     1
1070
    44
1040
1.0
1070
    74
1070
     0
1000
MTEXTEND
  0
TEXT
  5
3A27
330
1F
100
AcDbEntity
  8
SOLBET_Wymiary_Opisy
100
AcDbText
 10
145.1858840828949
 20
150.5031147338098
 30
0.0
 40
2.5
  1
Geowłoknina
  7
Solbet_2_5
100
AcDbText
  0
INSERT
  5
3A28
330
1F
100
AcDbEntity
  8
SOLBET_Wymiary_Opisy
100
AcDbBlockReference
  2
_DotSmall
 10
133.5922768923174
 20
147.0231949368943
 30
0.0
 41
2.500000000000002
 42
2.5
 43
2.5
 50
202.8375573263258
1001
ACAD
1000
DSTYLE
1002
{
1070
   147
1040
0.625
1070
    77
1070
     1
1002
}
  0
LINE
  5
3A2A
330
1F
100
AcDbEntity
  8
SOLBET_Wymiary_Opisy
100
AcDbLine
 10
133.5922768923174
 20
147.0231949368943
 30
0.0
 11
145.1524030933783
 21
154.6402286452272
 31
0.0
1001
ACAD
1000
DSTYLE
1002
{
1070
   147
1040
0.625
1070
    77
1070
     1
1002
}
  0
INSERT
  5
3A2C
330
1F
100
AcDbEntity
  8
SOLBET_Wymiary_Opisy
100
AcDbBlockReference
  2
_DotSmall
 10
135.6533580629466
 20
144.4757720061899
 30
0.0
 41
2.499999999999965
 42
2.5
 43
2.5
 50
198.3775351073152
1001
ACAD
1000
DSTYLE
1002
{
1070
   147
1040
0.625
1070
    77
1070
     1
1002
}
  0
INSERT
  5
3A2E
330
1F
100
AcDbEntity
  8
SOLBET_Wymiary_Opisy
100
AcDbBlockReference
  2
_DotSmall
 10
135.1968659646004
 20
139.2291816092057
 30
0.0
 41
2.499999999999952
 42
2.5
 43
2.5
 50
215.2549327028232
1001
ACAD
1000
DSTYLE
1002
{
1070
   147
1040
0.625
1070
    77
1070
     1
1002
}
  0
LINE
  5
3A35
330
1F
100
AcDbEntity
  8
SOLBET_Wymiary_Opisy
100
AcDbLine
 10
145.1524030933781
 20
154.6402286452272
 30
0.0
 11
150.8855861554575
 21
154.6402286452272
 31
0.0
  0
INSERT
  5
3A36
330
1F
100
AcDbEntity
  8
SOLBET_Wymiary_Opisy
100
AcDbBlockReference
  2
_DotSmall
 10
135.7339256880363
 20
119.9132038048835
 30
0.0
 41
2.499999999999976
 42
2.5
 43
2.5
 50
165.3708528794786
1001
ACAD
1000
DSTYLE
1002
{
1070
   147
1040
0.625
1070
    77
1070
     1
1002
}
  0
LWPOLYLINE
  5
3A37
330
1F
100
AcDbEntity
  8
SOLBET_Wymiary_Opisy
100
AcDbPolyline
 90
        3
 70
     0
 43
0.0
 10
135.7339256880363
 20
119.9132038048835
 10
145.1796073821983
 20
115.8358404858526
 10
153.5944884938208
 20
115.8358404858526
1001
ACAD
1000
DSTYLE
1002
{
1070
   147
1040
0.625
1070
    77
1070
     1
1002
}
  0
INSERT
  5
3A38
330
1F
100
AcDbEntity
  8
SOLBET_Wymiary_Opisy
100
AcDbBlockReference
  2
_DotSmall
 10
133.9768236096245
 20
128.9116953646271
 30
0.0
 41
2.499999999999945
 42
2.5
 43
2.5
 50
158.7230158850772
1001
ACAD
1000
DSTYLE
1002
{
1070
   147
1040
0.625
1070
    77
1070
     1
1002
}
  0
LWPOLYLINE
  5
3A39
330
1F
100
AcDbEntity
  8
SOLBET_Wymiary_Opisy
100
AcDbPolyline
 90
        3
 70
     0
 43
0.0
 10
133.9768236096245
 20
128.9116953646271
 10
145.2123897933115
 20
123.5352610210392
 10
179.6054198130368
 20
123.5352610210392
1001
ACAD
1000
DSTYLE
1002
{
1070
   147
1040
0.625
1070
    77
1070
     1
1002
}
  0
LINE
  5
3A3E
330
1F
100
AcDbEntity
  8
SOLBET_Wymiary_Opisy
100
AcDbLine
 10
135.1968659646004
 20
139.2291816092057
 30
0.0
 11
145.1228964722245
 21
144.3567158927153
 31
0.0
1001
ACAD
1000
DSTYLE
1002
{
1070
   147
1040
0.625
1070
    77
1070
     1
1002
}
  0
TEXT
  5
3A47
330
1F
100
AcDbEntity
  8
SOLBET_Wymiary_Opisy
100
AcDbText
 10
145.4289858657944
 20
137.6544413534266
 30
0.0
 40
2.5
  1
Hydroizolacja
  7
Solbet_2_5
100
AcDbText
  0
INSERT
  5
3A48
330
1F
100
AcDbEntity
  8
SOLBET_Wymiary_Opisy
100
AcDbBlockReference
  2
_DotSmall
 10
135.4217801974764
 20
134.0308672241653
 30
0.0
 41
2.500000000000007
 42
2.5
 43
2.5
 50
201.0265120628613
1001
ACAD
1000
DSTYLE
1002
{
1070
   147
1040
0.625
1070
    77
1070
     1
1002
}
  0
LWPOLYLINE
  5
3A49
330
1F
100
AcDbEntity
  8
SOLBET_Wymiary_Opisy
100
AcDbPolyline
 90
        3
 70
     0
 43
0.0
 10
135.4217801974764
 20
134.0308672241653
 10
142.6825312567212
 20
136.8218638825915
 10
165.0288793363006
 20
136.8218638825915
1001
ACAD
1000
DSTYLE
1002
{
1070
   147
1040
0.625
1070
    77
1070
     1
1002
}
  0
LINE
  5
3A4A
330
1F
100
AcDbEntity
  8
SOLBET_Wymiary_Opisy
100
AcDbLine
 10
135.6533580629466
 20
144.496180752165
 30
0.0
 11
145.2526061991679
 21
150.1979545805268
 31
0.0
1001
ACAD
1000
DSTYLE
1002
{
1070
   147
1040
0.625
1070
    77
1070
     1
1002
}
  0
LINE
  5
3A4D
330
1F
100
AcDbEntity
  8
SOLBET_Wymiary_Opisy
100
AcDbLine
 10
145.1524030933783
 20
150.1422416280014
 30
0.0
 11
163.6188942479521
 21
150.1422416280014
 31
0.0
  0
LINE
  5
3A4E
330
1F
100
AcDbEntity
  8
SOLBET_Wymiary_Opisy
100
AcDbLine
 10
145.1228964722245
 20
144.3567158927153
 30
0.0
 11
172.1274251346231
 21
144.3567158927153
 31
0.0
  0
LINE
  5
3A5F
330
1F
100
AcDbEntity
  8
SOLBET_Izolacja
100
AcDbLine
 10
63.34145981652136
 20
116.9116955531168
 30
0.0
 11
60.34145981652137
 21
116.9116955531168
 31
0.0
  0
LINE
  5
3A60
330
1F
100
AcDbEntity
  8
SOLBET_Izolacja
100
AcDbLine
 10
60.34145981652137
 20
116.9116955531168
 30
0.0
 11
60.34145981652137
 21
128.9116953489683
 31
0.0
  0
LINE
  5
3A61
330
1F
100
AcDbEntity
  8
SOLBET_Izolacja
100
AcDbLine
 10
60.34145981652137
 20
128.9116953489683
 30
0.0
 11
63.34145981652136
 21
128.9116953489683
 31
0.0
  0
LINE
  5
3A62
330
1F
100
AcDbEntity
  8
SOLBET_Izolacja
  6
BATTING
 48
0.145
100
AcDbLine
 10
61.84145981652136
 20
128.812574185029
 30
0.0
 11
61.84145981652136
 21
117.0254068633044
 31
0.0
  0
LINE
  5
3A6D
330
1F
100
AcDbEntity
  8
SOLBET_Wymiary_Opisy
100
AcDbLine
 10
50.59316006296604
 20
164.454173742188
 30
0.0
 11
20.4217018051445
 21
164.454173742188
 31
0.0
1001
ACAD
1000
DSTYLE
1002
{
1070
   147
1040
0.625
1070
    77
1070
     1
1002
}
  0
MTEXT
  5
3A6E
102
{ACAD_XDICTIONARY
360
3C87
102
}
330
1F
100
AcDbEntity
  8
SOLBET_Wymiary_Opisy
100
AcDbMText
 10
50.29003425055361
 20
167.704173742188
 30
0.0
 40
2.5
 41
0.0
 71
     3
 72
     1
  1
Obr\U+00F3bka blacharska
  7
Solbet_2_5
 73
     1
 44
1.0
1001
ACAD
1000
MTEXTBEGIN
1070
    73
1070
     1
1070
    44
1040
1.0
1070
    74
1070
     0
1000
MTEXTEND
  0
LINE
  5
3A6F
330
1F
100
AcDbEntity
  8
SOLBET_Wymiary_Opisy
100
AcDbLine
 10
55.71530283051425
 20
161.2100323423635
 30
0.0
 11
50.59316006296604
 21
164.454173742188
 31
0.0
1001
ACAD
1000
DSTYLE
1002
{
1070
   147
1040
0.625
1070
    77
1070
     1
1002
}
  0
INSERT
  5
3A70
330
1F
100
AcDbEntity
  8
SOLBET_Wymiary_Opisy
100
AcDbBlockReference
  2
_DotSmall
 10
55.71530283051425
 20
161.2100323423635
 30
0.0
 41
2.499999999999954
 42
2.5
 43
2.5
 50
144.3732643216738
1001
ACAD
1000
DSTYLE
1002
{
1070
   147
1040
0.625
1070
    77
1070
     1
1002
}
  0
LINE
  5
3A9A
330
1F
100
AcDbEntity
  8
SOLBET_Beton
100
AcDbLine
 10
63.34145981652136
 20
128.9116953783909
 30
0.0
 11
63.34145981652136
 21
116.9116953636799
 31
0.0
  0
LINE
  5
3A9B
330
1F
100
AcDbEntity
  8
SOLBET_Beton
100
AcDbLine
 10
63.34145981652136
 20
116.9116953636799
 30
0.0
 11
74.34145981652136
 21
116.9116953636799
 31
0.0
  0
LINE
  5
3A9C
330
1F
100
AcDbEntity
  8
SOLBET_Beton
100
AcDbLine
 10
74.34145981652136
 20
116.9116953636799
 30
0.0
 11
74.34145981652136
 21
118.9116953636799
 31
0.0
  0
LINE
  5
3A9D
330
1F
100
AcDbEntity
  8
SOLBET_Beton
100
AcDbLine
 10
74.34145981652136
 20
118.9116953636799
 30
0.0
 11
138.8403812924184
 21
118.9116953636799
 31
0.0
  0
LINE
  5
3A9E
330
1F
100
AcDbEntity
  8
SOLBET_Beton
100
AcDbLine
 10
138.8403812924184
 20
118.9116953636799
 30
0.0
 11
138.8403813045838
 21
128.9116953636794
 31
0.0
  0
LINE
  5
3A9F
330
1F
100
AcDbEntity
  8
SOLBET_Tynki_Posadzki
100
AcDbLine
 10
138.8403813045838
 20
128.9116953636794
 30
0.0
 11
63.34145981652136
 21
128.9116953783909
 31
0.0
  0
LINE
  5
3AA7
330
1F
100
AcDbEntity
  8
SOLBET_Izolacja
100
AcDbLine
 10
138.8403812924184
 20
144.4544920991094
 30
0.0
 11
138.8403812924184
 21
146.9544920991094
 31
0.0
  0
LINE
  5
3AAA
330
1F
100
AcDbEntity
  8
SOLBET_Izolacja
100
AcDbLine
 10
78.594171813103
 20
145.108080615591
 30
0.0
 11
78.594171813103
 21
147.608080615591
 31
0.0
  0
LINE
  5
3AAB
330
1F
100
AcDbEntity
  8
SOLBET_Grunt
100
AcDbLine
 10
78.594171813103
 20
147.608080615591
 30
0.0
 11
138.8403812924184
 21
146.9544920991094
 31
0.0
  0
POINT
  5
3B26
330
1F
100
AcDbEntity
  8
SOLBET_Izolacja
100
AcDbPoint
 10
0.0
 20
0.0
 30
0.0
  0
HATCH
  5
3B2F
330
1F
100
AcDbEntity
  8
SOLBET_Zbrojenie_Konstrukcja
100
AcDbHatch
 10
0.0
 20
0.0
 30
0.0
210
0.0
220
0.0
230
1.0
  2
SOLID
 70
     1
 71
     1
 91
        2
 92
        1
 93
       16
 72
     2
 10
64.36139188473797
 20
129.6460857585628
 40
0.5982082954799637
 50
90.00000000015516
 51
97.50522173116454
 73
     0
 72
     2
 10
64.32612389890066
 20
129.3783873384412
 40
0.3281966754325309
 50
97.50522173112454
 51
107.6438423968035
 73
     0
 72
     2
 10
64.27293192344774
 20
129.2111490999415
 40
0.1527030440123165
 50
107.6438423941256
 51
127.5194829110673
 73
     0
 72
     2
 10
64.19410044710634
 20
129.1084862207741
 40
0.0232655362291845
 50
127.5194829216685
 51
180.0000000087492
 73
     0
 72
     2
 10
64.19410044710637
 20
129.1084862207807
 40
0.0232655362292178
 50
179.9999999924406
 51
232.4805170783186
 73
     0
 72
     2
 10
64.27293192344939
 20
129.0058233416129
 40
0.1527030440136581
 50
232.4805170885395
 51
252.3561576053851
 73
     0
 72
     2
 10
64.32612389890079
 20
128.8385851031135
 40
0.328196675433112
 50
252.3561576032052
 51
262.4947782688663
 73
     0
 72
     2
 10
64.36139188473814
 20
128.57088668299
 40
0.5982082954824085
 50
262.4947782688498
 51
269.9999999998285
 73
     0
 72
     2
 10
64.36139188474209
 20
128.5708866828829
 40
0.5982082955895294
 50
269.9999999994501
 51
277.5052217304767
 73
     0
 72
     2
 10
64.39665987057925
 20
128.8385851031959
 40
0.3281966753524482
 50
277.5052217342576
 51
287.6438423999278
 73
     0
 72
     2
 10
64.44985184602365
 20
129.0058233416135
 40
0.1527030440129565
 50
287.6438423945641
 51
307.5194829115019
 73
     0
 72
     2
 10
64.52868332237393
 20
129.1084862207661
 40
0.0232655362361583
 50
307.5194828849626
 51
359.9999999716525
 73
     0
 72
     2
 10
64.52868332237333
 20
129.108486220789
 40
0.023265536236778
 50
0.0000000279975323
 51
52.48051711431267
 73
     0
 72
     2
 10
64.44985184602463
 20
129.2111490999421
 40
0.1527030440130109
 50
52.48051708897831
 51
72.35615760582851
 73
     0
 72
     2
 10
64.39665987057932
 20
129.3783873383591
 40
0.3281966753521597
 50
72.35615760006656
 51
82.4947782657458
 73
     0
 72
     2
 10
64.361391884742
 20
129.6460857586737
 40
0.5982082955908929
 50
82.49477826953233
 51
90.00000000054171
 73
     0
 97
        1
330
3904
 92
        1
 93
       16
 72
     2
 10
74.52090263047441
 20
129.6460857585628
 40
0.5982082954799637
 50
270.0000000001552
 51
277.5052217311645
 73
     1
 72
     2
 10
74.55617061631899
 20
129.3783873385232
 40
0.328196675512903
 50
277.5052217279947
 51
287.6438423936738
 73
     1
 72
     2
 10
74.60936259177919
 20
129.2111490999415
 40
0.1527030440123165
 50
287.6438423941257
 51
307.5194829110673
 73
     1
 72
     2
 10
74.68819406812059
 20
129.1084862207741
 40
0.0232655362291845
 50
307.5194829216685
 51
360.0000000087492
 73
     1
 72
     2
 10
74.68819406812056
 20
129.1084862207807
 40
0.0232655362292178
 50
359.9999999924407
 51
412.4805170783186
 73
     1
 72
     2
 10
74.60936259177754
 20
129.0058233416129
 40
0.1527030440136581
 50
52.48051708853952
 51
72.35615760538507
 73
     1
 72
     2
 10
74.55617061631887
 20
128.8385851030315
 40
0.3281966755134839
 50
72.35615760633504
 51
82.49477827199605
 73
     1
 72
     2
 10
74.52090263047423
 20
128.57088668299
 40
0.5982082954824085
 50
82.49477826884984
 51
89.99999999982851
 73
     1
 72
     2
 10
74.52090263047757
 20
128.5708866829938
 40
0.5982082954785995
 50
90.00000000014701
 51
97.50522173117351
 73
     1
 72
     2
 10
74.48563464464768
 20
128.8385851031959
 40
0.3281966753524482
 50
97.50522173425759
 51
107.6438423999278
 73
     1
 72
     2
 10
74.43244266920328
 20
129.0058233416135
 40
0.1527030440129565
 50
107.6438423945641
 51
127.5194829115019
 73
     1
 72
     2
 10
74.353611192853
 20
129.1084862207661
 40
0.0232655362361583
 50
127.5194828849626
 51
179.9999999716525
 73
     1
 72
     2
 10
74.3536111928536
 20
129.108486220789
 40
0.023265536236778
 50
180.0000000279975
 51
232.4805171143127
 73
     1
 72
     2
 10
74.4324426692023
 20
129.2111490999421
 40
0.1527030440130109
 50
232.4805170889782
 51
252.3561576058285
 73
     1
 72
     2
 10
74.48563464464761
 20
129.3783873383591
 40
0.3281966753521597
 50
252.3561576000666
 51
262.4947782657458
 73
     1
 72
     2
 10
74.52090263047765
 20
129.6460857585628
 40
0.598208295479963
 50
262.4947782688355
 51
269.9999999998448
 73
     1
 97
        1
330
3906
 75
     0
 76
     1
 98
        1
 10
0.0
 20
0.0
1001
ACAD
1010
0.0
1020
0.0
1030
0.0
  0
LINE
  5
3B36
330
1F
100
AcDbEntity
  8
SOLBET_Zbrojenie_Konstrukcja
100
AcDbLine
 10
64.5519488586101
 20
129.108486220789
 30
0.0
 11
74.33034565661682
 21
129.108486220789
 31
0.0
  0
INSERT
  5
3BC1
330
1F
100
AcDbEntity
  8
SOLBET_Bloczki
100
AcDbBlockReference
  2
SOLBET_Bloczek_Ideal_420x240x590_P+W_KG400_PRA
 10
57.34145981652137
 20
80.9116953489679
 30
0.0
  0
INSERT
  5
3BC2
330
1F
100
AcDbEntity
  8
SOLBET_Bloczki
100
AcDbBlockReference
  2
SOLBET_Bloczek_Ideal_420x240x590_P+W_KG400_PRA
 10
57.34145995727067
 20
92.91169555311638
 30
0.0
  0
INSERT
  5
3BC3
330
1F
100
AcDbEntity
  8
SOLBET_Bloczki
100
AcDbBlockReference
  2
SOLBET_Bloczek_Ideal_420x240x590_P+W_KG400_PRA
 10
57.34146009801998
 20
104.9116957572648
 30
0.0
  0
INSERT
  5
3BC4
330
1F
100
AcDbEntity
  8
SOLBET_Bloczki
100
AcDbBlockReference
  2
SOLBET_Bloczek_Ideal_420x240x590_P+W_KG400_PRA
 10
57.34146009801998
 20
128.9116956448544
 30
0.0
  0
INSERT
  5
3BC5
330
1F
100
AcDbEntity
  8
SOLBET_Bloczki
100
AcDbBlockReference
  2
SOLBET_Bloczek_Ideal_420x240x590_P+W_KG400_PRA
 10
57.34146009801998
 20
140.9116958490028
 30
0.0
  0
INSERT
  5
3BC6
330
1F
100
AcDbEntity
  8
SOLBET_Bloczki
100
AcDbBlockReference
  2
SOLBET_Bloczek_Ideal_420x240x590_P+W_KG400_PRA
 10
57.34146023876928
 20
152.9116960531513
 30
0.0
  0
INSERT
  5
3BD5
330
1F
100
AcDbEntity
  8
SOLBET_Bloczki
100
AcDbBlockReference
  2
SOLBET_Plytka_60x240x590_KG600_PRA
 10
57.34146023876929
 20
116.9116959614133
 30
0.0
  0
MTEXT
  5
3C42
102
{ACAD_XDICTIONARY
360
3C43
102
}
330
1F
100
AcDbEntity
  8
SOLBET_Wymiary_Opisy
100
AcDbMText
 10
176.9024892334916
 20
7.273150535415538
 30
0.0
 40
5.0
 41
0.0
 71
     1
 72
     5
  1
Skala 1:20
  7
Solbet_5
 73
     1
 44
1.0
1001
ACAD
1000
MTEXTBEGIN
1070
    73
1070
     1
1070
    44
1040
1.0
1070
    74
1070
     0
1000
MTEXTEND
1000
ACAD_MTEXT_DEFINED_HEIGHT_BEGIN
1070
    46
1040
5.395147572682731
1000
ACAD_MTEXT_DEFINED_HEIGHT_END
  0
LWPOLYLINE
  5
3C45
330
1F
100
AcDbEntity
  8
SOLBET_Ramka_05
100
AcDbPolyline
 90
        4
 70
     1
 43
0.0
 10
173.8838231125778
 20
9.804221198935465
 10
210.0
 20
9.804221198935465
 10
210.0
 20
0.0
 10
173.8838231125779
 20
0.0
  0
ENDSEC
  0
SECTION
  2
OBJECTS
  0
DICTIONARY
  5
C
330
0
100
AcDbDictionary
281
     1
  3
ACAD_COLOR
350
6B
  3
ACAD_GROUP
350
D
  3
ACAD_LAYOUT
350
1A
  3
ACAD_MATERIAL
350
6A
  3
ACAD_MLEADERSTYLE
350
12D
  3
ACAD_MLINESTYLE
350
17
  3
ACAD_PLOTSETTINGS
350
19
  3
ACAD_PLOTSTYLENAME
350
E
  3
ACAD_SCALELIST
350
10C
  3
ACAD_TABLESTYLE
350
7E
  3
ACAD_VISUALSTYLE
350
EF
  3
ACDB_RECOMPOSE_DATA
350
15D
  3
AcDbVariableDictionary
350
5E
  3
DWGPROPS
350
3C73
  0
DICTIONARY
  5
443
330
8
100
AcDbDictionary
280
     1
281
     1
  0
DICTIONARY
  5
3E5
330
2
100
AcDbDictionary
280
     1
281
     1
  3
ACAD_LAYERFILTERS
360
1883
  3
ACLYDICTIONARY
360
1882
  0
DICTIONARY
  5
13C
330
10
100
AcDbDictionary
280
     1
281
     1
  3
ADSK_XREC_LAYER_RECONCILED
360
3F4
  0
DICTIONARY
  5
403
330
3DD
100
AcDbDictionary
280
     1
281
     1
  3
ADSK_XREC_LAYER_RECONCILED
360
404
  0
DICTIONARY
  5
405
330
3DF
100
AcDbDictionary
280
     1
281
     1
  3
ADSK_XREC_LAYER_RECONCILED
360
406
  0
DICTIONARY
  5
409
330
3E1
100
AcDbDictionary
280
     1
281
     1
  3
ADSK_XREC_LAYER_RECONCILED
360
40A
  0
DICTIONARY
  5
40B
330
3E2
100
AcDbDictionary
280
     1
281
     1
  3
ADSK_XREC_LAYER_RECONCILED
360
40C
  0
DICTIONARY
  5
40F
330
3E4
100
AcDbDictionary
280
     1
281
     1
  3
ADSK_XREC_LAYER_RECONCILED
360
410
  0
DICTIONARY
  5
411
330
3E8
100
AcDbDictionary
280
     1
281
     1
  3
ADSK_XREC_LAYER_RECONCILED
360
412
  0
DICTIONARY
  5
3B7E
330
3B7D
100
AcDbDictionary
280
     1
281
     1
  3
ASDK_XREC_ANNO_SCALE_INFO
360
3B7F
  0
DICTIONARY
  5
4A3
330
1F
100
AcDbDictionary
280
     1
281
     1
  3
ACAD_SORTENTS
360
4A4
  0
DICTIONARY
  5
39D1
330
39C5
100
AcDbDictionary
280
     1
281
     1
  3
ACAD_SORTENTS
360
39D2
  0
DICTIONARY
  5
3A89
330
3A7F
100
AcDbDictionary
280
     1
281
     1
  3
ACAD_SORTENTS
360
3A8A
  0
DICTIONARY
  5
3ADD
330
3AD1
100
AcDbDictionary
280
     1
281
     1
  3
ACAD_SORTENTS
360
3ADE
  0
DICTIONARY
  5
3BBD
330
3BB1
100
AcDbDictionary
280
     1
281
     1
  3
ACAD_SORTENTS
360
3BBE
  0
DICTIONARY
  5
3BD1
330
3BC7
100
AcDbDictionary
280
     1
281
     1
  3
ACAD_SORTENTS
360
3BD2
  0
DICTIONARY
  5
3C80
330
39EC
100
AcDbDictionary
280
     1
281
     1
  3
ACAD_MTEXT_RT
360
3C81
  0
DICTIONARY
  5
3C82
330
3A00
100
AcDbDictionary
280
     1
281
     1
  3
ACAD_MTEXT_RT
360
3C83
  0
DICTIONARY
  5
3A02
330
3A01
100
AcDbDictionary
280
     1
281
     1
  3
ACAD_MTEXT_RT
360
3C84
  3
AcDbContextDataManager
360
3A03
  0
DICTIONARY
  5
3C85
330
3A1C
100
AcDbDictionary
280
     1
281
     1
  3
ACAD_MTEXT_RT
360
3C86
  0
DICTIONARY
  5
3C87
330
3A6E
100
AcDbDictionary
280
     1
281
     1
  3
ACAD_MTEXT_RT
360
3C88
  0
DICTIONARY
  5
3C43
330
3C42
100
AcDbDictionary
280
     1
281
     1
  3
ACAD_MTEXT_2008_RT
360
3C44
  0
DICTIONARY
  5
6B
102
{ACAD_REACTORS
330
C
102
}
330
C
100
AcDbDictionary
281
     1
  0
DICTIONARY
  5
D
102
{ACAD_REACTORS
330
C
102
}
330
C
100
AcDbDictionary
281
     1
  0
DICTIONARY
  5
1A
102
{ACAD_REACTORS
330
C
102
}
330
C
100
AcDbDictionary
281
     1
  3
Arkusz1
350
D3
  3
Arkusz2
350
D7
  3
Model
350
22
  0
DICTIONARY
  5
6A
102
{ACAD_REACTORS
330
C
102
}
330
C
100
AcDbDictionary
281
     1
  3
ByBlock
350
ED
  3
ByLayer
350
EC
  3
Global
350
EE
  0
DICTIONARY
  5
12D
102
{ACAD_REACTORS
330
C
102
}
330
C
100
AcDbDictionary
281
     1
  3
Standard
350
12E
  0
DICTIONARY
  5
17
102
{ACAD_REACTORS
330
C
102
}
330
C
100
AcDbDictionary
281
     1
  3
SOLBET_IZOLACJA
350
7E9
  3
Standard
350
18
  0
DICTIONARY
  5
19
102
{ACAD_REACTORS
330
C
102
}
330
C
100
AcDbDictionary
281
     1
  0
ACDBDICTIONARYWDFLT
  5
E
102
{ACAD_REACTORS
330
C
102
}
330
C
100
AcDbDictionary
281
     1
  3
Normal
350
F
100
AcDbDictionaryWithDefault
340
F
  0
DICTIONARY
  5
10C
102
{ACAD_REACTORS
330
C
102
}
330
C
100
AcDbDictionary
281
     1
  3
A0
350
10D
  3
A1
350
188
  3
A2
350
189
  3
A3
350
18A
  3
A4
350
18B
  3
A5
350
18C
  3
A6
350
18D
  3
A7
350
18E
  3
A8
350
18F
  3
A9
350
190
  3
B0
350
191
  3
B1
350
192
  3
B2
350
193
  3
B3
350
194
  3
B4
350
195
  3
B5
350
196
  3
B6
350
197
  3
B7
350
198
  3
B8
350
199
  3
B9
350
19A
  3
C0
350
19B
  3
C1
350
19C
  3
C2
350
19D
  3
C3
350
19E
  3
C4
350
19F
  3
C5
350
1A0
  3
C6
350
1A1
  3
C7
350
1A2
  3
C8
350
1A3
  3
C9
350
1A4
  3
D0
350
1A5
  3
D1
350
1A6
  3
D2
350
1A7
  0
DICTIONARY
  5
7E
102
{ACAD_REACTORS
330
C
102
}
330
C
100
AcDbDictionary
281
     1
  3
Standard
350
7F
  0
DICTIONARY
  5
EF
102
{ACAD_REACTORS
330
C
102
}
330
C
100
AcDbDictionary
281
     1
  3
2dWireframe
350
F5
  3
3D Hidden
350
F7
  3
3dWireframe
350
F6
  3
Basic
350
F4
  3
Brighten
350
FB
  3
ColorChange
350
FF
  3
Conceptual
350
F8
  3
Dim
350
FA
  3
Facepattern
350
FE
  3
Flat
350
F0
  3
FlatWithEdges
350
F1
  3
Gouraud
350
F2
  3
GouraudWithEdges
350
F3
  3
Linepattern
350
FD
  3
Realistic
350
F9
  3
Thicken
350
FC
  0
XRECORD
  5
15D
102
{ACAD_REACTORS
330
C
102
}
330
C
100
AcDbXrecord
280
     1
 90
        1
330
7F
330
3A01
  0
DICTIONARY
  5
5E
102
{ACAD_REACTORS
330
C
102
}
330
C
100
AcDbDictionary
281
     1
  3
CANNOSCALE
350
146
  3
CMLEADERSTYLE
350
145
  3
CTABLESTYLE
350
84
  3
DIMASSOC
350
5F
  3
HIDETEXT
350
63
  3
INDEXCTL
350
466
  3
LIGHTINGUNITS
350
464
  3
MSLTSCALE
350
463
  3
PSOLHEIGHT
350
3C72
  3
PSOLWIDTH
350
3C71
  3
SORTENTS
350
465
  0
XRECORD
  5
3C73
102
{ACAD_REACTORS
330
C
102
}
330
C
100
AcDbXrecord
280
     1
  1
DWGPROPS COOKIE
  2

  3

  4

  6

  7

  8
Olus
  9

300
=
301
=
302
=
303
=
304
=
305
=
306
=
307
=
308
=
309
=
 40
0.7560819212962963
 41
2454690.075573148
 42
2454848.889658287
  1

 90
        0
  0
DICTIONARY
  5
1883
102
{ACAD_REACTORS
330
3E5
102
}
330
3E5
100
AcDbDictionary
281
     1
  0
DICTIONARY
  5
1882
102
{ACAD_REACTORS
330
3E5
102
}
330
3E5
100
AcDbDictionary
281
     1
1001
ACAD
1000
<All
  0
XRECORD
  5
3F4
102
{ACAD_REACTORS
330
13C
102
}
330
13C
100
AcDbXrecord
280
     1
290
     1
  0
XRECORD
  5
404
102
{ACAD_REACTORS
330
403
102
}
330
403
100
AcDbXrecord
280
     1
290
     1
  0
XRECORD
  5
406
102
{ACAD_REACTORS
330
405
102
}
330
405
100
AcDbXrecord
280
     1
290
     1
  0
XRECORD
  5
40A
102
{ACAD_REACTORS
330
409
102
}
330
409
100
AcDbXrecord
280
     1
290
     1
  0
XRECORD
  5
40C
102
{ACAD_REACTORS
330
40B
102
}
330
40B
100
AcDbXrecord
280
     1
290
     1
  0
XRECORD
  5
410
102
{ACAD_REACTORS
330
40F
102
}
330
40F
100
AcDbXrecord
280
     1
290
     1
  0
XRECORD
  5
412
102
{ACAD_REACTORS
330
411
102
}
330
411
100
AcDbXrecord
280
     1
290
     1
  0
XRECORD
  5
3B7F
102
{ACAD_REACTORS
330
3B7E
102
}
330
3B7E
100
AcDbXrecord
280
     1
 70
     1
340
10D
340
3DF
 70
    -1
  0
SORTENTSTABLE
  5
4A4
102
{ACAD_REACTORS
330
4A3
102
}
330
4A3
100
AcDbSortentsTable
330
1F
331
3914
  5
3935
331
3973
  5
39F7
331
39AE
  5
396C
331
3924
  5
394D
331
3A9B
  5
3943
331
3934
  5
398F
331
393C
  5
3997
331
398F
  5
3911
331
3AAB
  5
3AE1
331
3944
  5
39A2
331
3997
  5
391C
331
3905
  5
3906
331
399F
  5
392A
331
3A35
  5
3A6D
331
396C
  5
39AD
331
39A7
  5
3957
331
39F6
  5
39FE
331
3915
  5
3936
331
39AF
  5
396F
331
39FE
  5
3A21
331
3A9C
  5
3944
331
3925
  5
3950
331
3A06
  5
3A2B
331
3A4D
  5
3A6E
331
3984
  5
3918
331
3935
  5
3990
331
3988
  5
392B
331
393D
  5
3998
331
3990
  5
3931
331
3A26
  5
3A62
331
3A6D
  5
3A9C
331
3945
  5
39A3
331
3998
  5
392C
331
3A2E
  5
3A3B
331
3906
  5
390E
331
39A0
  5
3921
331
3A36
  5
3A60
331
390E
  5
3916
331
396D
  5
39D5
331
39F7
  5
39FF
331
39A8
  5
3958
331
3916
  5
3937
331
39B0
  5
3970
331
39FF
  5
3A23
331
3A9D
  5
3945
331
3926
  5
3951
331
39B8
  5
398A
331
3A4E
  5
3A6F
331
3936
  5
3991
331
393E
  5
3999
331
3991
  5
3932
331
3A27
  5
3A3A
331
3A6E
  5
3A9D
331
3946
  5
39A4
331
3999
  5
392D
331
39A1
  5
3923
331
3A37
  5
3A61
331
396E
  5
39D8
331
39A9
  5
395F
331
39F8
  5
3A00
331
3917
  5
3940
331
39B1
  5
3985
331
3A00
  5
3A25
331
3927
  5
3952
331
3A9E
  5
3946
331
39B9
  5
398B
331
3986
  5
3930
331
3A5F
  5
3A70
331
3937
  5
3992
331
398A
  5
3926
331
3A20
  5
3A3F
331
393F
  5
399A
331
3992
  5
3933
331
3A28
  5
3A35
331
3A6F
  5
3A9E
331
3947
  5
39A5
331
399A
  5
392E
331
39A2
  5
3924
331
3A38
  5
3A4D
331
396F
  5
39DB
331
39AA
  5
3968
331
39F9
  5
3A01
331
3A48
  5
3A41
331
3B26
  5
3B2F
331
39B2
  5
3986
331
3A01
  5
3A29
331
3920
  5
3948
331
3A9F
  5
3947
331
3928
  5
3953
331
3A60
  5
3A8D
331
3AA7
  5
3AAA
331
3938
  5
3993
331
3A70
  5
3A9F
331
3993
  5
3934
331
3940
  5
399B
331
399B
  5
392F
331
39EA
  5
39F8
331
39A3
  5
3925
331
3A39
  5
3A4E
331
3968
  5
39A9
331
39AB
  5
3969
331
39FA
  5
3A06
331
3970
  5
39DE
331
39B3
  5
3987
331
3A49
  5
3A46
331
3B2F
  5
3904
331
3929
  5
3954
331
3A61
  5
3A9A
331
3931
  5
398C
331
398C
  5
391E
331
3939
  5
3994
331
3994
  5
3919
331
3A2A
  5
3A36
331
3941
  5
399D
331
399C
  5
3927
331
39EB
  5
39F9
331
3949
  5
39A6
331
39A4
  5
3955
331
3969
  5
39AA
331
3971
  5
39E1
331
39AC
  5
396A
331
39FB
  5
3A1C
331
3922
  5
3949
331
39B4
  5
3988
331
3A4A
  5
3A39
331
3932
  5
398D
331
3A62
  5
3A9B
331
393A
  5
3995
331
3942
  5
399E
331
3995
  5
391A
331
3903
  5
3903
331
394A
  5
39A7
331
399D
  5
3928
331
39EC
  5
39FA
331
396A
  5
39AB
331
39A5
  5
3956
331
3972
  5
39E4
331
39AD
  5
396B
331
39FC
  5
3A1F
331
3923
  5
394C
331
3A9A
  5
3942
331
39B5
  5
3989
331
3A1C
  5
3A37
331
3933
  5
398E
331
393B
  5
3996
331
398E
  5
3910
331
3A24
  5
3A5F
331
3AAA
  5
3AAB
331
3943
  5
399F
331
3996
  5
391B
331
3A2C
  5
3A38
331
3904
  5
3905
331
394B
  5
39A8
331
399E
  5
3929
331
39ED
  5
39FB
331
396B
  5
39AC
331
39F5
  5
39FC
  0
SORTENTSTABLE
  5
39D2
102
{ACAD_REACTORS
330
39D1
102
}
330
39D1
100
AcDbSortentsTable
330
39C5
  0
SORTENTSTABLE
  5
3A8A
102
{ACAD_REACTORS
330
3A89
102
}
330
3A89
100
AcDbSortentsTable
330
3A7F
  0
SORTENTSTABLE
  5
3ADE
102
{ACAD_REACTORS
330
3ADD
102
}
330
3ADD
100
AcDbSortentsTable
330
3AD1
  0
SORTENTSTABLE
  5
3BBE
102
{ACAD_REACTORS
330
3BBD
102
}
330
3BBD
100
AcDbSortentsTable
330
3BB1
  0
SORTENTSTABLE
  5
3BD2
102
{ACAD_REACTORS
330
3BD1
102
}
330
3BD1
100
AcDbSortentsTable
330
3BC7
  0
XRECORD
  5
3C81
102
{ACAD_REACTORS
330
3C80
102
}
330
3C80
100
AcDbXrecord
280
     1
 40
14518.0
  1
Płytka SOLBET
  0
XRECORD
  5
3C83
102
{ACAD_REACTORS
330
3C82
102
}
330
3C82
100
AcDbXrecord
280
     1
 40
25446.0
  1
Wieniec żelbetowy
  0
XRECORD
  5
3C84
102
{ACAD_REACTORS
330
3A02
102
}
330
3A02
100
AcDbXrecord
280
     1
 40
172874.0
  1
{\LDETAL 94\P}Połączenie stropodachu ze scianą
  0
DICTIONARY
  5
3A03
102
{ACAD_REACTORS
330
3A02
102
}
330
3A02
100
AcDbDictionary
281
     1
  3
ACDB_ANNOTATIONSCALES
350
3A04
  0
XRECORD
  5
3C86
102
{ACAD_REACTORS
330
3C85
102
}
330
3C85
100
AcDbXrecord
280
     1
 40
4657.0
  1
Żwir
  0
XRECORD
  5
3C88
102
{ACAD_REACTORS
330
3C87
102
}
330
3C87
100
AcDbXrecord
280
     1
 40
27857.0
  1
Obróbka blacharska
  0
XRECORD
  5
3C44
102
{ACAD_REACTORS
330
3C43
102
}
330
3C43
100
AcDbXrecord
280
     1
 40
24748.0
  1
\pxqc;C\P(5 : 1)
  0
LAYOUT
  5
D3
102
{ACAD_XDICTIONARY
360
3C77
102
}
102
{ACAD_REACTORS
330
1A
102
}
330
1A
100
AcDbPlotSettings
  1

  2
C:\Documents and Settings\basas\Application Data\Autodesk\AutoCAD 2005\R16.1\enu\plotters\Default Windows System Printer.pc3
  4

  6

 40
0.0
 41
0.0
 42
0.0
 43
0.0
 44
0.0
 45
0.0
 46
0.0
 47
0.0
 48
0.0
 49
0.0
140
0.0
141
0.0
142
1.0
143
1.0
 70
   688
 72
     0
 73
     0
 74
     5
  7

 75
    16
147
1.0
148
0.0
149
0.0
100
AcDbLayout
  1
Arkusz1
 70
     1
 71
     1
 10
0.0
 20
0.0
 11
12.0
 21
9.0
 12
0.0
 22
0.0
 32
0.0
 14
0.0
 24
0.0
 34
0.0
 15
0.0
 25
0.0
 35
0.0
146
0.0
 13
0.0
 23
0.0
 33
0.0
 16
1.0
 26
0.0
 36
0.0
 17
0.0
 27
1.0
 37
0.0
 76
     0
330
D2
  0
LAYOUT
  5
D7
102
{ACAD_XDICTIONARY
360
3C79
102
}
102
{ACAD_REACTORS
330
1A
102
}
330
1A
100
AcDbPlotSettings
  1

  2
C:\Documents and Settings\basas\Application Data\Autodesk\AutoCAD 2005\R16.1\enu\plotters\Default Windows System Printer.pc3
  4

  6

 40
0.0
 41
0.0
 42
0.0
 43
0.0
 44
0.0
 45
0.0
 46
0.0
 47
0.0
 48
0.0
 49
0.0
140
0.0
141
0.0
142
1.0
143
1.0
 70
   688
 72
     0
 73
     0
 74
     5
  7

 75
    16
147
1.0
148
0.0
149
0.0
100
AcDbLayout
  1
Arkusz2
 70
     1
 71
     2
 10
0.0
 20
0.0
 11
12.0
 21
9.0
 12
0.0
 22
0.0
 32
0.0
 14
0.0
 24
0.0
 34
0.0
 15
0.0
 25
0.0
 35
0.0
146
0.0
 13
0.0
 23
0.0
 33
0.0
 16
1.0
 26
0.0
 36
0.0
 17
0.0
 27
1.0
 37
0.0
 76
     0
330
D6
  0
LAYOUT
  5
22
102
{ACAD_XDICTIONARY
360
3C74
102
}
102
{ACAD_REACTORS
330
1A
102
}
330
1A
100
AcDbPlotSettings
  1

  2
none_device
  4
Letter_(8.50_x_11.00_Inches)
  6

 40
6.349999904632568
 41
6.349999904632568
 42
6.350006103515625
 43
6.350006103515625
 44
215.8999938964844
 45
279.3999938964844
 46
11.54999923706054
 47
-13.65000009536743
 48
0.0
 49
0.0
140
210.0
141
297.0
142
1.0
143
1.0
 70
 11936
 72
     1
 73
     0
 74
     4
  7

 75
     0
147
0.9999999999999998
148
0.0
149
0.0
100
AcDbLayout
  1
Model
 70
     1
 71
     0
 10
0.0
 20
0.0
 11
12.0
 21
9.0
 12
0.0
 22
0.0
 32
0.0
 14
0.0
 24
0.0
 34
0.0
 15
0.0
 25
0.0
 35
0.0
146
0.0
 13
0.0
 23
0.0
 33
0.0
 16
1.0
 26
0.0
 36
0.0
 17
0.0
 27
1.0
 37
0.0
 76
     0
330
1F
331
EA
1001
ACAD_PSEXT
1000
Brak
1000
Brak
1000
Nie można zastosować.
1000
Arkusz nie zostanie wydrukowany dopóki nie wybrano konfiguracji plotera.
1070
     0
  0
MATERIAL
  5
ED
102
{ACAD_XDICTIONARY
360
3C7D
102
}
102
{ACAD_REACTORS
330
6A
102
}
330
6A
100
AcDbMaterial
  1
ByBlock
 73
     2
 78
     2
172
     2
176
     2
270
     2
274
     2
  0
MATERIAL
  5
EC
102
{ACAD_XDICTIONARY
360
3C7B
102
}
102
{ACAD_REACTORS
330
6A
102
}
330
6A
100
AcDbMaterial
  1
ByLayer
 73
     2
 78
     2
172
     2
176
     2
270
     2
274
     2
  0
MATERIAL
  5
EE
102
{ACAD_XDICTIONARY
360
173
102
}
102
{ACAD_REACTORS
330
6A
102
}
330
6A
100
AcDbMaterial
  1
Global
 73
     2
 43
0.0007999999797903
 43
0.0
 43
0.0
 43
0.0
 43
0.0
 43
0.0007999999797903
 43
0.0
 43
0.0
 43
0.0
 43
0.0
 43
1.0
 43
0.0
 43
0.0
 43
0.0
 43
0.0
 43
1.0
 78
     2
172
     2
 49
0.0007999999797903
 49
0.0
 49
0.0
 49
0.0
 49
0.0
 49
0.0007999999797903
 49
0.0
 49
0.0
 49
0.0
 49
0.0
 49
1.0
 49
0.0
 49
0.0
 49
0.0
 49
0.0
 49
1.0
176
     2
142
0.0007999999797903
142
0.0
142
0.0
142
0.0
142
0.0
142
0.0007999999797903
142
0.0
142
0.0
142
0.0
142
0.0
142
1.0
142
0.0
142
0.0
142
0.0
142
0.0
142
1.0
270
     2
144
0.0007999999797903
144
0.0
144
0.0
144
0.0
144
0.0
144
0.0007999999797903
144
0.0
144
0.0
144
0.0
144
0.0
144
1.0
144
0.0
144
0.0
144
0.0
144
0.0
144
1.0
274
     2
1001
ACAD
1070
    -1
1070
     3
1070
     0
1000

1071
        0
1070
     0
  0
ACAD_PROXY_OBJECT
  5
12E
102
{ACAD_REACTORS
330
12D
102
}
330
12D
100
AcDbProxyObject
 90
      499
 91
      508
 95
       23
 70
     0
 93
      618
310
40901902A4063FBFFFFFE0000000000000020400000000000020404254DD185B99185C99000000000000000104090140501A0000000000000410000000000000004102576400000000000003903F
340
14
340
0
340
11
340
0
 94
        0
1001
ACAD_MLEADERVER
1070
     2
1001
ACAD
1000
AcRTDxfName
1000
MLEADERSTYLE
1000
AcRTDxfName
1000
MLEADERSTYLE
1000
AcRTDxfName
1000
MLEADERSTYLE
  0
MLINESTYLE
  5
7E9
102
{ACAD_REACTORS
330
17
102
}
330
17
100
AcDbMlineStyle
  2
SOLBET_IZOLACJA
 70
   272
  3

 62
   256
 51
90.0
 52
90.0
 71
     2
 49
0.008
 62
   256
  6
BYLAYER
 49
-0.008
 62
   256
  6
BYLAYER
  0
MLINESTYLE
  5
18
102
{ACAD_REACTORS
330
17
102
}
330
17
100
AcDbMlineStyle
  2
STANDARD
 70
     0
  3

 62
   256
 51
90.0
 52
90.0
 71
     2
 49
0.5
 62
   256
  6
BYLAYER
 49
-0.5
 62
   256
  6
BYLAYER
  0
ACDBPLACEHOLDER
  5
F
102
{ACAD_REACTORS
330
E
102
}
330
E
  0
ACAD_PROXY_OBJECT
  5
10D
102
{ACAD_REACTORS
330
10C
102
}
330
10C
100
AcDbProxyObject
 90
      499
 91
      507
 95
       23
 70
     0
 93
       49
310
904313A31005FF
 94
        0
1001
ACAD
1000
AcRTDxfName
1000
SCALE
1000
AcRTDxfName
1000
SCALE
1000
AcRTDxfName
1000
SCALE
  0
ACAD_PROXY_OBJECT
  5
188
102
{ACAD_REACTORS
330
10C
102
}
330
10C
100
AcDbProxyObject
 90
      499
 91
      507
 95
       23
 70
     0
 93
      113
310
904313A3200400000000000000407F
 94
        0
1001
ACAD
1000
AcRTDxfName
1000
SCALE
1000
AcRTDxfName
1000
SCALE
1000
AcRTDxfName
1000
SCALE
  0
ACAD_PROXY_OBJECT
  5
189
102
{ACAD_REACTORS
330
10C
102
}
330
10C
100
AcDbProxyObject
 90
      499
 91
      507
 95
       23
 70
     0
 93
      113
310
904313A3400400000000000010407F
 94
        0
1001
ACAD
1000
AcRTDxfName
1000
SCALE
1000
AcRTDxfName
1000
SCALE
1000
AcRTDxfName
1000
SCALE
  0
ACAD_PROXY_OBJECT
  5
18A
102
{ACAD_REACTORS
330
10C
102
}
330
10C
100
AcDbProxyObject
 90
      499
 91
      507
 95
       23
 70
     0
 93
      113
310
904313A3500400000000000014407F
 94
        0
1001
ACAD
1000
AcRTDxfName
1000
SCALE
1000
AcRTDxfName
1000
SCALE
1000
AcRTDxfName
1000
SCALE
  0
ACAD_PROXY_OBJECT
  5
18B
102
{ACAD_REACTORS
330
10C
102
}
330
10C
100
AcDbProxyObject
 90
      499
 91
      507
 95
       23
 70
     0
 93
      113
310
904313A3800400000000000020407F
 94
        0
1001
ACAD
1000
AcRTDxfName
1000
SCALE
1000
AcRTDxfName
1000
SCALE
1000
AcRTDxfName
1000
SCALE
  0
ACAD_PROXY_OBJECT
  5
18C
102
{ACAD_REACTORS
330
10C
102
}
330
10C
100
AcDbProxyObject
 90
      499
 91
      507
 95
       23
 70
     0
 93
      121
310
905313A313000400000000000024407F
 94
        0
1001
ACAD
1000
AcRTDxfName
1000
SCALE
1000
AcRTDxfName
1000
SCALE
1000
AcRTDxfName
1000
SCALE
  0
ACAD_PROXY_OBJECT
  5
18D
102
{ACAD_REACTORS
330
10C
102
}
330
10C
100
AcDbProxyObject
 90
      499
 91
      507
 95
       23
 70
     0
 93
      121
310
905313A313600400000000000030407F
 94
        0
1001
ACAD
1000
AcRTDxfName
1000
SCALE
1000
AcRTDxfName
1000
SCALE
1000
AcRTDxfName
1000
SCALE
  0
ACAD_PROXY_OBJECT
  5
18E
102
{ACAD_REACTORS
330
10C
102
}
330
10C
100
AcDbProxyObject
 90
      499
 91
      507
 95
       23
 70
     0
 93
      121
310
905313A323000400000000000034407F
 94
        0
1001
ACAD
1000
AcRTDxfName
1000
SCALE
1000
AcRTDxfName
1000
SCALE
1000
AcRTDxfName
1000
SCALE
  0
ACAD_PROXY_OBJECT
  5
18F
102
{ACAD_REACTORS
330
10C
102
}
330
10C
100
AcDbProxyObject
 90
      499
 91
      507
 95
       23
 70
     0
 93
      121
310
905313A33300040000000000003E407F
 94
        0
1001
ACAD
1000
AcRTDxfName
1000
SCALE
1000
AcRTDxfName
1000
SCALE
1000
AcRTDxfName
1000
SCALE
  0
ACAD_PROXY_OBJECT
  5
190
102
{ACAD_REACTORS
330
10C
102
}
330
10C
100
AcDbProxyObject
 90
      499
 91
      507
 95
       23
 70
     0
 93
      121
310
905313A343000400000000000044407F
 94
        0
1001
ACAD
1000
AcRTDxfName
1000
SCALE
1000
AcRTDxfName
1000
SCALE
1000
AcRTDxfName
1000
SCALE
  0
ACAD_PROXY_OBJECT
  5
191
102
{ACAD_REACTORS
330
10C
102
}
330
10C
100
AcDbProxyObject
 90
      499
 91
      507
 95
       23
 70
     0
 93
      121
310
905313A353000400000000000049407F
 94
        0
1001
ACAD
1000
AcRTDxfName
1000
SCALE
1000
AcRTDxfName
1000
SCALE
1000
AcRTDxfName
1000
SCALE
  0
ACAD_PROXY_OBJECT
  5
192
102
{ACAD_REACTORS
330
10C
102
}
330
10C
100
AcDbProxyObject
 90
      499
 91
      507
 95
       23
 70
     0
 93
      129
310
906313A31303000400000000000059407F
 94
        0
1001
ACAD
1000
AcRTDxfName
1000
SCALE
1000
AcRTDxfName
1000
SCALE
1000
AcRTDxfName
1000
SCALE
  0
ACAD_PROXY_OBJECT
  5
193
102
{ACAD_REACTORS
330
10C
102
}
330
10C
100
AcDbProxyObject
 90
      499
 91
      507
 95
       23
 70
     0
 93
      113
310
904323A3100000000000000001017F
 94
        0
1001
ACAD
1000
AcRTDxfName
1000
SCALE
1000
AcRTDxfName
1000
SCALE
1000
AcRTDxfName
1000
SCALE
  0
ACAD_PROXY_OBJECT
  5
194
102
{ACAD_REACTORS
330
10C
102
}
330
10C
100
AcDbProxyObject
 90
      499
 91
      507
 95
       23
 70
     0
 93
      113
310
904343A3100000000000000041017F
 94
        0
1001
ACAD
1000
AcRTDxfName
1000
SCALE
1000
AcRTDxfName
1000
SCALE
1000
AcRTDxfName
1000
SCALE
  0
ACAD_PROXY_OBJECT
  5
195
102
{ACAD_REACTORS
330
10C
102
}
330
10C
100
AcDbProxyObject
 90
      499
 91
      507
 95
       23
 70
     0
 93
      113
310
904383A3100000000000000081017F
 94
        0
1001
ACAD
1000
AcRTDxfName
1000
SCALE
1000
AcRTDxfName
1000
SCALE
1000
AcRTDxfName
1000
SCALE
  0
ACAD_PROXY_OBJECT
  5
196
102
{ACAD_REACTORS
330
10C
102
}
330
10C
100
AcDbProxyObject
 90
      499
 91
      507
 95
       23
 70
     0
 93
      121
310
90531303A3100000000000000091017F
 94
        0
1001
ACAD
1000
AcRTDxfName
1000
SCALE
1000
AcRTDxfName
1000
SCALE
1000
AcRTDxfName
1000
SCALE
  0
ACAD_PROXY_OBJECT
  5
197
102
{ACAD_REACTORS
330
10C
102
}
330
10C
100
AcDbProxyObject
 90
      499
 91
      507
 95
       23
 70
     0
 93
      129
310
9063130303A3100000000000000165017F
 94
        0
1001
ACAD
1000
AcRTDxfName
1000
SCALE
1000
AcRTDxfName
1000
SCALE
1000
AcRTDxfName
1000
SCALE
  0
ACAD_PROXY_OBJECT
  5
198
102
{ACAD_REACTORS
330
10C
102
}
330
10C
100
AcDbProxyObject
 90
      499
 91
      507
 95
       23
 70
     0
 93
      265
310
90F312F31323822203D2031272D302200000000000000200FC00000000000028407F
 94
        0
1001
ACAD
1000
AcRTDxfName
1000
SCALE
1000
AcRTDxfName
1000
SCALE
1000
AcRTDxfName
1000
SCALE
  0
ACAD_PROXY_OBJECT
  5
199
102
{ACAD_REACTORS
330
10C
102
}
330
10C
100
AcDbProxyObject
 90
      499
 91
      507
 95
       23
 70
     0
 93
      257
310
90E312F363422203D2031272D302200000000000000240FC00000000000028407F
 94
        0
1001
ACAD
1000
AcRTDxfName
1000
SCALE
1000
AcRTDxfName
1000
SCALE
1000
AcRTDxfName
1000
SCALE
  0
ACAD_PROXY_OBJECT
  5
19A
102
{ACAD_REACTORS
330
10C
102
}
330
10C
100
AcDbProxyObject
 90
      499
 91
      507
 95
       23
 70
     0
 93
      257
310
90E312F333222203D2031272D302200000000000000280FC00000000000028407F
 94
        0
1001
ACAD
1000
AcRTDxfName
1000
SCALE
1000
AcRTDxfName
1000
SCALE
1000
AcRTDxfName
1000
SCALE
  0
ACAD_PROXY_OBJECT
  5
19B
102
{ACAD_REACTORS
330
10C
102
}
330
10C
100
AcDbProxyObject
 90
      499
 91
      507
 95
       23
 70
     0
 93
      257
310
90E312F313622203D2031272D3022000000000000002C0FC00000000000028407F
 94
        0
1001
ACAD
1000
AcRTDxfName
1000
SCALE
1000
AcRTDxfName
1000
SCALE
1000
AcRTDxfName
1000
SCALE
  0
ACAD_PROXY_OBJECT
  5
19C
102
{ACAD_REACTORS
330
10C
102
}
330
10C
100
AcDbProxyObject
 90
      499
 91
      507
 95
       23
 70
     0
 93
      257
310
90E332F333222203D2031272D3022000000000000002E0FC00000000000028407F
 94
        0
1001
ACAD
1000
AcRTDxfName
1000
SCALE
1000
AcRTDxfName
1000
SCALE
1000
AcRTDxfName
1000
SCALE
  0
ACAD_PROXY_OBJECT
  5
19D
102
{ACAD_REACTORS
330
10C
102
}
330
10C
100
AcDbProxyObject
 90
      499
 91
      507
 95
       23
 70
     0
 93
      249
310
90D312F3822203D2031272D302200000000000000300FC00000000000028407F
 94
        0
1001
ACAD
1000
AcRTDxfName
1000
SCALE
1000
AcRTDxfName
1000
SCALE
1000
AcRTDxfName
1000
SCALE
  0
ACAD_PROXY_OBJECT
  5
19E
102
{ACAD_REACTORS
330
10C
102
}
330
10C
100
AcDbProxyObject
 90
      499
 91
      507
 95
       23
 70
     0
 93
      257
310
90E332F313622203D2031272D302200000000000000320FC00000000000028407F
 94
        0
1001
ACAD
1000
AcRTDxfName
1000
SCALE
1000
AcRTDxfName
1000
SCALE
1000
AcRTDxfName
1000
SCALE
  0
ACAD_PROXY_OBJECT
  5
19F
102
{ACAD_REACTORS
330
10C
102
}
330
10C
100
AcDbProxyObject
 90
      499
 91
      507
 95
       23
 70
     0
 93
      249
310
90D312F3422203D2031272D302200000000000000340FC00000000000028407F
 94
        0
1001
ACAD
1000
AcRTDxfName
1000
SCALE
1000
AcRTDxfName
1000
SCALE
1000
AcRTDxfName
1000
SCALE
  0
ACAD_PROXY_OBJECT
  5
1A0
102
{ACAD_REACTORS
330
10C
102
}
330
10C
100
AcDbProxyObject
 90
      499
 91
      507
 95
       23
 70
     0
 93
      249
310
90D332F3822203D2031272D302200000000000000360FC00000000000028407F
 94
        0
1001
ACAD
1000
AcRTDxfName
1000
SCALE
1000
AcRTDxfName
1000
SCALE
1000
AcRTDxfName
1000
SCALE
  0
ACAD_PROXY_OBJECT
  5
1A1
102
{ACAD_REACTORS
330
10C
102
}
330
10C
100
AcDbProxyObject
 90
      499
 91
      507
 95
       23
 70
     0
 93
      249
310
90D312F3222203D2031272D302200000000000000380FC00000000000028407F
 94
        0
1001
ACAD
1000
AcRTDxfName
1000
SCALE
1000
AcRTDxfName
1000
SCALE
1000
AcRTDxfName
1000
SCALE
  0
ACAD_PROXY_OBJECT
  5
1A2
102
{ACAD_REACTORS
330
10C
102
}
330
10C
100
AcDbProxyObject
 90
      499
 91
      507
 95
       23
 70
     0
 93
      249
310
90D332F3422203D2031272D3022000000000000003A0FC00000000000028407F
 94
        0
1001
ACAD
1000
AcRTDxfName
1000
SCALE
1000
AcRTDxfName
1000
SCALE
1000
AcRTDxfName
1000
SCALE
  0
ACAD_PROXY_OBJECT
  5
1A3
102
{ACAD_REACTORS
330
10C
102
}
330
10C
100
AcDbProxyObject
 90
      499
 91
      507
 95
       23
 70
     0
 93
      169
310
90B3122203D2031272D302200400000000000028407F
 94
        0
1001
ACAD
1000
AcRTDxfName
1000
SCALE
1000
AcRTDxfName
1000
SCALE
1000
AcRTDxfName
1000
SCALE
  0
ACAD_PROXY_OBJECT
  5
1A4
102
{ACAD_REACTORS
330
10C
102
}
330
10C
100
AcDbProxyObject
 90
      499
 91
      507
 95
       23
 70
     0
 93
      265
310
90F312D312F3222203D2031272D3022000000000000003E0FC00000000000028407F
 94
        0
1001
ACAD
1000
AcRTDxfName
1000
SCALE
1000
AcRTDxfName
1000
SCALE
1000
AcRTDxfName
1000
SCALE
  0
ACAD_PROXY_OBJECT
  5
1A5
102
{ACAD_REACTORS
330
10C
102
}
330
10C
100
AcDbProxyObject
 90
      499
 91
      507
 95
       23
 70
     0
 93
      233
310
90B3322203D2031272D3022000000000000000210000000000000028407F
 94
        0
1001
ACAD
1000
AcRTDxfName
1000
SCALE
1000
AcRTDxfName
1000
SCALE
1000
AcRTDxfName
1000
SCALE
  0
ACAD_PROXY_OBJECT
  5
1A6
102
{ACAD_REACTORS
330
10C
102
}
330
10C
100
AcDbProxyObject
 90
      499
 91
      507
 95
       23
 70
     0
 93
      233
310
90B3622203D2031272D3022000000000000000610000000000000028407F
 94
        0
1001
ACAD
1000
AcRTDxfName
1000
SCALE
1000
AcRTDxfName
1000
SCALE
1000
AcRTDxfName
1000
SCALE
  0
ACAD_PROXY_OBJECT
  5
1A7
102
{ACAD_REACTORS
330
10C
102
}
330
10C
100
AcDbProxyObject
 90
      499
 91
      507
 95
       23
 70
     0
 93
      257
310
90E31272D3022203D2031272D3022000000000000000A10000000000000028407F
 94
        0
1001
ACAD
1000
AcRTDxfName
1000
SCALE
1000
AcRTDxfName
1000
SCALE
1000
AcRTDxfName
1000
SCALE
  0
TABLESTYLE
  5
7F
102
{ACAD_XDICTIONARY
360
162
102
}
102
{ACAD_REACTORS
330
7E
102
}
330
7E
100
AcDbTableStyle
  3
Standard
 70
     0
 71
     0
 40
1.5
 41
1.5
280
     0
281
     0
  7
Standard
140
4.5
170
     2
 62
     0
 63
     7
283
     0
274
    -2
284
     1
 64
     0
275
    -2
285
     1
 65
     0
276
    -2
286
     1
 66
     0
277
    -2
287
     1
 67
     0
278
    -2
288
     1
 68
     0
279
    -2
289
     1
 69
     0
  7
Standard
140
6.0
170
     5
 62
     0
 63
     7
283
     0
274
    -2
284
     1
 64
     0
275
    -2
285
     1
 65
     0
276
    -2
286
     1
 66
     0
277
    -2
287
     1
 67
     0
278
    -2
288
     1
 68
     0
279
    -2
289
     1
 69
     0
  7
Standard
140
4.5
170
     5
 62
     0
 63
     7
283
     0
274
    -2
284
     1
 64
     0
275
    -2
285
     1
 65
     0
276
    -2
286
     1
 66
     0
277
    -2
287
     1
 67
     0
278
    -2
288
     1
 68
     0
279
    -2
289
     1
 69
     0
  0
VISUALSTYLE
  5
F5
102
{ACAD_REACTORS
330
EF
102
}
330
EF
100
AcDbVisualStyle
  2
2dWireframe
 70
     4
 71
     0
 72
     2
 73
     1
 90
        0
 40
-0.6
 41
-30.0
 62
     5
 63
     7
 74
     1
 91
        4
 64
     7
 65
   257
 75
     1
175
     1
 42
1.0
 92
        0
 66
   257
 43
1.0
 76
     1
 77
     6
 78
     2
 67
     7
 79
     5
170
     0
171
     0
290
     0
174
     0
 93
        1
 44
0.0
173
     0
291
     0
 45
0.0
1001
ACAD
1000
AcDbSavedByObjectVersion
1070
     0
  0
VISUALSTYLE
  5
F7
102
{ACAD_REACTORS
330
EF
102
}
330
EF
100
AcDbVisualStyle
  2
3D Hidden
 70
     6
 71
     1
 72
     2
 73
     2
 90
        0
 40
-0.6
 41
-30.0
 62
     5
 63
     7
 74
     2
 91
        2
 64
     7
 65
   257
 75
     2
175
     1
 42
40.0
 92
        0
 66
   257
 43
1.0
 76
     1
 77
     6
 78
     2
 67
     7
 79
     3
170
     0
171
     0
290
     0
174
     0
 93
        1
 44
0.0
173
     0
291
     0
 45
0.0
1001
ACAD
1000
AcDbSavedByObjectVersion
1070
     0
  0
VISUALSTYLE
  5
F6
102
{ACAD_REACTORS
330
EF
102
}
330
EF
100
AcDbVisualStyle
  2
3dWireframe
 70
     5
 71
     0
 72
     2
 73
     1
 90
        0
 40
-0.6
 41
-30.0
 62
     5
 63
     7
 74
     1
 91
        4
 64
     7
 65
   257
 75
     1
175
     1
 42
1.0
 92
        0
 66
   257
 43
1.0
 76
     1
 77
     6
 78
     2
 67
     7
 79
     5
170
     0
171
     0
290
     0
174
     0
 93
        1
 44
0.0
173
     0
291
     0
 45
0.0
1001
ACAD
1000
AcDbSavedByObjectVersion
1070
     0
  0
VISUALSTYLE
  5
F4
102
{ACAD_REACTORS
330
EF
102
}
330
EF
100
AcDbVisualStyle
  2
Basic
 70
     7
 71
     1
 72
     0
 73
     1
 90
        0
 40
-0.6
 41
-30.0
 62
     5
 63
     7
 74
     0
 91
        4
 64
     7
 65
   257
 75
     1
175
     1
 42
1.0
 92
        8
 66
     7
 43
1.0
 76
     1
 77
     6
 78
     2
 67
     7
 79
     5
170
     0
171
     0
290
     0
174
     0
 93
        1
 44
0.0
173
     0
291
     1
 45
0.0
1001
ACAD
1000
AcDbSavedByObjectVersion
1070
     0
  0
VISUALSTYLE
  5
FB
102
{ACAD_REACTORS
330
EF
102
}
330
EF
100
AcDbVisualStyle
  2
Brighten
 70
    12
 71
     2
 72
     2
 73
     1
 90
        0
 40
-0.6
 41
-30.0
 62
     5
 63
     7
 74
     1
 91
        4
 64
     7
 65
   257
 75
     1
175
     1
 42
1.0
 92
        8
 66
     7
 43
1.0
 76
     1
 77
     6
 78
     2
 67
     7
 79
     5
170
     0
171
     0
290
     0
174
     0
 93
        1
 44
50.0
173
     0
291
     1
 45
0.0
1001
ACAD
1000
AcDbSavedByObjectVersion
1070
     0
  0
VISUALSTYLE
  5
FF
102
{ACAD_REACTORS
330
EF
102
}
330
EF
100
AcDbVisualStyle
  2
ColorChange
 70
    16
 71
     2
 72
     2
 73
     3
 90
        0
 40
-0.6
 41
-30.0
 62
     5
 63
     8
 74
     1
 91
        4
 64
     7
 65
   257
 75
     1
175
     1
 42
1.0
 92
        8
 66
     8
 43
1.0
 76
     1
 77
     6
 78
     2
 67
     7
 79
     5
170
     0
171
     0
290
     0
174
     0
 93
        1
 44
0.0
173
     0
291
     1
 45
0.0
1001
ACAD
1000
AcDbSavedByObjectVersion
1070
     0
  0
VISUALSTYLE
  5
F8
102
{ACAD_REACTORS
330
EF
102
}
330
EF
100
AcDbVisualStyle
  2
Conceptual
 70
     9
 71
     3
 72
     2
 73
     1
 90
        0
 40
-0.6
 41
-30.0
 62
     5
 63
     7
 74
     2
 91
        2
 64
     7
 65
   257
 75
     1
175
     1
 42
40.0
 92
        8
 66
     7
 43
1.0
 76
     1
 77
     6
 78
     2
 67
     7
 79
     3
170
     0
171
     0
290
     0
174
     0
 93
        1
 44
0.0
173
     0
291
     0
 45
0.0
1001
ACAD
1000
AcDbSavedByObjectVersion
1070
     0
  0
VISUALSTYLE
  5
FA
102
{ACAD_REACTORS
330
EF
102
}
330
EF
100
AcDbVisualStyle
  2
Dim
 70
    11
 71
     2
 72
     2
 73
     1
 90
        0
 40
-0.6
 41
-30.0
 62
     5
 63
     7
 74
     1
 91
        4
 64
     7
 65
   257
 75
     1
175
     1
 42
1.0
 92
        8
 66
     7
 43
1.0
 76
     1
 77
     6
 78
     2
 67
     7
 79
     5
170
     0
171
     0
290
     0
174
     0
 93
        1
 44
-50.0
173
     0
291
     1
 45
0.0
1001
ACAD
1000
AcDbSavedByObjectVersion
1070
     0
  0
VISUALSTYLE
  5
FE
102
{ACAD_REACTORS
330
EF
102
}
330
EF
100
AcDbVisualStyle
  2
Facepattern
 70
    15
 71
     2
 72
     2
 73
     1
 90
        0
 40
-0.6
 41
-30.0
 62
     5
 63
     7
 74
     1
 91
        4
 64
     7
 65
   257
 75
     1
175
     1
 42
1.0
 92
        8
 66
     7
 43
1.0
 76
     1
 77
     6
 78
     2
 67
     7
 79
     5
170
     0
171
     0
290
     0
174
     0
 93
        1
 44
0.0
173
     0
291
     1
 45
0.0
1001
ACAD
1000
AcDbSavedByObjectVersion
1070
     0
  0
VISUALSTYLE
  5
F0
102
{ACAD_REACTORS
330
EF
102
}
330
EF
100
AcDbVisualStyle
  2
Flat
 70
     0
 71
     2
 72
     1
 73
     1
 90
        2
 40
-0.6
 41
30.0
 62
     5
 63
     7
 74
     0
 91
        4
 64
     7
 65
   257
 75
     1
175
     1
 42
1.0
 92
        8
 66
     7
 43
1.0
 76
     1
 77
     6
 78
     2
 67
     7
 79
     5
170
     0
171
     0
290
     0
174
     0
 93
        1
 44
0.0
173
     0
291
     1
 45
0.0
1001
ACAD
1000
AcDbSavedByObjectVersion
1070
     0
  0
VISUALSTYLE
  5
F1
102
{ACAD_REACTORS
330
EF
102
}
330
EF
100
AcDbVisualStyle
  2
FlatWithEdges
 70
     1
 71
     2
 72
     1
 73
     1
 90
        2
 40
-0.6
 41
30.0
 62
     5
 63
     7
 74
     1
 91
        4
 64
     7
 65
   257
 75
     1
175
     1
 42
1.0
 92
        0
 66
   257
 43
1.0
 76
     1
 77
     6
 78
     2
 67
     7
 79
     5
170
     0
171
     0
290
     0
174
     0
 93
        1
 44
0.0
173
     0
291
     1
 45
0.0
1001
ACAD
1000
AcDbSavedByObjectVersion
1070
     0
  0
VISUALSTYLE
  5
F2
102
{ACAD_REACTORS
330
EF
102
}
330
EF
100
AcDbVisualStyle
  2
Gouraud
 70
     2
 71
     2
 72
     2
 73
     1
 90
        2
 40
-0.6
 41
30.0
 62
     5
 63
     7
 74
     0
 91
        4
 64
     7
 65
   257
 75
     1
175
     1
 42
1.0
 92
        0
 66
     7
 43
1.0
 76
     1
 77
     6
 78
     2
 67
     7
 79
     5
170
     0
171
     0
290
     0
174
     0
 93
        1
 44
0.0
173
     0
291
     1
 45
0.0
1001
ACAD
1000
AcDbSavedByObjectVersion
1070
     0
  0
VISUALSTYLE
  5
F3
102
{ACAD_REACTORS
330
EF
102
}
330
EF
100
AcDbVisualStyle
  2
GouraudWithEdges
 70
     3
 71
     2
 72
     2
 73
     1
 90
        2
 40
-0.6
 41
30.0
 62
     5
 63
     7
 74
     1
 91
        4
 64
     7
 65
   257
 75
     1
175
     1
 42
1.0
 92
        0
 66
   257
 43
1.0
 76
     1
 77
     6
 78
     2
 67
     7
 79
     5
170
     0
171
     0
290
     0
174
     0
 93
        1
 44
0.0
173
     0
291
     1
 45
0.0
1001
ACAD
1000
AcDbSavedByObjectVersion
1070
     0
  0
VISUALSTYLE
  5
FD
102
{ACAD_REACTORS
330
EF
102
}
330
EF
100
AcDbVisualStyle
  2
Linepattern
 70
    14
 71
     2
 72
     2
 73
     1
 90
        0
 40
-0.6
 41
-30.0
 62
     5
 63
     7
 74
     1
 91
        4
 64
     7
 65
   257
 75
     7
175
     7
 42
1.0
 92
        8
 66
     7
 43
1.0
 76
     1
 77
     6
 78
     2
 67
     7
 79
     5
170
     0
171
     0
290
     0
174
     0
 93
        1
 44
0.0
173
     0
291
     1
 45
0.0
1001
ACAD
1000
AcDbSavedByObjectVersion
1070
     0
  0
VISUALSTYLE
  5
F9
102
{ACAD_REACTORS
330
EF
102
}
330
EF
100
AcDbVisualStyle
  2
Realistic
 70
     8
 71
     2
 72
     2
 73
     1
 90
        0
 40
-0.6
 41
-30.0
 62
     5
 63
     7
 74
     1
 91
        0
 64
     7
 65
   257
 75
     1
175
     1
 42
1.0
 92
        8
 66
     8
 43
1.0
 76
     1
 77
     6
 78
     2
 67
     7
 79
     5
170
     0
171
     0
290
     0
174
     0
 93
       13
 44
0.0
173
     0
291
     0
 45
0.0
1001
ACAD
1000
AcDbSavedByObjectVersion
1070
     0
  0
VISUALSTYLE
  5
FC
102
{ACAD_REACTORS
330
EF
102
}
330
EF
100
AcDbVisualStyle
  2
Thicken
 70
    13
 71
     2
 72
     2
 73
     1
 90
        0
 40
-0.6
 41
-30.0
 62
     5
 63
     7
 74
     1
 91
        4
 64
     7
 65
   257
 75
     1
175
     1
 42
1.0
 92
       12
 66
     7
 43
1.0
 76
     1
 77
     6
 78
     2
 67
     7
 79
     5
170
     0
171
     0
290
     0
174
     0
 93
        1
 44
0.0
173
     0
291
     1
 45
0.0
1001
ACAD
1000
AcDbSavedByObjectVersion
1070
     0
  0
DICTIONARYVAR
  5
146
102
{ACAD_REACTORS
330
5E
102
}
330
5E
100
DictionaryVariables
280
     0
  1
1:1
  0
DICTIONARYVAR
  5
145
102
{ACAD_REACTORS
330
5E
102
}
330
5E
100
DictionaryVariables
280
     0
  1
STANDARD
  0
DICTIONARYVAR
  5
84
102
{ACAD_REACTORS
330
5E
102
}
330
5E
100
DictionaryVariables
280
     0
  1
STANDARD
  0
DICTIONARYVAR
  5
5F
102
{ACAD_REACTORS
330
5E
102
}
330
5E
100
DictionaryVariables
280
     0
  1
2
  0
DICTIONARYVAR
  5
63
102
{ACAD_REACTORS
330
5E
102
}
330
5E
100
DictionaryVariables
280
     0
  1
1
  0
DICTIONARYVAR
  5
466
102
{ACAD_REACTORS
330
5E
102
}
330
5E
100
DictionaryVariables
280
     0
  1
0
  0
DICTIONARYVAR
  5
464
102
{ACAD_REACTORS
330
5E
102
}
330
5E
100
DictionaryVariables
280
     0
  1
2
  0
DICTIONARYVAR
  5
463
102
{ACAD_REACTORS
330
5E
102
}
330
5E
100
DictionaryVariables
280
     0
  1
1
  0
DICTIONARYVAR
  5
3C72
102
{ACAD_REACTORS
330
5E
102
}
330
5E
100
DictionaryVariables
280
     0
  1
80.000000
  0
DICTIONARYVAR
  5
3C71
102
{ACAD_REACTORS
330
5E
102
}
330
5E
100
DictionaryVariables
280
     0
  1
5.000000
  0
DICTIONARYVAR
  5
465
102
{ACAD_REACTORS
330
5E
102
}
330
5E
100
DictionaryVariables
280
     0
  1
127
  0
DICTIONARY
  5
3A04
102
{ACAD_REACTORS
330
3A03
102
}
330
3A03
100
AcDbDictionary
281
     1
  0
DICTIONARY
  5
3C77
330
D3
100
AcDbDictionary
280
     1
281
     1
  3
ACAD_XREC_ROUNDTRIP
360
3C78
  0
DICTIONARY
  5
3C79
330
D7
100
AcDbDictionary
280
     1
281
     1
  3
ACAD_XREC_ROUNDTRIP
360
3C7A
  0
DICTIONARY
  5
3C74
330
22
100
AcDbDictionary
280
     1
281
     1
  3
ACAD_XREC_ROUNDTRIP
360
3C75
  0
DICTIONARY
  5
3C7D
330
ED
100
AcDbDictionary
280
     1
281
     1
  3
ACAD_XREC_ROUNDTRIP
360
3C7E
  0
DICTIONARY
  5
3C7B
330
EC
100
AcDbDictionary
280
     1
281
     1
  3
ACAD_XREC_ROUNDTRIP
360
3C7C
  0
DICTIONARY
  5
173
330
EE
100
AcDbDictionary
280
     1
281
     1
  3
ACAD_XREC_ROUNDTRIP
360
3C7F
  3
BUMPTILE
360
175
  3
DIFFUSETILE
360
174
  3
OPACITYTILE
360
176
  3
REFLECTIONTILE
360
177
  0
DICTIONARY
  5
162
330
7F
100
AcDbDictionary
280
     1
281
     1
  3
ACAD_ROUNDTRIP_2008_TABLESTYLE_CELLSTYLEMAP
360
3B7C
  3
ACAD_XREC_ROUNDTRIP
360
3C76
  0
XRECORD
  5
3C78
102
{ACAD_REACTORS
330
3C77
102
}
330
3C77
100
AcDbXrecord
280
     1
102
SHADEPLOT
 70
     0
102
SHADEPLOTRESLEVEL
 70
     2
102
SHADEPLOTCUSTOMDPI
 70
   300
  0
XRECORD
  5
3C7A
102
{ACAD_REACTORS
330
3C79
102
}
330
3C79
100
AcDbXrecord
280
     1
102
SHADEPLOT
 70
     0
102
SHADEPLOTRESLEVEL
 70
     2
102
SHADEPLOTCUSTOMDPI
 70
   300
  0
XRECORD
  5
3C75
102
{ACAD_REACTORS
330
3C74
102
}
330
3C74
100
AcDbXrecord
280
     1
102
SHADEPLOT
 70
     0
102
SHADEPLOTRESLEVEL
 70
     2
102
SHADEPLOTCUSTOMDPI
 70
   300
  0
XRECORD
  5
3C7E
102
{ACAD_REACTORS
330
3C7D
102
}
330
3C7D
100
AcDbXrecord
280
     1
102
MATERIAL
148
0.0
149
0.0
149
0.0
 93
        0
 94
       63
282
     0
 72
     1
 77
     1
171
     1
175
     1
179
     1
273
     0
  0
XRECORD
  5
3C7C
102
{ACAD_REACTORS
330
3C7B
102
}
330
3C7B
100
AcDbXrecord
280
     1
102
MATERIAL
148
0.0
149
0.0
149
0.0
 93
        0
 94
       63
282
     0
 72
     1
 77
     1
171
     1
175
     1
179
     1
273
     0
  0
XRECORD
  5
3C7F
102
{ACAD_REACTORS
330
173
102
}
330
173
100
AcDbXrecord
280
     1
102
MATERIAL
148
0.0
149
0.0
149
0.0
 93
        0
 94
       63
282
     0
 72
     1
 77
     1
171
     1
175
     1
179
     1
273
     0
  0
XRECORD
  5
175
102
{ACAD_REACTORS
330
173
102
}
330
173
100
AcDbXrecord
280
     1
270
     1
271
     1
  0
XRECORD
  5
174
102
{ACAD_REACTORS
330
173
102
}
330
173
100
AcDbXrecord
280
     1
270
     1
271
     1
  0
XRECORD
  5
176
102
{ACAD_REACTORS
330
173
102
}
330
173
100
AcDbXrecord
280
     1
270
     1
271
     1
  0
XRECORD
  5
177
102
{ACAD_REACTORS
330
173
102
}
330
173
100
AcDbXrecord
280
     1
270
     1
271
     1
  0
ACAD_PROXY_OBJECT
  5
3B7C
102
{ACAD_REACTORS
330
162
102
}
330
162
100
AcDbProxyObject
 90
      499
 91
      509
 95
       23
 70
     0
 93
     5304
310
40D054060020000020000003200101A000080002A5058000000C10000000000000006101010000000000003E0FC000000000000F83F0000000000003E0FC000000000000F83F02B5E8DC0F42B1CFC0AD7A3703D0AC73F419019018000000C1003FBFFFFFE0000000000003C8FD029018000000C1003FBFFFFFE00000000000
310
03C8FD049018000000C1003FBFFFFFE0000000000003C8FD089018000000C1003FBFFFFFE0000000000003C8FD109018000000C1003FBFFFFFE0000000000003C8FD209018000000C1003FBFFFFFE0000000000003C8FD01405075F5449544C450041501A8000000C800406800020000A94160000003040000000000000012
310
40404000000000000F83F0000000000003E0FC000000000000F83F0000000000003E0FC0AD7A3703D0AC73F02B5E8DC0F42B1CFD0640640600000030400FEFFFFFF8000000000000F23F40A40600000030400FEFFFFFF8000000000000F23F41240600000030400FEFFFFFF8000000000000F23F42240600000030400FEFFF
310
FFF8000000000000F23F44240600000030400FEFFFFFF8000000000000F23F48240600000030400FEFFFFFF8000000000000F23F409014217D2115051115480105406A0000003200101A000080002A5028000000C10000000000000004901010000000000003E0FC000000000000F83F0000000000003E0FC000000000000F
310
83F02B5E8DC0F42B1CFC0AD7A3703D0AC73F419019018000000C1003FBFFFFFE0000000000003C8FD029018000000C1003FBFFFFFE0000000000003C8FD049018000000C1003FBFFFFFE0000000000003C8FD089018000000C1003FBFFFFFE0000000000003C8FD109018000000C1003FBFFFFFE0000000000003C8FD20901
310
8000000C1003FBFFFFFE0000000000003C8FD03409065F444154410000
340
11
340
14
340
14
340
14
340
14
340
14
340
14
340
11
340
14
340
14
340
14
340
14
340
14
340
14
340
11
340
14
340
14
340
14
340
14
340
14
340
14
 94
        0
1001
ACAD
1000
AcRTDxfName
1000
CELLSTYLEMAP
1000
AcRTDxfName
1000
CELLSTYLEMAP
1000
AcRTDxfName
1000
CELLSTYLEMAP
  0
XRECORD
  5
3C76
102
{ACAD_REACTORS
330
162
102
}
330
162
100
AcDbXrecord
280
     1
102
ACAD_ROUNDTRIP_PRE2007_TABLESTYLE
 90
      512
 91
        0
  1

 92
      512
 93
        0
  2

 94
      512
 95
        0
  3

  0
ENDSEC
  0
EOF
